  0
SECTION
  2
HEADER
  9
$EXTMIN
 10
0.0
 20
0.0
 30
0.0
  9
$EXTMAX
 10
594.0
 20
420.0
 30
0.0
  9
$LIMMIN
 10
0.0
 20
0.0
  9
$LIMMAX
 10
594.0
 20
420.0
  9
$LTSCALE
 40
1.0
  9
$PDMODE
 70
     0
  0
ENDSEC
  0
SECTION
  2
TABLES
  0
TABLE
  2
LTYPE
 70
     3
  0
LTYPE
  2
CONTINUOUS
 70
    64
  3
Solid line
 72
    65
 73
     0
 40
0.0
  0
LTYPE
  2
LTYPE1
 70
    64
  3
CENTER
 72
    65
 73
     4
 40
20.0
 49
14.0
 49
-2.0
 49
2.0
 49
-2.0
  0
LTYPE
  2
LTYPE2
 70
    64
  3
HIDDEN
 72
    65
 73
     2
 40
6.0
 49
3.6
 49
-2.4
  0
ENDTAB
  0
TABLE
  2
LAYER
 70
   128
  0
LAYER
  2
0
 70
     0
 62
     7
  6
CONTINUOUS
  0
LAYER
  2
1
 70
     0
 62
     7
  6
CONTINUOUS
  0
LAYER
  2
2
 70
     0
 62
     7
  6
CONTINUOUS
  0
LAYER
  2
3
 70
     0
 62
     7
  6
CONTINUOUS
  0
LAYER
  2
4
 70
     0
 62
     7
  6
CONTINUOUS
  0
LAYER
  2
5
 70
     0
 62
     7
  6
CONTINUOUS
  0
LAYER
  2
6
 70
     0
 62
     7
  6
CONTINUOUS
  0
LAYER
  2
7
 70
     0
 62
     7
  6
CONTINUOUS
  0
LAYER
  2
8
 70
     0
 62
     7
  6
CONTINUOUS
  0
LAYER
  2
9
 70
     0
 62
     7
  6
CONTINUOUS
  0
LAYER
  2
10
 70
     0
 62
     7
  6
CONTINUOUS
  0
LAYER
  2
11
 70
     0
 62
     7
  6
CONTINUOUS
  0
LAYER
  2
12
 70
     0
 62
     7
  6
CONTINUOUS
  0
LAYER
  2
13
 70
     0
 62
     7
  6
CONTINUOUS
  0
LAYER
  2
14
 70
     0
 62
     7
  6
CONTINUOUS
  0
LAYER
  2
15
 70
     0
 62
     7
  6
CONTINUOUS
  0
LAYER
  2
16
 70
     0
 62
     7
  6
CONTINUOUS
  0
LAYER
  2
17
 70
     0
 62
     7
  6
CONTINUOUS
  0
LAYER
  2
18
 70
     0
 62
     7
  6
CONTINUOUS
  0
LAYER
  2
19
 70
     0
 62
     7
  6
CONTINUOUS
  0
LAYER
  2
20
 70
     0
 62
     7
  6
CONTINUOUS
  0
LAYER
  2
21
 70
     0
 62
     7
  6
CONTINUOUS
  0
LAYER
  2
22
 70
     0
 62
     7
  6
CONTINUOUS
  0
LAYER
  2
23
 70
     0
 62
     7
  6
CONTINUOUS
  0
LAYER
  2
24
 70
     0
 62
     7
  6
CONTINUOUS
  0
LAYER
  2
25
 70
     0
 62
     7
  6
CONTINUOUS
  0
LAYER
  2
26
 70
     0
 62
     7
  6
CONTINUOUS
  0
LAYER
  2
27
 70
     0
 62
     7
  6
CONTINUOUS
  0
LAYER
  2
28
 70
     0
 62
     7
  6
CONTINUOUS
  0
LAYER
  2
29
 70
     0
 62
     7
  6
CONTINUOUS
  0
LAYER
  2
30
 70
     0
 62
     7
  6
CONTINUOUS
  0
LAYER
  2
31
 70
     0
 62
     7
  6
CONTINUOUS
  0
LAYER
  2
32
 70
     0
 62
     7
  6
CONTINUOUS
  0
LAYER
  2
33
 70
     0
 62
     7
  6
CONTINUOUS
  0
LAYER
  2
34
 70
     0
 62
     7
  6
CONTINUOUS
  0
LAYER
  2
35
 70
     0
 62
     7
  6
CONTINUOUS
  0
LAYER
  2
36
 70
     0
 62
     7
  6
CONTINUOUS
  0
LAYER
  2
37
 70
     0
 62
     7
  6
CONTINUOUS
  0
LAYER
  2
38
 70
     0
 62
     7
  6
CONTINUOUS
  0
LAYER
  2
39
 70
     0
 62
     7
  6
CONTINUOUS
  0
LAYER
  2
40
 70
     0
 62
     7
  6
CONTINUOUS
  0
LAYER
  2
41
 70
     0
 62
     7
  6
CONTINUOUS
  0
LAYER
  2
42
 70
     0
 62
     7
  6
CONTINUOUS
  0
LAYER
  2
43
 70
     0
 62
     7
  6
CONTINUOUS
  0
LAYER
  2
44
 70
     0
 62
     7
  6
CONTINUOUS
  0
LAYER
  2
45
 70
     0
 62
     7
  6
CONTINUOUS
  0
LAYER
  2
46
 70
     0
 62
     7
  6
CONTINUOUS
  0
LAYER
  2
47
 70
     0
 62
     7
  6
CONTINUOUS
  0
LAYER
  2
48
 70
     0
 62
     7
  6
CONTINUOUS
  0
LAYER
  2
49
 70
     0
 62
     7
  6
CONTINUOUS
  0
LAYER
  2
50
 70
     0
 62
     7
  6
CONTINUOUS
  0
LAYER
  2
51
 70
     0
 62
     7
  6
CONTINUOUS
  0
LAYER
  2
52
 70
     0
 62
     7
  6
CONTINUOUS
  0
LAYER
  2
53
 70
     0
 62
     7
  6
CONTINUOUS
  0
LAYER
  2
54
 70
     0
 62
     7
  6
CONTINUOUS
  0
LAYER
  2
55
 70
     0
 62
     7
  6
CONTINUOUS
  0
LAYER
  2
56
 70
     0
 62
     7
  6
CONTINUOUS
  0
LAYER
  2
57
 70
     0
 62
     7
  6
CONTINUOUS
  0
LAYER
  2
58
 70
     0
 62
     7
  6
CONTINUOUS
  0
LAYER
  2
59
 70
     0
 62
     7
  6
CONTINUOUS
  0
LAYER
  2
60
 70
     0
 62
     7
  6
CONTINUOUS
  0
LAYER
  2
61
 70
     0
 62
     7
  6
CONTINUOUS
  0
LAYER
  2
62
 70
     0
 62
     7
  6
CONTINUOUS
  0
LAYER
  2
63
 70
     0
 62
     7
  6
CONTINUOUS
  0
LAYER
  2
64
 70
     0
 62
     7
  6
CONTINUOUS
  0
LAYER
  2
65
 70
     0
 62
     7
  6
CONTINUOUS
  0
LAYER
  2
66
 70
     0
 62
     7
  6
CONTINUOUS
  0
LAYER
  2
67
 70
     0
 62
     7
  6
CONTINUOUS
  0
LAYER
  2
68
 70
     0
 62
     7
  6
CONTINUOUS
  0
LAYER
  2
69
 70
     0
 62
     7
  6
CONTINUOUS
  0
LAYER
  2
70
 70
     0
 62
     7
  6
CONTINUOUS
  0
LAYER
  2
71
 70
     0
 62
     7
  6
CONTINUOUS
  0
LAYER
  2
72
 70
     0
 62
     7
  6
CONTINUOUS
  0
LAYER
  2
73
 70
     0
 62
     7
  6
CONTINUOUS
  0
LAYER
  2
74
 70
     0
 62
     7
  6
CONTINUOUS
  0
LAYER
  2
75
 70
     0
 62
     7
  6
CONTINUOUS
  0
LAYER
  2
76
 70
     0
 62
     7
  6
CONTINUOUS
  0
LAYER
  2
77
 70
     0
 62
     7
  6
CONTINUOUS
  0
LAYER
  2
78
 70
     0
 62
     7
  6
CONTINUOUS
  0
LAYER
  2
79
 70
     0
 62
     7
  6
CONTINUOUS
  0
LAYER
  2
80
 70
     0
 62
     7
  6
CONTINUOUS
  0
LAYER
  2
81
 70
     0
 62
     7
  6
CONTINUOUS
  0
LAYER
  2
82
 70
     0
 62
     7
  6
CONTINUOUS
  0
LAYER
  2
83
 70
     0
 62
     7
  6
CONTINUOUS
  0
LAYER
  2
84
 70
     0
 62
     7
  6
CONTINUOUS
  0
LAYER
  2
85
 70
     0
 62
     7
  6
CONTINUOUS
  0
LAYER
  2
86
 70
     0
 62
     7
  6
CONTINUOUS
  0
LAYER
  2
87
 70
     0
 62
     7
  6
CONTINUOUS
  0
LAYER
  2
88
 70
     0
 62
     7
  6
CONTINUOUS
  0
LAYER
  2
89
 70
     0
 62
     7
  6
CONTINUOUS
  0
LAYER
  2
90
 70
     0
 62
     7
  6
CONTINUOUS
  0
LAYER
  2
91
 70
     0
 62
     7
  6
CONTINUOUS
  0
LAYER
  2
92
 70
     0
 62
     7
  6
CONTINUOUS
  0
LAYER
  2
93
 70
     0
 62
     7
  6
CONTINUOUS
  0
LAYER
  2
94
 70
     0
 62
     7
  6
CONTINUOUS
  0
LAYER
  2
95
 70
     0
 62
     7
  6
CONTINUOUS
  0
LAYER
  2
96
 70
     0
 62
     7
  6
CONTINUOUS
  0
LAYER
  2
97
 70
     0
 62
     7
  6
CONTINUOUS
  0
LAYER
  2
98
 70
     0
 62
     7
  6
CONTINUOUS
  0
LAYER
  2
99
 70
     0
 62
     7
  6
CONTINUOUS
  0
LAYER
  2
100
 70
     0
 62
     7
  6
CONTINUOUS
  0
LAYER
  2
101
 70
     0
 62
     7
  6
CONTINUOUS
  0
LAYER
  2
102
 70
     0
 62
     7
  6
CONTINUOUS
  0
LAYER
  2
103
 70
     0
 62
     7
  6
CONTINUOUS
  0
LAYER
  2
104
 70
     0
 62
     7
  6
CONTINUOUS
  0
LAYER
  2
105
 70
     0
 62
     7
  6
CONTINUOUS
  0
LAYER
  2
106
 70
     0
 62
     7
  6
CONTINUOUS
  0
LAYER
  2
107
 70
     0
 62
     7
  6
CONTINUOUS
  0
LAYER
  2
108
 70
     0
 62
     7
  6
CONTINUOUS
  0
LAYER
  2
109
 70
     0
 62
     7
  6
CONTINUOUS
  0
LAYER
  2
110
 70
     0
 62
     7
  6
CONTINUOUS
  0
LAYER
  2
111
 70
     0
 62
     7
  6
CONTINUOUS
  0
LAYER
  2
112
 70
     0
 62
     7
  6
CONTINUOUS
  0
LAYER
  2
113
 70
     0
 62
     7
  6
CONTINUOUS
  0
LAYER
  2
114
 70
     0
 62
     7
  6
CONTINUOUS
  0
LAYER
  2
115
 70
     0
 62
     7
  6
CONTINUOUS
  0
LAYER
  2
116
 70
     0
 62
     7
  6
CONTINUOUS
  0
LAYER
  2
117
 70
     0
 62
     7
  6
CONTINUOUS
  0
LAYER
  2
118
 70
     0
 62
     7
  6
CONTINUOUS
  0
LAYER
  2
119
 70
     0
 62
     7
  6
CONTINUOUS
  0
LAYER
  2
120
 70
     0
 62
     7
  6
CONTINUOUS
  0
LAYER
  2
121
 70
     0
 62
     7
  6
CONTINUOUS
  0
LAYER
  2
122
 70
     0
 62
     7
  6
CONTINUOUS
  0
LAYER
  2
123
 70
     0
 62
     7
  6
CONTINUOUS
  0
LAYER
  2
124
 70
     0
 62
     7
  6
CONTINUOUS
  0
LAYER
  2
125
 70
     0
 62
     7
  6
CONTINUOUS
  0
LAYER
  2
126
 70
     0
 62
     7
  6
CONTINUOUS
  0
LAYER
  2
127
 70
     0
 62
     7
  6
CONTINUOUS
  0
ENDTAB
  0
TABLE
  2
STYLE
 70
     5
  0
STYLE
  2
STANDARD
 70
     0
 40
0.0
 41
1.0
 50
0.0
 71
     0
 42
0.2
  3
txt
  4

  0
STYLE
  2
KANJI0
 70
     0
 40
6.0
 41
0.666666667
 50
0.0
 71
     0
 42
6.0
  3

  4
bigfont
  0
STYLE
  2
KANJI1
 70
     0
 40
3.6
 41
0.666666667
 50
0.0
 71
     0
 42
3.6
  3

  4
bigfont
  0
STYLE
  2
KANJI2
 70
     0
 40
6.0
 41
0.9
 50
0.0
 71
     0
 42
6.0
  3

  4
bigfont
  0
STYLE
  2
KANJI3
 70
     0
 40
8.0
 41
0.9
 50
0.0
 71
     0
 42
8.0
  3

  4
bigfont
  0
ENDTAB
  0
TABLE
  2
VIEW
 70
     0
  0
ENDTAB
  0
ENDSEC
  0
SECTION
  2
BLOCKS
  0
ENDSEC
  0
SECTION
  2
ENTITIES
  0
ARC
  8
0
  6
CONTINUOUS
 62
     3
 10
394.2
 20
285.0
 40
4.5
 50
90.0
 51
270.0
  0
ARC
  8
0
  6
CONTINUOUS
 62
     3
 10
409.2
 20
285.0
 40
4.5
 50
270.0
 51
90.0
  0
LINE
  8
0
  6
CONTINUOUS
 62
     3
 10
394.2
 20
289.5
 11
409.2
 21
289.5
  0
LINE
  8
0
  6
CONTINUOUS
 62
     3
 10
409.2
 20
280.5
 11
394.2
 21
280.5
  0
ARC
  8
0
  6
CONTINUOUS
 62
     3
 10
529.2
 20
285.0
 40
4.5
 50
90.0
 51
270.0
  0
ARC
  8
0
  6
CONTINUOUS
 62
     3
 10
544.2
 20
285.0
 40
4.5
 50
270.0
 51
90.0
  0
LINE
  8
0
  6
CONTINUOUS
 62
     3
 10
529.2
 20
289.5
 11
544.2
 21
289.5
  0
LINE
  8
0
  6
CONTINUOUS
 62
     3
 10
544.2
 20
280.5
 11
529.2
 21
280.5
  0
LINE
  8
0
  6
LTYPE1
 62
     1
 10
469.2
 20
255.0
 11
469.2
 21
315.0
  0
LINE
  8
0
  6
CONTINUOUS
 62
     3
 10
564.2
 20
310.2
 11
374.2
 21
310.2
  0
LINE
  8
0
  6
LTYPE2
 62
     1
 10
374.2
 20
307.0
 11
564.2
 21
307.0
  0
LINE
  8
0
  6
LTYPE2
 62
     1
 10
374.2
 20
263.0
 11
564.2
 21
263.0
  0
LINE
  8
0
  6
CONTINUOUS
 62
     3
 10
564.2
 20
259.8
 11
374.2
 21
259.8
  0
LINE
  8
0
  6
CONTINUOUS
 62
     3
 10
374.2
 20
310.2
 11
374.2
 21
259.8
  0
LINE
  8
0
  6
CONTINUOUS
 62
     3
 10
564.2
 20
259.8
 11
564.2
 21
310.2
  0
LINE
  8
0
  6
CONTINUOUS
 62
     1
 10
449.2
 20
259.8
 11
449.2
 21
259.3
  0
LINE
  8
0
  6
CONTINUOUS
 62
     1
 10
449.2
 20
259.3
 11
446.2
 21
258.8
  0
LINE
  8
0
  6
CONTINUOUS
 62
     1
 10
446.2
 20
258.8
 11
443.2
 21
259.3
  0
LINE
  8
0
  6
CONTINUOUS
 62
     1
 10
443.2
 20
259.3
 11
443.2
 21
259.8
  0
LINE
  8
0
  6
CONTINUOUS
 62
     1
 10
472.2
 20
259.8
 11
472.2
 21
259.3
  0
LINE
  8
0
  6
CONTINUOUS
 62
     1
 10
472.2
 20
259.3
 11
469.2
 21
258.8
  0
LINE
  8
0
  6
CONTINUOUS
 62
     1
 10
469.2
 20
258.8
 11
466.2
 21
259.3
  0
LINE
  8
0
  6
CONTINUOUS
 62
     1
 10
466.2
 20
259.3
 11
466.2
 21
259.8
  0
LINE
  8
0
  6
CONTINUOUS
 62
     1
 10
495.2
 20
259.8
 11
495.2
 21
259.3
  0
LINE
  8
0
  6
CONTINUOUS
 62
     1
 10
495.2
 20
259.3
 11
492.2
 21
258.8
  0
LINE
  8
0
  6
CONTINUOUS
 62
     1
 10
492.2
 20
258.8
 11
489.2
 21
259.3
  0
LINE
  8
0
  6
CONTINUOUS
 62
     1
 10
489.2
 20
259.3
 11
489.2
 21
259.8
  0
LINE
  8
0
  6
CONTINUOUS
 62
     1
 10
489.2
 20
310.2
 11
489.2
 21
310.7
  0
LINE
  8
0
  6
CONTINUOUS
 62
     1
 10
489.2
 20
310.7
 11
492.2
 21
311.2
  0
LINE
  8
0
  6
CONTINUOUS
 62
     1
 10
492.2
 20
311.2
 11
495.2
 21
310.7
  0
LINE
  8
0
  6
CONTINUOUS
 62
     1
 10
495.2
 20
310.7
 11
495.2
 21
310.2
  0
LINE
  8
0
  6
CONTINUOUS
 62
     1
 10
466.2
 20
310.2
 11
466.2
 21
310.7
  0
LINE
  8
0
  6
CONTINUOUS
 62
     1
 10
466.2
 20
310.7
 11
469.2
 21
311.2
  0
LINE
  8
0
  6
CONTINUOUS
 62
     1
 10
469.2
 20
311.2
 11
472.2
 21
310.7
  0
LINE
  8
0
  6
CONTINUOUS
 62
     1
 10
472.2
 20
310.7
 11
472.2
 21
310.2
  0
LINE
  8
0
  6
CONTINUOUS
 62
     1
 10
443.2
 20
310.2
 11
443.2
 21
310.7
  0
LINE
  8
0
  6
CONTINUOUS
 62
     1
 10
443.2
 20
310.7
 11
446.2
 21
311.2
  0
LINE
  8
0
  6
CONTINUOUS
 62
     1
 10
446.2
 20
311.2
 11
449.2
 21
310.7
  0
LINE
  8
0
  6
CONTINUOUS
 62
     1
 10
449.2
 20
310.7
 11
449.2
 21
310.2
  0
LINE
  8
0
  6
CONTINUOUS
 62
     1
 10
409.2
 20
280.0
 11
409.2
 21
342.0
  0
LINE
  8
0
  6
CONTINUOUS
 62
     1
 10
409.2
 20
340.0
 11
411.131851653
 21
339.48236191
  0
LINE
  8
0
  6
CONTINUOUS
 62
     1
 10
409.2
 20
340.0
 11
411.131851653
 21
340.51763809
  0
LINE
  8
0
  6
CONTINUOUS
 62
     1
 10
409.2
 20
340.0
 11
529.2
 21
340.0
  0
LINE
  8
0
  6
CONTINUOUS
 62
     1
 10
529.2
 20
340.0
 11
527.268148347
 21
340.51763809
  0
LINE
  8
0
  6
CONTINUOUS
 62
     1
 10
529.2
 20
340.0
 11
527.268148347
 21
339.48236191
  0
LINE
  8
0
  6
CONTINUOUS
 62
     1
 10
529.2
 20
280.0
 11
529.2
 21
342.0
  0
TEXT
  8
0
  6
CONTINUOUS
 62
     1
 10
463.2
 20
342.0
 30
0.0
 40
6.0
  1
１２０
 50
0.0
 41
0.666666667
 51
0.0
  7
KANJI0
  0
LINE
  8
0
  6
CONTINUOUS
 62
     1
 10
544.2
 20
280.0
 11
544.2
 21
357.0
  0
LINE
  8
0
  6
CONTINUOUS
 62
     1
 10
544.2
 20
355.0
 11
542.268148347
 21
355.51763809
  0
LINE
  8
0
  6
CONTINUOUS
 62
     1
 10
544.2
 20
355.0
 11
542.268148347
 21
354.48236191
  0
LINE
  8
0
  6
CONTINUOUS
 62
     1
 10
544.2
 20
355.0
 11
394.2
 21
355.0
  0
LINE
  8
0
  6
CONTINUOUS
 62
     1
 10
394.2
 20
355.0
 11
396.131851653
 21
354.48236191
  0
LINE
  8
0
  6
CONTINUOUS
 62
     1
 10
394.2
 20
355.0
 11
396.131851653
 21
355.51763809
  0
LINE
  8
0
  6
CONTINUOUS
 62
     1
 10
394.2
 20
280.0
 11
394.2
 21
357.0
  0
TEXT
  8
0
  6
CONTINUOUS
 62
     1
 10
463.2
 20
357.0
 30
0.0
 40
6.0
  1
１５０
 50
0.0
 41
0.666666667
 51
0.0
  7
KANJI0
  0
LINE
  8
0
  6
CONTINUOUS
 62
     1
 10
374.2
 20
315.2
 11
374.2
 21
372.0
  0
LINE
  8
0
  6
CONTINUOUS
 62
     1
 10
374.2
 20
370.0
 11
376.131851653
 21
369.48236191
  0
LINE
  8
0
  6
CONTINUOUS
 62
     1
 10
374.2
 20
370.0
 11
376.131851653
 21
370.51763809
  0
LINE
  8
0
  6
CONTINUOUS
 62
     1
 10
374.2
 20
370.0
 11
564.2
 21
370.0
  0
LINE
  8
0
  6
CONTINUOUS
 62
     1
 10
564.2
 20
370.0
 11
562.268148347
 21
370.51763809
  0
LINE
  8
0
  6
CONTINUOUS
 62
     1
 10
564.2
 20
370.0
 11
562.268148347
 21
369.48236191
  0
LINE
  8
0
  6
CONTINUOUS
 62
     1
 10
564.2
 20
315.2
 11
564.2
 21
372.0
  0
TEXT
  8
0
  6
CONTINUOUS
 62
     1
 10
460.8
 20
372.0
 30
0.0
 40
6.0
  1
１９０
 50
0.0
 41
0.666666667
 51
0.0
  7
KANJI0
  0
TEXT
  8
0
  6
CONTINUOUS
 62
     1
 10
472.8
 20
372.0
 30
0.0
 40
3.6
  1
±１
 50
0.0
 41
0.666666667
 51
0.0
  7
KANJI1
  0
LINE
  8
0
  6
CONTINUOUS
 62
     1
 10
569.2
 20
310.2
 11
586.2
 21
310.2
  0
LINE
  8
0
  6
CONTINUOUS
 62
     1
 10
584.2
 20
310.2
 11
583.68236191
 21
308.268148347
  0
LINE
  8
0
  6
CONTINUOUS
 62
     1
 10
584.2
 20
310.2
 11
584.71763809
 21
308.268148347
  0
LINE
  8
0
  6
CONTINUOUS
 62
     1
 10
584.2
 20
310.2
 11
584.2
 21
259.8
  0
LINE
  8
0
  6
CONTINUOUS
 62
     1
 10
584.2
 20
259.8
 11
584.71763809
 21
261.731851653
  0
LINE
  8
0
  6
CONTINUOUS
 62
     1
 10
584.2
 20
259.8
 11
583.68236191
 21
261.731851653
  0
LINE
  8
0
  6
CONTINUOUS
 62
     1
 10
569.2
 20
259.8
 11
586.2
 21
259.8
  0
TEXT
  8
0
  6
CONTINUOUS
 62
     1
 10
582.2
 20
278.6
 30
0.0
 40
6.0
  1
５０
 50
90.0
 41
0.666666667
 51
0.0
  7
KANJI0
  0
TEXT
  8
0
  6
CONTINUOUS
 62
     1
 10
582.2
 20
286.6
 30
0.0
 40
3.6
  1
±１
 50
90.0
 41
0.666666667
 51
0.0
  7
KANJI1
  0
LINE
  8
0
  6
CONTINUOUS
 62
     1
 10
10.0
 20
10.0
 11
590.0
 21
10.0
  0
LINE
  8
0
  6
CONTINUOUS
 62
     1
 10
590.0
 20
10.0
 11
590.0
 21
410.0
  0
LINE
  8
0
  6
CONTINUOUS
 62
     1
 10
590.0
 20
410.0
 11
10.0
 21
410.0
  0
LINE
  8
0
  6
CONTINUOUS
 62
     1
 10
10.0
 20
410.0
 11
10.0
 21
10.0
  0
LINE
  8
0
  6
CONTINUOUS
 62
     3
 10
55.0
 20
190.0
 11
55.0
 21
186.8
  0
LINE
  8
0
  6
CONTINUOUS
 62
     3
 10
55.0
 20
186.8
 11
205.0
 21
186.8
  0
LINE
  8
0
  6
CONTINUOUS
 62
     3
 10
205.0
 20
186.8
 11
205.0
 21
190.0
  0
LINE
  8
0
  6
CONTINUOUS
 62
     3
 10
205.0
 20
190.0
 11
55.0
 21
190.0
  0
LINE
  8
0
  6
CONTINUOUS
 62
     3
 10
90.0
 20
186.8
 11
90.0
 21
158.8
  0
LINE
  8
0
  6
CONTINUOUS
 62
     3
 10
90.0
 20
158.8
 11
170.0
 21
158.8
  0
LINE
  8
0
  6
CONTINUOUS
 62
     3
 10
170.0
 20
158.8
 11
170.0
 21
186.8
  0
LINE
  8
0
  6
CONTINUOUS
 62
     3
 10
170.0
 20
183.6
 11
90.0
 21
183.6
  0
ARC
  8
0
  6
CONTINUOUS
 62
     3
 10
153.5
 20
182.6
 40
1.0
 50
180.0
 51
270.0
  0
LINE
  8
0
  6
CONTINUOUS
 62
     3
 10
152.5
 20
182.6
 11
152.5
 21
183.6
  0
LINE
  8
0
  6
CONTINUOUS
 62
     3
 10
163.5
 20
183.6
 11
163.5
 21
182.6
  0
ARC
  8
0
  6
CONTINUOUS
 62
     3
 10
162.5
 20
182.6
 40
1.0
 50
270.0
 51
0.0
  0
LINE
  8
0
  6
CONTINUOUS
 62
     3
 10
162.5
 20
181.6
 11
153.5
 21
181.6
  0
ARC
  8
0
  6
CONTINUOUS
 62
     3
 10
97.5
 20
182.6
 40
1.0
 50
180.0
 51
270.0
  0
LINE
  8
0
  6
CONTINUOUS
 62
     3
 10
96.5
 20
182.6
 11
96.5
 21
183.6
  0
LINE
  8
0
  6
CONTINUOUS
 62
     3
 10
107.5
 20
183.6
 11
107.5
 21
182.6
  0
ARC
  8
0
  6
CONTINUOUS
 62
     3
 10
106.5
 20
182.6
 40
1.0
 50
270.0
 51
0.0
  0
LINE
  8
0
  6
CONTINUOUS
 62
     3
 10
106.5
 20
181.6
 11
97.5
 21
181.6
  0
CIRCLE
  8
0
  6
CONTINUOUS
 62
     3
 10
158.0
 20
171.3
 40
4.0
  0
LINE
  8
0
  6
CONTINUOUS
 62
     3
 10
154.0
 20
158.8
 11
154.0
 21
154.8
  0
LINE
  8
0
  6
CONTINUOUS
 62
     3
 10
154.0
 20
154.8
 11
106.0
 21
154.8
  0
LINE
  8
0
  6
CONTINUOUS
 62
     3
 10
106.0
 20
154.8
 11
106.0
 21
158.8
  0
LINE
  8
0
  6
CONTINUOUS
 62
     3
 10
148.8
 20
154.8
 11
150.8
 21
153.8
  0
LINE
  8
0
  6
CONTINUOUS
 62
     3
 10
150.8
 20
153.8
 11
150.8
 21
141.8
  0
LINE
  8
0
  6
CONTINUOUS
 62
     3
 10
150.8
 20
141.8
 11
148.8
 21
140.8
  0
LINE
  8
0
  6
CONTINUOUS
 62
     3
 10
148.8
 20
140.8
 11
111.2
 21
140.8
  0
LINE
  8
0
  6
CONTINUOUS
 62
     3
 10
111.2
 20
140.8
 11
109.2
 21
141.8
  0
LINE
  8
0
  6
CONTINUOUS
 62
     3
 10
109.2
 20
141.8
 11
109.2
 21
153.8
  0
LINE
  8
0
  6
CONTINUOUS
 62
     3
 10
109.2
 20
153.8
 11
111.2
 21
154.8
  0
LINE
  8
0
  6
CONTINUOUS
 62
     3
 10
142.0
 20
140.8
 11
142.0
 21
137.2
  0
LINE
  8
0
  6
CONTINUOUS
 62
     3
 10
142.0
 20
137.2
 11
141.0
 21
136.2
  0
LINE
  8
0
  6
CONTINUOUS
 62
     3
 10
119.0
 20
136.2
 11
118.0
 21
137.2
  0
LINE
  8
0
  6
CONTINUOUS
 62
     3
 10
118.0
 20
137.2
 11
118.0
 21
140.8
  0
ARC
  8
0
  6
CONTINUOUS
 62
     3
 10
130.0
 20
90.2
 40
40.0
 50
0.0
 51
180.0
  0
CIRCLE
  8
0
  6
CONTINUOUS
 62
     3
 10
130.0
 20
120.3
 40
4.0
  0
CIRCLE
  8
0
  6
CONTINUOUS
 62
     3
 10
130.0
 20
90.3
 40
4.0
  0
ARC
  8
0
  6
CONTINUOUS
 62
     3
 10
160.0
 20
90.2
 40
4.5
 50
270.0
 51
0.0
  0
ARC
  8
0
  6
CONTINUOUS
 62
     3
 10
160.0
 20
90.2
 40
4.5
 50
180.0
 51
270.0
  0
ARC
  8
0
  6
CONTINUOUS
 62
     3
 10
130.0
 20
90.2
 40
25.5
 50
0.0
 51
74.1
  0
ARC
  8
0
  6
CONTINUOUS
 62
     3
 10
130.0
 20
90.2
 40
34.5
 50
0.0
 51
75.9
  0
LINE
  8
0
  6
CONTINUOUS
 62
     3
 10
113.0
 20
133.2
 11
147.0
 21
133.2
  0
LINE
  8
0
  6
CONTINUOUS
 62
     3
 10
147.0
 20
133.2
 11
147.0
 21
126.4
  0
LINE
  8
0
  6
CONTINUOUS
 62
     3
 10
113.0
 20
126.4
 11
113.0
 21
133.2
  0
CIRCLE
  8
0
  6
CONTINUOUS
 62
     1
 10
158.0
 20
171.3
 40
3.5
  0
CIRCLE
  8
0
  6
CONTINUOUS
 62
     1
 10
158.0
 20
171.3
 40
6.5
  0
CIRCLE
  8
0
  6
CONTINUOUS
 62
     1
 10
130.0
 20
120.3
 40
3.5
  0
CIRCLE
  8
0
  6
CONTINUOUS
 62
     1
 10
130.0
 20
120.3
 40
6.5
  0
CIRCLE
  8
0
  6
CONTINUOUS
 62
     1
 10
130.0
 20
90.3
 40
3.5
  0
CIRCLE
  8
0
  6
CONTINUOUS
 62
     1
 10
130.0
 20
90.3
 40
6.5
  0
ARC
  8
0
  6
CONTINUOUS
 62
     1
 10
130.0
 20
120.2
 40
13.0
 50
327.3
 51
8.9
  0
ARC
  8
0
  6
CONTINUOUS
 62
     1
 10
130.0
 20
120.2
 40
13.0
 50
42.8
 51
137.2
  0
LINE
  8
0
  6
CONTINUOUS
 62
     3
 10
165.5
 20
171.3
 11
161.8
 21
177.8
  0
LINE
  8
0
  6
CONTINUOUS
 62
     3
 10
161.8
 20
177.8
 11
154.2
 21
177.8
  0
LINE
  8
0
  6
CONTINUOUS
 62
     3
 10
161.8
 20
164.8
 11
165.5
 21
171.3
  0
LINE
  8
0
  6
CONTINUOUS
 62
     3
 10
154.2
 20
164.8
 11
161.8
 21
164.8
  0
LINE
  8
0
  6
CONTINUOUS
 62
     3
 10
154.2
 20
177.8
 11
150.5
 21
171.3
  0
LINE
  8
0
  6
CONTINUOUS
 62
     3
 10
150.5
 20
171.3
 11
154.2
 21
164.8
  0
CIRCLE
  8
0
  6
CONTINUOUS
 62
     3
 10
158.0
 20
171.3
 40
9.0
  0
LINE
  8
0
  6
CONTINUOUS
 62
     1
 10
116.0
 20
154.8
 11
118.0
 21
153.8
  0
LINE
  8
0
  6
CONTINUOUS
 62
     1
 10
118.0
 20
153.8
 11
118.0
 21
141.8
  0
LINE
  8
0
  6
CONTINUOUS
 62
     1
 10
118.0
 20
141.8
 11
116.0
 21
140.8
  0
LINE
  8
0
  6
CONTINUOUS
 62
     1
 10
120.0
 20
140.8
 11
118.0
 21
141.8
  0
LINE
  8
0
  6
CONTINUOUS
 62
     1
 10
140.0
 20
140.8
 11
142.0
 21
141.8
  0
LINE
  8
0
  6
CONTINUOUS
 62
     1
 10
142.0
 20
141.8
 11
144.0
 21
140.8
  0
LINE
  8
0
  6
CONTINUOUS
 62
     1
 10
142.0
 20
141.8
 11
142.0
 21
153.8
  0
LINE
  8
0
  6
CONTINUOUS
 62
     1
 10
142.0
 20
153.8
 11
144.0
 21
154.8
  0
LINE
  8
0
  6
CONTINUOUS
 62
     1
 10
140.0
 20
154.8
 11
142.0
 21
153.8
  0
LINE
  8
0
  6
CONTINUOUS
 62
     1
 10
120.0
 20
154.8
 11
118.0
 21
153.8
  0
LINE
  8
0
  6
CONTINUOUS
 62
     3
 10
141.0
 20
133.2
 11
141.0
 21
136.2
  0
LINE
  8
0
  6
CONTINUOUS
 62
     3
 10
119.0
 20
136.2
 11
119.0
 21
133.2
  0
LINE
  8
0
  6
CONTINUOUS
 62
     1
 10
119.0
 20
140.8
 11
119.0
 21
136.2
  0
LINE
  8
0
  6
CONTINUOUS
 62
     1
 10
141.0
 20
136.2
 11
141.0
 21
140.8
  0
LINE
  8
0
  6
CONTINUOUS
 62
     1
 10
118.0
 20
137.2
 11
142.0
 21
137.2
  0
LINE
  8
0
  6
CONTINUOUS
 62
     1
 10
141.0
 20
136.2
 11
119.0
 21
136.2
  0
CIRCLE
  8
0
  6
CONTINUOUS
 62
     3
 10
130.0
 20
120.3
 40
9.0
  0
LINE
  8
0
  6
CONTINUOUS
 62
     3
 10
137.5
 20
120.3
 11
133.8
 21
126.8
  0
LINE
  8
0
  6
CONTINUOUS
 62
     3
 10
133.8
 20
126.8
 11
126.2
 21
126.8
  0
LINE
  8
0
  6
CONTINUOUS
 62
     3
 10
133.8
 20
113.8
 11
137.5
 21
120.3
  0
LINE
  8
0
  6
CONTINUOUS
 62
     3
 10
126.2
 20
113.8
 11
133.8
 21
113.8
  0
LINE
  8
0
  6
CONTINUOUS
 62
     3
 10
126.2
 20
126.8
 11
122.5
 21
120.3
  0
LINE
  8
0
  6
CONTINUOUS
 62
     3
 10
122.5
 20
120.3
 11
126.2
 21
113.8
  0
LINE
  8
0
  6
CONTINUOUS
 62
     3
 10
147.0
 20
120.15
 11
147.0
 21
109.2
  0
CIRCLE
  8
0
  6
CONTINUOUS
 62
     3
 10
130.0
 20
90.3
 40
9.0
  0
LINE
  8
0
  6
CONTINUOUS
 62
     3
 10
137.5
 20
90.3
 11
133.8
 21
96.8
  0
LINE
  8
0
  6
CONTINUOUS
 62
     3
 10
133.8
 20
96.8
 11
126.2
 21
96.8
  0
LINE
  8
0
  6
CONTINUOUS
 62
     3
 10
133.8
 20
83.8
 11
137.5
 21
90.3
  0
LINE
  8
0
  6
CONTINUOUS
 62
     3
 10
126.2
 20
83.8
 11
133.8
 21
83.8
  0
LINE
  8
0
  6
CONTINUOUS
 62
     3
 10
122.5
 20
90.3
 11
126.2
 21
83.8
  0
LINE
  8
0
  6
CONTINUOUS
 62
     3
 10
126.2
 20
96.8
 11
122.5
 21
90.3
  0
LINE
  8
0
  6
CONTINUOUS
 62
     3
 10
170.0
 20
73.0
 11
90.0
 21
73.0
  0
LINE
  8
0
  6
CONTINUOUS
 62
     3
 10
170.0
 20
90.2
 11
170.0
 21
63.0
  0
LINE
  8
0
  6
CONTINUOUS
 62
     3
 10
90.0
 20
63.0
 11
90.0
 21
90.2
  0
LINE
  8
0
  6
CONTINUOUS
 62
     3
 10
215.0
 20
63.0
 11
170.0
 21
63.0
  0
ARC
  8
0
  6
CONTINUOUS
 62
     3
 10
215.0
 20
53.0
 40
10.0
 50
0.0
 51
90.0
  0
ARC
  8
0
  6
CONTINUOUS
 62
     3
 10
45.0
 20
53.0
 40
10.0
 50
90.0
 51
180.0
  0
LINE
  8
0
  6
CONTINUOUS
 62
     3
 10
45.0
 20
63.0
 11
90.0
 21
63.0
  0
LINE
  8
0
  6
LTYPE2
 62
     1
 10
35.0
 20
53.0
 11
225.0
 21
53.0
  0
LINE
  8
0
  6
CONTINUOUS
 62
     3
 10
130.0
 20
49.8
 11
225.0
 21
49.8
  0
LINE
  8
0
  6
CONTINUOUS
 62
     3
 10
225.0
 20
49.8
 11
225.0
 21
53.0
  0
LINE
  8
0
  6
CONTINUOUS
 62
     3
 10
35.0
 20
49.8
 11
35.0
 21
53.0
  0
LINE
  8
0
  6
CONTINUOUS
 62
     3
 10
130.0
 20
49.8
 11
35.0
 21
49.8
  0
CIRCLE
  8
0
  6
CONTINUOUS
 62
     1
 10
130.0
 20
63.0
 40
3.0
  0
CIRCLE
  8
0
  6
CONTINUOUS
 62
     1
 10
153.0
 20
63.0
 40
3.0
  0
CIRCLE
  8
0
  6
CONTINUOUS
 62
     1
 10
107.0
 20
63.0
 40
3.0
  0
LINE
  8
0
  6
CONTINUOUS
 62
     1
 10
225.0
 20
44.8
 11
225.0
 21
28.0
  0
LINE
  8
0
  6
CONTINUOUS
 62
     1
 10
225.0
 20
30.0
 11
223.068148347
 21
30.51763809
  0
LINE
  8
0
  6
CONTINUOUS
 62
     1
 10
225.0
 20
30.0
 11
223.068148347
 21
29.48236191
  0
LINE
  8
0
  6
CONTINUOUS
 62
     1
 10
225.0
 20
30.0
 11
35.0
 21
30.0
  0
LINE
  8
0
  6
CONTINUOUS
 62
     1
 10
35.0
 20
30.0
 11
36.931851653
 21
29.48236191
  0
LINE
  8
0
  6
CONTINUOUS
 62
     1
 10
35.0
 20
30.0
 11
36.931851653
 21
30.51763809
  0
LINE
  8
0
  6
CONTINUOUS
 62
     1
 10
35.0
 20
44.8
 11
35.0
 21
28.0
  0
TEXT
  8
0
  6
CONTINUOUS
 62
     1
 10
121.6
 20
32.0
 30
0.0
 40
6.0
  1
１９０
 50
0.0
 41
0.666666667
 51
0.0
  7
KANJI0
  0
TEXT
  8
0
  6
CONTINUOUS
 62
     1
 10
133.6
 20
32.0
 30
0.0
 40
3.6
  1
±１
 50
0.0
 41
0.666666667
 51
0.0
  7
KANJI1
  0
LINE
  8
0
  6
CONTINUOUS
 62
     1
 10
120.0
 20
90.2
 11
140.0
 21
90.2
  0
LINE
  8
0
  6
CONTINUOUS
 62
     1
 10
130.0
 20
100.2
 11
130.0
 21
80.2
  0
ARC
  8
0
  6
CONTINUOUS
 62
     1
 10
130.0
 20
90.2
 40
60.0
 50
0.0
 51
90.0
  0
LINE
  8
0
  6
CONTINUOUS
 62
     1
 10
190.0
 20
90.2
 11
190.51763809
 21
92.131851653
  0
LINE
  8
0
  6
CONTINUOUS
 62
     1
 10
190.0
 20
90.2
 11
189.48236191
 21
92.131851653
  0
LINE
  8
0
  6
CONTINUOUS
 62
     1
 10
130.0
 20
150.2
 11
131.931851653
 21
149.68236191
  0
LINE
  8
0
  6
CONTINUOUS
 62
     1
 10
130.0
 20
150.2
 11
131.931851653
 21
150.71763809
  0
LINE
  8
0
  6
CONTINUOUS
 62
     1
 10
150.0
 20
90.2
 11
192.0
 21
90.2
  0
LINE
  8
0
  6
CONTINUOUS
 62
     1
 10
130.0
 20
110.2
 11
130.0
 21
152.2
  0
TEXT
  8
0
  6
CONTINUOUS
 62
     1
 10
169.597979746
 20
138.283261121
 30
0.0
 40
6.0
  1
９０゜
 50
315.0
 41
0.666666667
 51
0.0
  7
KANJI0
  0
LINE
  8
0
  6
CONTINUOUS
 62
     3
 10
65.0
 20
210.0
 11
195.0
 21
210.0
  0
ARC
  8
0
  6
CONTINUOUS
 62
     3
 10
195.0
 20
220.0
 40
10.0
 50
270.0
 51
0.0
  0
LINE
  8
0
  6
CONTINUOUS
 62
     3
 10
205.0
 20
220.0
 11
205.0
 21
350.0
  0
ARC
  8
0
  6
CONTINUOUS
 62
     3
 10
195.0
 20
350.0
 40
10.0
 50
0.0
 51
90.0
  0
LINE
  8
0
  6
CONTINUOUS
 62
     3
 10
195.0
 20
360.0
 11
65.0
 21
360.0
  0
ARC
  8
0
  6
CONTINUOUS
 62
     3
 10
65.0
 20
350.0
 40
10.0
 50
90.0
 51
180.0
  0
LINE
  8
0
  6
CONTINUOUS
 62
     3
 10
55.0
 20
350.0
 11
55.0
 21
220.0
  0
ARC
  8
0
  6
CONTINUOUS
 62
     3
 10
65.0
 20
220.0
 40
10.0
 50
180.0
 51
270.0
  0
LINE
  8
0
  6
CONTINUOUS
 62
     1
 10
70.0
 20
295.0
 11
70.0
 21
275.0
  0
LINE
  8
0
  6
CONTINUOUS
 62
     1
 10
120.0
 20
345.0
 11
140.0
 21
345.0
  0
LINE
  8
0
  6
CONTINUOUS
 62
     1
 10
190.0
 20
355.0
 11
190.0
 21
335.0
  0
LINE
  8
0
  6
CONTINUOUS
 62
     1
 10
190.0
 20
295.0
 11
190.0
 21
275.0
  0
LINE
  8
0
  6
CONTINUOUS
 62
     1
 10
180.0
 20
225.0
 11
200.0
 21
225.0
  0
LINE
  8
0
  6
CONTINUOUS
 62
     1
 10
140.0
 20
225.0
 11
120.0
 21
225.0
  0
LINE
  8
0
  6
CONTINUOUS
 62
     1
 10
60.0
 20
225.0
 11
80.0
 21
225.0
  0
LINE
  8
0
  6
CONTINUOUS
 62
     1
 10
70.0
 20
355.0
 11
70.0
 21
335.0
  0
CIRCLE
  8
0
  6
CONTINUOUS
 62
     3
 10
130.0
 20
345.0
 40
5.5
  0
CIRCLE
  8
0
  6
CONTINUOUS
 62
     3
 10
190.0
 20
345.0
 40
5.5
  0
LINE
  8
0
  6
CONTINUOUS
 62
     1
 10
60.0
 20
345.0
 11
80.0
 21
345.0
  0
CIRCLE
  8
0
  6
CONTINUOUS
 62
     3
 10
70.0
 20
345.0
 40
5.5
  0
CIRCLE
  8
0
  6
CONTINUOUS
 62
     3
 10
70.0
 20
285.0
 40
5.5
  0
CIRCLE
  8
0
  6
CONTINUOUS
 62
     3
 10
70.0
 20
225.0
 40
5.5
  0
CIRCLE
  8
0
  6
CONTINUOUS
 62
     3
 10
130.0
 20
225.0
 40
5.5
  0
CIRCLE
  8
0
  6
CONTINUOUS
 62
     3
 10
190.0
 20
225.0
 40
5.5
  0
CIRCLE
  8
0
  6
CONTINUOUS
 62
     3
 10
190.0
 20
285.0
 40
5.5
  0
LINE
  8
0
  6
CONTINUOUS
 62
     1
 10
190.0
 20
215.0
 11
190.0
 21
235.0
  0
LINE
  8
0
  6
CONTINUOUS
 62
     1
 10
200.0
 20
285.0
 11
180.0
 21
285.0
  0
LINE
  8
0
  6
CONTINUOUS
 62
     1
 10
130.0
 20
215.0
 11
130.0
 21
235.0
  0
LINE
  8
0
  6
CONTINUOUS
 62
     1
 10
70.0
 20
235.0
 11
70.0
 21
215.0
  0
LINE
  8
0
  6
CONTINUOUS
 62
     1
 10
60.0
 20
285.0
 11
80.0
 21
285.0
  0
LINE
  8
0
  6
CONTINUOUS
 62
     1
 10
130.0
 20
335.0
 11
130.0
 21
355.0
  0
LINE
  8
0
  6
CONTINUOUS
 62
     1
 10
180.0
 20
345.0
 11
200.0
 21
345.0
  0
LINE
  8
0
  6
CONTINUOUS
 62
     1
 10
205.0
 20
355.0
 11
205.0
 21
392.0
  0
LINE
  8
0
  6
CONTINUOUS
 62
     1
 10
205.0
 20
390.0
 11
203.068148347
 21
390.51763809
  0
LINE
  8
0
  6
CONTINUOUS
 62
     1
 10
205.0
 20
390.0
 11
203.068148347
 21
389.48236191
  0
LINE
  8
0
  6
CONTINUOUS
 62
     1
 10
205.0
 20
390.0
 11
55.0
 21
390.0
  0
LINE
  8
0
  6
CONTINUOUS
 62
     1
 10
55.0
 20
390.0
 11
56.931851653
 21
389.48236191
  0
LINE
  8
0
  6
CONTINUOUS
 62
     1
 10
55.0
 20
390.0
 11
56.931851653
 21
390.51763809
  0
LINE
  8
0
  6
CONTINUOUS
 62
     1
 10
55.0
 20
355.0
 11
55.0
 21
392.0
  0
TEXT
  8
0
  6
CONTINUOUS
 62
     1
 10
121.6
 20
392.0
 30
0.0
 40
6.0
  1
１５０
 50
0.0
 41
0.666666667
 51
0.0
  7
KANJI0
  0
TEXT
  8
0
  6
CONTINUOUS
 62
     1
 10
133.6
 20
392.0
 30
0.0
 40
3.6
  1
±１
 50
0.0
 41
0.666666667
 51
0.0
  7
KANJI1
  0
LINE
  8
0
  6
CONTINUOUS
 62
     1
 10
60.0
 20
360.0
 11
28.0
 21
360.0
  0
LINE
  8
0
  6
CONTINUOUS
 62
     1
 10
30.0
 20
360.0
 11
29.48236191
 21
358.068148347
  0
LINE
  8
0
  6
CONTINUOUS
 62
     1
 10
30.0
 20
360.0
 11
30.51763809
 21
358.068148347
  0
LINE
  8
0
  6
CONTINUOUS
 62
     1
 10
30.0
 20
360.0
 11
30.0
 21
210.0
  0
LINE
  8
0
  6
CONTINUOUS
 62
     1
 10
30.0
 20
210.0
 11
30.51763809
 21
211.931851653
  0
LINE
  8
0
  6
CONTINUOUS
 62
     1
 10
30.0
 20
210.0
 11
29.48236191
 21
211.931851653
  0
LINE
  8
0
  6
CONTINUOUS
 62
     1
 10
60.0
 20
210.0
 11
28.0
 21
210.0
  0
TEXT
  8
0
  6
CONTINUOUS
 62
     1
 10
28.0
 20
276.6
 30
0.0
 40
6.0
  1
１５０
 50
90.0
 41
0.666666667
 51
0.0
  7
KANJI0
  0
TEXT
  8
0
  6
CONTINUOUS
 62
     1
 10
28.0
 20
288.6
 30
0.0
 40
3.6
  1
±１
 50
90.0
 41
0.666666667
 51
0.0
  7
KANJI1
  0
LINE
  8
0
  6
CONTINUOUS
 62
     1
 10
190.0
 20
225.0
 11
167.2
 21
225.0
  0
LINE
  8
0
  6
CONTINUOUS
 62
     1
 10
169.2
 20
225.0
 11
169.71763809
 21
226.931851653
  0
LINE
  8
0
  6
CONTINUOUS
 62
     1
 10
169.2
 20
225.0
 11
168.68236191
 21
226.931851653
  0
LINE
  8
0
  6
CONTINUOUS
 62
     1
 10
169.2
 20
225.0
 11
169.2
 21
285.0
  0
LINE
  8
0
  6
CONTINUOUS
 62
     1
 10
169.2
 20
285.0
 11
168.68236191
 21
283.068148347
  0
LINE
  8
0
  6
CONTINUOUS
 62
     1
 10
169.2
 20
285.0
 11
169.71763809
 21
283.068148347
  0
LINE
  8
0
  6
CONTINUOUS
 62
     1
 10
190.0
 20
285.0
 11
167.2
 21
285.0
  0
LINE
  8
0
  6
CONTINUOUS
 62
     1
 10
169.2
 20
285.0
 11
169.71763809
 21
286.931851653
  0
LINE
  8
0
  6
CONTINUOUS
 62
     1
 10
169.2
 20
285.0
 11
168.68236191
 21
286.931851653
  0
LINE
  8
0
  6
CONTINUOUS
 62
     1
 10
169.2
 20
285.0
 11
169.2
 21
345.0
  0
LINE
  8
0
  6
CONTINUOUS
 62
     1
 10
169.2
 20
345.0
 11
168.68236191
 21
343.068148347
  0
LINE
  8
0
  6
CONTINUOUS
 62
     1
 10
169.2
 20
345.0
 11
169.71763809
 21
343.068148347
  0
LINE
  8
0
  6
CONTINUOUS
 62
     1
 10
189.2
 20
345.0
 11
167.2
 21
345.0
  0
TEXT
  8
0
  6
CONTINUOUS
 62
     1
 10
167.2
 20
311.0
 30
0.0
 40
6.0
  1
６０
 50
90.0
 41
0.666666667
 51
0.0
  7
KANJI0
  0
LINE
  8
0
  6
CONTINUOUS
 62
     1
 10
190.0
 20
225.0
 11
190.0
 21
247.0
  0
LINE
  8
0
  6
CONTINUOUS
 62
     1
 10
190.0
 20
245.0
 11
188.068148347
 21
245.51763809
  0
LINE
  8
0
  6
CONTINUOUS
 62
     1
 10
190.0
 20
245.0
 11
188.068148347
 21
244.48236191
  0
LINE
  8
0
  6
CONTINUOUS
 62
     1
 10
190.0
 20
245.0
 11
130.0
 21
245.0
  0
LINE
  8
0
  6
CONTINUOUS
 62
     1
 10
130.0
 20
245.0
 11
131.931851653
 21
244.48236191
  0
LINE
  8
0
  6
CONTINUOUS
 62
     1
 10
130.0
 20
245.0
 11
131.931851653
 21
245.51763809
  0
LINE
  8
0
  6
CONTINUOUS
 62
     1
 10
130.0
 20
225.0
 11
130.0
 21
247.0
  0
LINE
  8
0
  6
CONTINUOUS
 62
     1
 10
130.0
 20
245.0
 11
128.068148347
 21
245.51763809
  0
LINE
  8
0
  6
CONTINUOUS
 62
     1
 10
130.0
 20
245.0
 11
128.068148347
 21
244.48236191
  0
LINE
  8
0
  6
CONTINUOUS
 62
     1
 10
130.0
 20
245.0
 11
70.0
 21
245.0
  0
LINE
  8
0
  6
CONTINUOUS
 62
     1
 10
70.0
 20
245.0
 11
71.931851653
 21
244.48236191
  0
LINE
  8
0
  6
CONTINUOUS
 62
     1
 10
70.0
 20
245.0
 11
71.931851653
 21
245.51763809
  0
LINE
  8
0
  6
CONTINUOUS
 62
     1
 10
70.0
 20
225.0
 11
70.0
 21
247.0
  0
TEXT
  8
0
  6
CONTINUOUS
 62
     1
 10
96.0
 20
247.0
 30
0.0
 40
6.0
  1
６０
 50
0.0
 41
0.666666667
 51
0.0
  7
KANJI0
  0
TEXT
  8
0
  6
CONTINUOUS
 62
     1
 10
167.2
 20
256.0
 30
0.0
 40
6.0
  1
６０
 50
90.0
 41
0.666666667
 51
0.0
  7
KANJI0
  0
TEXT
  8
0
  6
CONTINUOUS
 62
     1
 10
151.0
 20
247.0
 30
0.0
 40
6.0
  1
６０
 50
0.0
 41
0.666666667
 51
0.0
  7
KANJI0
  0
LINE
  8
0
  6
CONTINUOUS
 62
     1
 10
74.0
 20
289.0
 11
75.732050808
 21
290.0
  0
LINE
  8
0
  6
CONTINUOUS
 62
     1
 10
74.0
 20
289.0
 11
75.0
 21
290.732050808
  0
LINE
  8
0
  6
CONTINUOUS
 62
     1
 10
74.0
 20
289.0
 11
89.0
 21
304.0
  0
LINE
  8
0
  6
CONTINUOUS
 62
     1
 10
89.0
 20
304.0
 11
118.4
 21
304.0
  0
TEXT
  8
0
  6
CONTINUOUS
 62
     1
 10
89.0
 20
306.0
 30
0.6
 40
6.0
  1
８－φ１１
 50
0.0
 41
0.9
 51
0.0
  7
KANJI2
  0
LINE
  8
0
  6
CONTINUOUS
 62
     3
 10
253.0
 20
310.0
 11
253.0
 21
260.0
  0
LINE
  8
0
  6
CONTINUOUS
 62
     3
 10
228.2
 20
235.0
 11
231.4
 21
235.0
  0
LINE
  8
0
  6
CONTINUOUS
 62
     3
 10
231.4
 20
235.0
 11
231.4
 21
256.8
  0
LINE
  8
0
  6
CONTINUOUS
 62
     3
 10
231.4
 20
313.2
 11
231.4
 21
335.0
  0
LINE
  8
0
  6
CONTINUOUS
 62
     3
 10
231.4
 20
335.0
 11
228.2
 21
335.0
  0
LINE
  8
0
  6
CONTINUOUS
 62
     3
 10
253.0
 20
310.0
 11
231.2
 21
310.0
  0
ARC
  8
0
  6
CONTINUOUS
 62
     3
 10
231.2
 20
313.0
 40
3.0
 50
180.0
 51
270.0
  0
LINE
  8
0
  6
CONTINUOUS
 62
     3
 10
228.2
 20
313.0
 11
228.2
 21
335.0
  0
LINE
  8
0
  6
CONTINUOUS
 62
     3
 10
231.4
 20
313.2
 11
253.2
 21
313.2
  0
ARC
  8
0
  6
CONTINUOUS
 62
     3
 10
253.2
 20
310.2
 40
3.0
 50
0.0
 51
90.0
  0
LINE
  8
0
  6
CONTINUOUS
 62
     3
 10
256.2
 20
310.2
 11
256.2
 21
259.8
  0
ARC
  8
0
  6
CONTINUOUS
 62
     3
 10
253.2
 20
259.8
 40
3.0
 50
270.0
 51
0.0
  0
LINE
  8
0
  6
CONTINUOUS
 62
     3
 10
253.2
 20
256.8
 11
231.4
 21
256.8
  0
LINE
  8
0
  6
CONTINUOUS
 62
     3
 10
228.2
 20
235.0
 11
228.2
 21
257.0
  0
ARC
  8
0
  6
CONTINUOUS
 62
     3
 10
231.2
 20
257.0
 40
3.0
 50
90.0
 51
180.0
  0
LINE
  8
0
  6
CONTINUOUS
 62
     3
 10
231.2
 20
260.0
 11
253.0
 21
260.0
  0
LINE
  8
0
  6
CONTINUOUS
 62
     3
 10
225.0
 20
210.0
 11
228.2
 21
210.0
  0
LINE
  8
0
  6
CONTINUOUS
 62
     3
 10
228.2
 20
210.0
 11
228.2
 21
360.0
  0
LINE
  8
0
  6
CONTINUOUS
 62
     3
 10
228.2
 20
360.0
 11
225.0
 21
360.0
  0
LINE
  8
0
  6
CONTINUOUS
 62
     3
 10
225.0
 20
360.0
 11
225.0
 21
210.0
  0
ARC
  8
0
  6
CONTINUOUS
 62
     3
 10
232.4
 20
240.5
 40
1.0
 50
270.0
 51
0.0
  0
LINE
  8
0
  6
CONTINUOUS
 62
     3
 10
232.4
 20
239.5
 11
231.4
 21
239.5
  0
LINE
  8
0
  6
CONTINUOUS
 62
     3
 10
231.4
 20
250.5
 11
232.4
 21
250.5
  0
ARC
  8
0
  6
CONTINUOUS
 62
     3
 10
232.4
 20
249.5
 40
1.0
 50
0.0
 51
90.0
  0
LINE
  8
0
  6
CONTINUOUS
 62
     3
 10
233.4
 20
249.5
 11
233.4
 21
240.5
  0
ARC
  8
0
  6
CONTINUOUS
 62
     3
 10
232.4
 20
320.5
 40
1.0
 50
270.0
 51
0.0
  0
LINE
  8
0
  6
CONTINUOUS
 62
     3
 10
232.4
 20
319.5
 11
231.4
 21
319.5
  0
LINE
  8
0
  6
CONTINUOUS
 62
     3
 10
231.4
 20
330.5
 11
232.4
 21
330.5
  0
ARC
  8
0
  6
CONTINUOUS
 62
     3
 10
232.4
 20
329.5
 40
1.0
 50
0.0
 51
90.0
  0
LINE
  8
0
  6
CONTINUOUS
 62
     3
 10
233.4
 20
329.5
 11
233.4
 21
320.5
  0
LINE
  8
0
  6
CONTINUOUS
 62
     3
 10
234.7
 20
313.2
 11
234.7
 21
314.2
  0
LINE
  8
0
  6
CONTINUOUS
 62
     3
 10
234.7
 20
314.2
 11
252.7
 21
314.2
  0
LINE
  8
0
  6
CONTINUOUS
 62
     3
 10
252.7
 20
314.2
 11
252.7
 21
313.2
  0
LINE
  8
0
  6
CONTINUOUS
 62
     3
 10
236.2
 20
314.2
 11
236.2
 21
319.2
  0
LINE
  8
0
  6
CONTINUOUS
 62
     3
 10
236.2
 20
319.2
 11
236.7
 21
319.7
  0
LINE
  8
0
  6
CONTINUOUS
 62
     3
 10
236.7
 20
319.7
 11
250.7
 21
319.7
  0
LINE
  8
0
  6
CONTINUOUS
 62
     3
 10
250.7
 20
319.7
 11
251.2
 21
319.2
  0
LINE
  8
0
  6
CONTINUOUS
 62
     3
 10
251.2
 20
319.2
 11
251.2
 21
314.2
  0
LINE
  8
0
  6
CONTINUOUS
 62
     3
 10
247.7
 20
310.0
 11
247.7
 21
260.0
  0
LINE
  8
0
  6
CONTINUOUS
 62
     3
 10
239.7
 20
260.0
 11
239.7
 21
310.0
  0
LINE
  8
0
  6
CONTINUOUS
 62
     3
 10
234.7
 20
256.8
 11
234.7
 21
255.8
  0
LINE
  8
0
  6
CONTINUOUS
 62
     3
 10
234.7
 20
255.8
 11
252.7
 21
255.8
  0
LINE
  8
0
  6
CONTINUOUS
 62
     3
 10
252.7
 20
255.8
 11
252.7
 21
256.8
  0
LINE
  8
0
  6
CONTINUOUS
 62
     3
 10
236.2
 20
255.8
 11
236.2
 21
250.8
  0
LINE
  8
0
  6
CONTINUOUS
 62
     3
 10
236.2
 20
250.8
 11
236.7
 21
250.3
  0
LINE
  8
0
  6
CONTINUOUS
 62
     3
 10
250.7
 20
250.3
 11
251.2
 21
250.8
  0
LINE
  8
0
  6
CONTINUOUS
 62
     3
 10
251.2
 20
250.8
 11
251.2
 21
255.8
  0
LINE
  8
0
  6
CONTINUOUS
 62
     3
 10
236.7
 20
250.3
 11
237.2
 21
248.3
  0
LINE
  8
0
  6
CONTINUOUS
 62
     3
 10
237.2
 20
248.3
 11
250.2
 21
248.3
  0
LINE
  8
0
  6
CONTINUOUS
 62
     3
 10
250.2
 20
248.3
 11
250.7
 21
250.3
  0
LINE
  8
0
  6
CONTINUOUS
 62
     3
 10
239.7
 20
248.2
 11
239.7
 21
244.7
  0
LINE
  8
0
  6
CONTINUOUS
 62
     3
 10
239.7
 20
244.7
 11
240.2
 21
244.2
  0
LINE
  8
0
  6
CONTINUOUS
 62
     3
 10
240.2
 20
244.2
 11
247.2
 21
244.2
  0
LINE
  8
0
  6
CONTINUOUS
 62
     3
 10
247.2
 20
244.2
 11
247.7
 21
244.7
  0
LINE
  8
0
  6
CONTINUOUS
 62
     3
 10
247.7
 20
244.7
 11
247.7
 21
248.2
  0
LINE
  8
0
  6
CONTINUOUS
 62
     3
 10
256.2
 20
272.5
 11
249.7
 21
272.5
  0
LINE
  8
0
  6
CONTINUOUS
 62
     3
 10
249.7
 20
272.5
 11
249.7
 21
269.5
  0
POINT
  8
0
  6
CONTINUOUS
 62
     3
 10
252.7
 20
266.5
  0
ARC
  8
0
  6
CONTINUOUS
 62
     3
 10
252.7
 20
269.5
 40
3.0
 50
180.0
 51
270.0
  0
POINT
  8
0
  6
CONTINUOUS
 62
     3
 10
249.7
 20
269.5
  0
LINE
  8
0
  6
CONTINUOUS
 62
     3
 10
249.7
 20
297.5
 11
256.2
 21
297.5
  0
LINE
  8
0
  6
CONTINUOUS
 62
     3
 10
249.7
 20
297.5
 11
249.7
 21
300.5
  0
ARC
  8
0
  6
CONTINUOUS
 62
     3
 10
252.7
 20
300.5
 40
3.0
 50
90.0
 51
180.0
  0
POINT
  8
0
  6
CONTINUOUS
 62
     3
 10
252.7
 20
303.5
  0
LINE
  8
0
  6
CONTINUOUS
 62
     3
 10
253.0
 20
303.8
 11
252.0
 21
305.8
  0
LINE
  8
0
  6
CONTINUOUS
 62
     3
 10
252.0
 20
305.8
 11
248.0
 21
305.8
  0
LINE
  8
0
  6
CONTINUOUS
 62
     3
 10
253.0
 20
266.2
 11
252.0
 21
264.2
  0
LINE
  8
0
  6
CONTINUOUS
 62
     3
 10
252.0
 20
264.2
 11
248.0
 21
264.2
  0
LINE
  8
0
  6
CONTINUOUS
 62
     3
 10
256.2
 20
309.0
 11
260.2
 21
309.0
  0
LINE
  8
0
  6
CONTINUOUS
 62
     3
 10
260.2
 20
309.0
 11
260.2
 21
261.0
  0
LINE
  8
0
  6
CONTINUOUS
 62
     3
 10
260.2
 20
261.0
 11
256.2
 21
261.0
  0
LINE
  8
0
  6
CONTINUOUS
 62
     3
 10
260.2
 20
303.8
 11
261.2
 21
305.8
  0
LINE
  8
0
  6
CONTINUOUS
 62
     3
 10
261.2
 20
305.8
 11
273.2
 21
305.8
  0
LINE
  8
0
  6
CONTINUOUS
 62
     3
 10
273.2
 20
305.8
 11
274.2
 21
303.8
  0
LINE
  8
0
  6
CONTINUOUS
 62
     3
 10
274.2
 20
303.8
 11
274.2
 21
266.2
  0
LINE
  8
0
  6
CONTINUOUS
 62
     3
 10
274.2
 20
266.2
 11
273.2
 21
264.2
  0
LINE
  8
0
  6
CONTINUOUS
 62
     3
 10
273.2
 20
264.2
 11
261.2
 21
264.2
  0
LINE
  8
0
  6
CONTINUOUS
 62
     3
 10
261.2
 20
264.2
 11
260.2
 21
266.2
  0
LINE
  8
0
  6
CONTINUOUS
 62
     3
 10
284.8
 20
265.0
 11
284.8
 21
263.0
  0
LINE
  8
0
  6
CONTINUOUS
 62
     3
 10
284.8
 20
263.0
 11
355.0
 21
263.0
  0
LINE
  8
0
  6
CONTINUOUS
 62
     3
 10
284.8
 20
305.0
 11
284.8
 21
307.0
  0
LINE
  8
0
  6
CONTINUOUS
 62
     3
 10
284.8
 20
307.0
 11
355.0
 21
307.0
  0
LINE
  8
0
  6
CONTINUOUS
 62
     3
 10
337.8
 20
302.0
 11
338.8
 21
301.0
  0
LINE
  8
0
  6
CONTINUOUS
 62
     3
 10
338.8
 20
301.0
 11
338.8
 21
269.0
  0
LINE
  8
0
  6
CONTINUOUS
 62
     3
 10
338.8
 20
269.0
 11
337.8
 21
268.0
  0
LINE
  8
0
  6
CONTINUOUS
 62
     3
 10
307.8
 20
268.0
 11
311.8
 21
268.0
  0
LINE
  8
0
  6
CONTINUOUS
 62
     3
 10
281.8
 20
268.0
 11
281.8
 21
302.0
  0
LINE
  8
0
  6
CONTINUOUS
 62
     3
 10
307.8
 20
302.0
 11
311.8
 21
302.0
  0
LINE
  8
0
  6
CONTINUOUS
 62
     3
 10
337.8
 20
268.0
 11
337.8
 21
265.0
  0
LINE
  8
0
  6
CONTINUOUS
 62
     3
 10
311.8
 20
265.0
 11
311.8
 21
268.0
  0
LINE
  8
0
  6
CONTINUOUS
 62
     3
 10
307.8
 20
268.0
 11
307.8
 21
265.0
  0
LINE
  8
0
  6
CONTINUOUS
 62
     3
 10
284.8
 20
265.0
 11
281.8
 21
265.0
  0
LINE
  8
0
  6
CONTINUOUS
 62
     3
 10
281.8
 20
265.0
 11
281.8
 21
268.0
  0
LINE
  8
0
  6
CONTINUOUS
 62
     3
 10
281.8
 20
302.0
 11
281.8
 21
305.0
  0
LINE
  8
0
  6
CONTINUOUS
 62
     3
 10
281.8
 20
305.0
 11
284.8
 21
305.0
  0
LINE
  8
0
  6
CONTINUOUS
 62
     3
 10
307.8
 20
305.0
 11
307.8
 21
302.0
  0
LINE
  8
0
  6
CONTINUOUS
 62
     3
 10
311.8
 20
302.0
 11
311.8
 21
305.0
  0
LINE
  8
0
  6
CONTINUOUS
 62
     3
 10
337.8
 20
305.0
 11
337.8
 21
302.0
  0
LINE
  8
0
  6
CONTINUOUS
 62
     3
 10
274.2
 20
297.0
 11
277.8
 21
297.0
  0
LINE
  8
0
  6
CONTINUOUS
 62
     3
 10
277.8
 20
297.0
 11
278.8
 21
296.0
  0
LINE
  8
0
  6
CONTINUOUS
 62
     3
 10
278.8
 20
274.0
 11
277.8
 21
273.0
  0
LINE
  8
0
  6
CONTINUOUS
 62
     3
 10
277.8
 20
273.0
 11
274.2
 21
273.0
  0
LINE
  8
0
  6
CONTINUOUS
 62
     3
 10
285.8
 20
307.0
 11
285.8
 21
308.0
  0
LINE
  8
0
  6
CONTINUOUS
 62
     3
 10
285.8
 20
308.0
 11
303.8
 21
308.0
  0
LINE
  8
0
  6
CONTINUOUS
 62
     3
 10
303.8
 20
308.0
 11
303.8
 21
307.0
  0
LINE
  8
0
  6
CONTINUOUS
 62
     3
 10
315.8
 20
307.0
 11
315.8
 21
308.0
  0
LINE
  8
0
  6
CONTINUOUS
 62
     3
 10
315.8
 20
308.0
 11
333.8
 21
308.0
  0
LINE
  8
0
  6
CONTINUOUS
 62
     3
 10
333.8
 20
308.0
 11
333.8
 21
307.0
  0
LINE
  8
0
  6
CONTINUOUS
 62
     3
 10
333.8
 20
263.0
 11
333.8
 21
262.0
  0
LINE
  8
0
  6
CONTINUOUS
 62
     3
 10
333.8
 20
262.0
 11
315.8
 21
262.0
  0
LINE
  8
0
  6
CONTINUOUS
 62
     3
 10
315.8
 20
262.0
 11
315.8
 21
263.0
  0
LINE
  8
0
  6
CONTINUOUS
 62
     3
 10
303.8
 20
263.0
 11
303.8
 21
262.0
  0
LINE
  8
0
  6
CONTINUOUS
 62
     3
 10
303.8
 20
262.0
 11
285.8
 21
262.0
  0
LINE
  8
0
  6
CONTINUOUS
 62
     3
 10
285.8
 20
262.0
 11
285.8
 21
263.0
  0
LINE
  8
0
  6
CONTINUOUS
 62
     3
 10
287.3
 20
308.0
 11
287.3
 21
313.0
  0
LINE
  8
0
  6
CONTINUOUS
 62
     3
 10
287.3
 20
313.0
 11
287.8
 21
313.5
  0
LINE
  8
0
  6
CONTINUOUS
 62
     3
 10
287.8
 20
313.5
 11
301.8
 21
313.5
  0
LINE
  8
0
  6
CONTINUOUS
 62
     3
 10
301.8
 20
313.5
 11
302.3
 21
313.0
  0
LINE
  8
0
  6
CONTINUOUS
 62
     3
 10
302.3
 20
313.0
 11
302.3
 21
308.0
  0
LINE
  8
0
  6
CONTINUOUS
 62
     3
 10
317.3
 20
308.0
 11
317.3
 21
313.0
  0
LINE
  8
0
  6
CONTINUOUS
 62
     3
 10
317.3
 20
313.0
 11
317.8
 21
313.5
  0
LINE
  8
0
  6
CONTINUOUS
 62
     3
 10
317.8
 20
313.5
 11
331.8
 21
313.5
  0
LINE
  8
0
  6
CONTINUOUS
 62
     3
 10
331.8
 20
313.5
 11
332.3
 21
313.0
  0
LINE
  8
0
  6
CONTINUOUS
 62
     3
 10
332.3
 20
313.0
 11
332.3
 21
308.0
  0
LINE
  8
0
  6
CONTINUOUS
 62
     3
 10
287.3
 20
262.0
 11
287.3
 21
257.0
  0
LINE
  8
0
  6
CONTINUOUS
 62
     3
 10
287.3
 20
257.0
 11
287.8
 21
256.5
  0
LINE
  8
0
  6
CONTINUOUS
 62
     3
 10
301.8
 20
256.5
 11
302.3
 21
257.0
  0
LINE
  8
0
  6
CONTINUOUS
 62
     3
 10
302.3
 20
257.0
 11
302.3
 21
262.0
  0
LINE
  8
0
  6
CONTINUOUS
 62
     3
 10
287.8
 20
256.5
 11
288.3
 21
254.5
  0
LINE
  8
0
  6
CONTINUOUS
 62
     3
 10
288.3
 20
254.5
 11
301.3
 21
254.5
  0
LINE
  8
0
  6
CONTINUOUS
 62
     3
 10
301.3
 20
254.5
 11
301.8
 21
256.5
  0
LINE
  8
0
  6
CONTINUOUS
 62
     3
 10
317.3
 20
262.0
 11
317.3
 21
257.0
  0
LINE
  8
0
  6
CONTINUOUS
 62
     3
 10
317.3
 20
257.0
 11
317.8
 21
256.5
  0
LINE
  8
0
  6
CONTINUOUS
 62
     3
 10
331.8
 20
256.5
 11
332.3
 21
257.0
  0
LINE
  8
0
  6
CONTINUOUS
 62
     3
 10
332.3
 20
257.0
 11
332.3
 21
262.0
  0
LINE
  8
0
  6
CONTINUOUS
 62
     3
 10
317.8
 20
256.5
 11
318.3
 21
254.5
  0
LINE
  8
0
  6
CONTINUOUS
 62
     3
 10
318.3
 20
254.5
 11
331.3
 21
254.5
  0
LINE
  8
0
  6
CONTINUOUS
 62
     3
 10
331.3
 20
254.5
 11
331.8
 21
256.5
  0
LINE
  8
0
  6
CONTINUOUS
 62
     3
 10
290.8
 20
248.5
 11
290.8
 21
254.5
  0
LINE
  8
0
  6
CONTINUOUS
 62
     3
 10
290.8
 20
248.5
 11
291.3
 21
248.0
  0
LINE
  8
0
  6
CONTINUOUS
 62
     3
 10
291.3
 20
248.0
 11
298.3
 21
248.0
  0
LINE
  8
0
  6
CONTINUOUS
 62
     3
 10
298.3
 20
248.0
 11
298.8
 21
248.5
  0
LINE
  8
0
  6
CONTINUOUS
 62
     3
 10
298.8
 20
248.5
 11
298.8
 21
254.5
  0
LINE
  8
0
  6
CONTINUOUS
 62
     3
 10
320.8
 20
248.5
 11
320.8
 21
254.5
  0
LINE
  8
0
  6
CONTINUOUS
 62
     3
 10
320.8
 20
248.5
 11
321.3
 21
248.0
  0
LINE
  8
0
  6
CONTINUOUS
 62
     3
 10
321.3
 20
248.0
 11
328.3
 21
248.0
  0
LINE
  8
0
  6
CONTINUOUS
 62
     3
 10
328.3
 20
248.0
 11
328.8
 21
248.5
  0
LINE
  8
0
  6
CONTINUOUS
 62
     3
 10
328.8
 20
248.5
 11
328.8
 21
254.5
  0
LINE
  8
0
  6
CONTINUOUS
 62
     1
 10
240.2
 20
244.2
 11
240.2
 21
248.2
  0
LINE
  8
0
  6
CONTINUOUS
 62
     1
 10
239.7
 20
244.7
 11
247.7
 21
244.7
  0
LINE
  8
0
  6
CONTINUOUS
 62
     1
 10
247.2
 20
244.2
 11
247.2
 21
248.2
  0
LINE
  8
0
  6
CONTINUOUS
 62
     1
 10
291.3
 20
248.0
 11
291.3
 21
254.5
  0
LINE
  8
0
  6
CONTINUOUS
 62
     1
 10
290.8
 20
248.5
 11
298.8
 21
248.5
  0
LINE
  8
0
  6
CONTINUOUS
 62
     1
 10
298.3
 20
248.0
 11
298.3
 21
254.5
  0
LINE
  8
0
  6
CONTINUOUS
 62
     1
 10
321.3
 20
254.5
 11
321.3
 21
248.0
  0
LINE
  8
0
  6
CONTINUOUS
 62
     1
 10
320.8
 20
248.5
 11
328.8
 21
248.5
  0
LINE
  8
0
  6
CONTINUOUS
 62
     1
 10
328.3
 20
248.0
 11
328.3
 21
254.5
  0
LINE
  8
0
  6
CONTINUOUS
 62
     1
 10
277.8
 20
273.0
 11
277.8
 21
297.0
  0
LINE
  8
0
  6
CONTINUOUS
 62
     1
 10
253.0
 20
295.0
 11
252.0
 21
297.0
  0
LINE
  8
0
  6
CONTINUOUS
 62
     1
 10
247.7
 20
297.0
 11
252.0
 21
297.0
  0
LINE
  8
0
  6
CONTINUOUS
 62
     1
 10
252.0
 20
297.0
 11
252.3
 21
297.5
  0
LINE
  8
0
  6
CONTINUOUS
 62
     1
 10
274.2
 20
295.0
 11
273.2
 21
297.0
  0
LINE
  8
0
  6
CONTINUOUS
 62
     1
 10
273.2
 20
297.0
 11
274.2
 21
299.0
  0
LINE
  8
0
  6
CONTINUOUS
 62
     1
 10
273.2
 20
297.0
 11
261.2
 21
297.0
  0
LINE
  8
0
  6
CONTINUOUS
 62
     1
 10
261.2
 20
297.0
 11
260.2
 21
299.0
  0
LINE
  8
0
  6
CONTINUOUS
 62
     1
 10
260.2
 20
295.0
 11
261.2
 21
297.0
  0
LINE
  8
0
  6
CONTINUOUS
 62
     1
 10
260.2
 20
271.0
 11
261.2
 21
273.0
  0
LINE
  8
0
  6
CONTINUOUS
 62
     1
 10
261.2
 20
273.0
 11
273.2
 21
273.0
  0
LINE
  8
0
  6
CONTINUOUS
 62
     1
 10
273.2
 20
273.0
 11
274.2
 21
271.0
  0
LINE
  8
0
  6
CONTINUOUS
 62
     1
 10
274.2
 20
275.0
 11
273.2
 21
273.0
  0
LINE
  8
0
  6
CONTINUOUS
 62
     1
 10
260.2
 20
275.0
 11
261.2
 21
273.0
  0
LINE
  8
0
  6
CONTINUOUS
 62
     1
 10
253.0
 20
275.0
 11
252.0
 21
273.0
  0
LINE
  8
0
  6
CONTINUOUS
 62
     1
 10
247.7
 20
273.0
 11
252.0
 21
273.0
  0
LINE
  8
0
  6
CONTINUOUS
 62
     1
 10
252.3
 20
272.5
 11
252.0
 21
273.0
  0
LINE
  8
0
  6
CONTINUOUS
 62
     1
 10
248.2
 20
255.8
 11
248.2
 21
250.8
  0
LINE
  8
0
  6
CONTINUOUS
 62
     1
 10
248.2
 20
250.8
 11
249.2
 21
250.3
  0
LINE
  8
0
  6
CONTINUOUS
 62
     1
 10
247.2
 20
250.3
 11
248.2
 21
250.8
  0
LINE
  8
0
  6
CONTINUOUS
 62
     1
 10
239.2
 20
255.8
 11
239.2
 21
250.8
  0
LINE
  8
0
  6
CONTINUOUS
 62
     1
 10
236.7
 20
250.3
 11
250.7
 21
250.3
  0
LINE
  8
0
  6
CONTINUOUS
 62
     1
 10
239.2
 20
250.8
 11
240.2
 21
250.3
  0
LINE
  8
0
  6
CONTINUOUS
 62
     1
 10
238.2
 20
250.3
 11
239.2
 21
250.8
  0
LINE
  8
0
  6
CONTINUOUS
 62
     3
 10
281.8
 20
296.0
 11
278.8
 21
296.0
  0
LINE
  8
0
  6
CONTINUOUS
 62
     3
 10
278.8
 20
274.0
 11
281.8
 21
274.0
  0
LINE
  8
0
  6
CONTINUOUS
 62
     1
 10
274.2
 20
274.0
 11
278.8
 21
274.0
  0
LINE
  8
0
  6
CONTINUOUS
 62
     1
 10
278.8
 20
296.0
 11
274.2
 21
296.0
  0
LINE
  8
0
  6
CONTINUOUS
 62
     1
 10
278.8
 20
296.0
 11
278.8
 21
274.0
  0
ARC
  8
0
  6
CONTINUOUS
 62
     1
 10
294.8
 20
308.6
 40
14.6
 50
206.8
 51
333.2
  0
ARC
  8
0
  6
CONTINUOUS
 62
     1
 10
324.8
 20
261.4
 40
14.6
 50
26.8
 51
153.2
  0
ARC
  8
0
  6
CONTINUOUS
 62
     1
 10
294.8
 20
261.4
 40
14.6
 50
26.8
 51
153.2
  0
ARC
  8
0
  6
CONTINUOUS
 62
     1
 10
324.8
 20
308.6
 40
14.6
 50
206.8
 51
333.2
  0
LINE
  8
0
  6
CONTINUOUS
 62
     1
 10
317.8
 20
256.5
 11
331.8
 21
256.5
  0
LINE
  8
0
  6
CONTINUOUS
 62
     1
 10
329.3
 20
262.0
 11
329.3
 21
257.0
  0
LINE
  8
0
  6
CONTINUOUS
 62
     1
 10
329.3
 20
257.0
 11
330.3
 21
256.5
  0
LINE
  8
0
  6
CONTINUOUS
 62
     1
 10
328.3
 20
256.5
 11
329.3
 21
257.0
  0
LINE
  8
0
  6
CONTINUOUS
 62
     1
 10
320.3
 20
262.0
 11
320.3
 21
257.0
  0
LINE
  8
0
  6
CONTINUOUS
 62
     1
 10
320.3
 20
257.0
 11
321.3
 21
256.5
  0
LINE
  8
0
  6
CONTINUOUS
 62
     1
 10
319.3
 20
256.5
 11
320.3
 21
257.0
  0
LINE
  8
0
  6
CONTINUOUS
 62
     1
 10
287.8
 20
256.5
 11
301.8
 21
256.5
  0
LINE
  8
0
  6
CONTINUOUS
 62
     1
 10
299.3
 20
262.0
 11
299.3
 21
257.0
  0
LINE
  8
0
  6
CONTINUOUS
 62
     1
 10
299.3
 20
257.0
 11
300.3
 21
256.5
  0
LINE
  8
0
  6
CONTINUOUS
 62
     1
 10
298.3
 20
256.5
 11
299.3
 21
257.0
  0
LINE
  8
0
  6
CONTINUOUS
 62
     1
 10
290.3
 20
262.0
 11
290.3
 21
257.0
  0
LINE
  8
0
  6
CONTINUOUS
 62
     1
 10
290.3
 20
257.0
 11
291.3
 21
256.5
  0
LINE
  8
0
  6
CONTINUOUS
 62
     1
 10
289.3
 20
256.5
 11
290.3
 21
257.0
  0
LINE
  8
0
  6
CONTINUOUS
 62
     1
 10
337.8
 20
302.0
 11
337.8
 21
268.0
  0
LINE
  8
0
  6
CONTINUOUS
 62
     1
 10
329.3
 20
308.0
 11
329.3
 21
313.0
  0
LINE
  8
0
  6
CONTINUOUS
 62
     1
 10
329.3
 20
313.0
 11
330.3
 21
313.5
  0
LINE
  8
0
  6
CONTINUOUS
 62
     1
 10
328.3
 20
313.5
 11
329.3
 21
313.0
  0
LINE
  8
0
  6
CONTINUOUS
 62
     1
 10
320.3
 20
308.0
 11
320.3
 21
313.0
  0
LINE
  8
0
  6
CONTINUOUS
 62
     1
 10
320.3
 20
313.0
 11
319.3
 21
313.5
  0
LINE
  8
0
  6
CONTINUOUS
 62
     1
 10
321.3
 20
313.5
 11
320.3
 21
313.0
  0
LINE
  8
0
  6
CONTINUOUS
 62
     1
 10
299.3
 20
308.0
 11
299.3
 21
313.0
  0
LINE
  8
0
  6
CONTINUOUS
 62
     1
 10
299.3
 20
313.0
 11
300.3
 21
313.5
  0
LINE
  8
0
  6
CONTINUOUS
 62
     1
 10
298.3
 20
313.5
 11
299.3
 21
313.0
  0
LINE
  8
0
  6
CONTINUOUS
 62
     1
 10
290.3
 20
308.0
 11
290.3
 21
313.0
  0
LINE
  8
0
  6
CONTINUOUS
 62
     1
 10
290.3
 20
313.0
 11
289.3
 21
313.5
  0
LINE
  8
0
  6
CONTINUOUS
 62
     1
 10
291.3
 20
313.5
 11
290.3
 21
313.0
  0
LINE
  8
0
  6
CONTINUOUS
 62
     1
 10
248.2
 20
314.2
 11
248.2
 21
319.2
  0
LINE
  8
0
  6
CONTINUOUS
 62
     1
 10
248.2
 20
319.2
 11
249.2
 21
319.7
  0
LINE
  8
0
  6
CONTINUOUS
 62
     1
 10
247.2
 20
319.7
 11
248.2
 21
319.2
  0
LINE
  8
0
  6
CONTINUOUS
 62
     1
 10
239.2
 20
314.2
 11
239.2
 21
319.2
  0
LINE
  8
0
  6
CONTINUOUS
 62
     1
 10
239.2
 20
319.2
 11
238.2
 21
319.7
  0
LINE
  8
0
  6
CONTINUOUS
 62
     1
 10
240.2
 20
319.7
 11
239.2
 21
319.2
  0
LINE
  8
0
  6
CONTINUOUS
 62
     3
 10
362.0
 20
285.0
 11
362.0
 21
307.0
  0
POINT
  8
0
  6
CONTINUOUS
 62
     3
 10
342.0
 20
309.0
  0
LINE
  8
0
  6
CONTINUOUS
 62
     3
 10
362.0
 20
285.0
 11
362.0
 21
263.0
  0
LINE
  8
0
  6
CONTINUOUS
 62
     3
 10
361.0
 20
265.0
 11
284.8
 21
265.0
  0
LINE
  8
0
  6
CONTINUOUS
 62
     3
 10
362.0
 20
263.0
 11
340.0
 21
263.0
  0
LINE
  8
0
  6
CONTINUOUS
 62
     3
 10
361.0
 20
263.0
 11
361.0
 21
265.0
  0
LINE
  8
0
  6
CONTINUOUS
 62
     3
 10
361.0
 20
305.0
 11
361.0
 21
307.0
  0
LINE
  8
0
  6
CONTINUOUS
 62
     3
 10
362.0
 20
307.0
 11
340.0
 21
307.0
  0
LINE
  8
0
  6
CONTINUOUS
 62
     3
 10
361.0
 20
305.0
 11
284.8
 21
305.0
  0
LINE
  8
0
  6
CONTINUOUS
 62
     3
 10
356.0
 20
305.0
 11
356.0
 21
303.5
  0
LINE
  8
0
  6
CONTINUOUS
 62
     3
 10
356.0
 20
303.5
 11
348.0
 21
303.5
  0
LINE
  8
0
  6
CONTINUOUS
 62
     3
 10
348.0
 20
303.5
 11
348.0
 21
305.0
  0
LINE
  8
0
  6
CONTINUOUS
 62
     3
 10
356.0
 20
265.0
 11
356.0
 21
266.5
  0
LINE
  8
0
  6
CONTINUOUS
 62
     3
 10
356.0
 20
266.5
 11
348.0
 21
266.5
  0
LINE
  8
0
  6
CONTINUOUS
 62
     3
 10
348.0
 20
266.5
 11
348.0
 21
265.0
  0
LINE
  8
0
  6
CONTINUOUS
 62
     1
 10
355.0
 20
259.8
 11
355.0
 21
259.3
  0
LINE
  8
0
  6
CONTINUOUS
 62
     1
 10
355.0
 20
259.3
 11
352.0
 21
258.8
  0
LINE
  8
0
  6
CONTINUOUS
 62
     1
 10
352.0
 20
258.8
 11
349.0
 21
259.3
  0
LINE
  8
0
  6
CONTINUOUS
 62
     1
 10
349.0
 20
259.3
 11
349.0
 21
259.8
  0
LINE
  8
0
  6
CONTINUOUS
 62
     1
 10
355.0
 20
310.2
 11
355.0
 21
310.7
  0
LINE
  8
0
  6
CONTINUOUS
 62
     1
 10
355.0
 20
310.7
 11
352.0
 21
311.2
  0
LINE
  8
0
  6
CONTINUOUS
 62
     1
 10
352.0
 20
311.2
 11
349.0
 21
310.7
  0
LINE
  8
0
  6
CONTINUOUS
 62
     1
 10
349.0
 20
310.7
 11
349.0
 21
310.2
  0
LINE
  8
0
  6
CONTINUOUS
 62
     3
 10
342.0
 20
263.0
 11
342.0
 21
259.8
  0
LINE
  8
0
  6
CONTINUOUS
 62
     3
 10
352.0
 20
259.8
 11
352.0
 21
263.0
  0
LINE
  8
0
  6
CONTINUOUS
 62
     3
 10
342.0
 20
307.0
 11
342.0
 21
310.2
  0
LINE
  8
0
  6
CONTINUOUS
 62
     3
 10
352.0
 20
307.0
 11
352.0
 21
310.2
  0
LINE
  8
0
  6
CONTINUOUS
 62
     3
 10
365.2
 20
307.0
 11
365.2
 21
285.0
  0
LINE
  8
0
  6
CONTINUOUS
 62
     3
 10
342.0
 20
310.2
 11
362.0
 21
310.2
  0
ARC
  8
0
  6
CONTINUOUS
 62
     3
 10
362.0
 20
307.0
 40
3.2
 50
0.0
 51
90.0
  0
LINE
  8
0
  6
CONTINUOUS
 62
     3
 10
365.2
 20
263.0
 11
365.2
 21
285.0
  0
LINE
  8
0
  6
CONTINUOUS
 62
     3
 10
342.0
 20
259.8
 11
362.0
 21
259.8
  0
ARC
  8
0
  6
CONTINUOUS
 62
     3
 10
362.0
 20
263.0
 40
3.2
 50
270.0
 51
0.0
  0
LINE
  8
0
  6
CONTINUOUS
 62
     1
 10
225.0
 20
365.0
 11
225.0
 21
392.0
  0
LINE
  8
0
  6
CONTINUOUS
 62
     1
 10
225.0
 20
390.0
 11
226.931851653
 21
389.48236191
  0
LINE
  8
0
  6
CONTINUOUS
 62
     1
 10
225.0
 20
390.0
 11
226.931851653
 21
390.51763809
  0
LINE
  8
0
  6
CONTINUOUS
 62
     1
 10
225.0
 20
390.0
 11
365.0
 21
390.0
  0
LINE
  8
0
  6
CONTINUOUS
 62
     1
 10
365.0
 20
390.0
 11
363.068148347
 21
390.51763809
  0
LINE
  8
0
  6
CONTINUOUS
 62
     1
 10
365.0
 20
390.0
 11
363.068148347
 21
389.48236191
  0
LINE
  8
0
  6
CONTINUOUS
 62
     1
 10
365.0
 20
315.0
 11
365.0
 21
392.0
  0
TEXT
  8
0
  6
CONTINUOUS
 62
     1
 10
286.6
 20
392.0
 30
0.0
 40
6.0
  1
１４０
 50
0.0
 41
0.666666667
 51
0.0
  7
KANJI0
  0
TEXT
  8
0
  6
CONTINUOUS
 62
     1
 10
298.6
 20
392.0
 30
0.0
 40
3.6
  1
±３
 50
0.0
 41
0.666666667
 51
0.0
  7
KANJI1
  0
LINE
  8
0
  6
CONTINUOUS
 62
     1
 10
225.0
 20
208.0
 11
225.0
 21
198.0
  0
LINE
  8
0
  6
CONTINUOUS
 62
     1
 10
225.0
 20
200.0
 11
223.068148347
 21
200.51763809
  0
LINE
  8
0
  6
CONTINUOUS
 62
     1
 10
225.0
 20
200.0
 11
223.068148347
 21
199.48236191
  0
LINE
  8
0
  6
CONTINUOUS
 62
     1
 10
221.0
 20
200.0
 11
244.2
 21
200.0
  0
LINE
  8
0
  6
CONTINUOUS
 62
     1
 10
228.2
 20
200.0
 11
230.131851653
 21
199.48236191
  0
LINE
  8
0
  6
CONTINUOUS
 62
     1
 10
228.2
 20
200.0
 11
230.131851653
 21
200.51763809
  0
LINE
  8
0
  6
CONTINUOUS
 62
     1
 10
228.2
 20
208.0
 11
228.2
 21
198.0
  0
TEXT
  8
0
  6
CONTINUOUS
 62
     1
 10
232.2
 20
202.0
 30
0.0
 40
6.0
  1
３．２
 50
0.0
 41
0.666666667
 51
0.0
  7
KANJI0
  0
LINE
  8
0
  6
CONTINUOUS
 62
     1
 10
266.2
 20
264.0
 11
266.600960741
 21
262.040604561
  0
LINE
  8
0
  6
CONTINUOUS
 62
     1
 10
266.2
 20
264.0
 11
267.526939906
 21
262.503594144
  0
LINE
  8
0
  6
CONTINUOUS
 62
     1
 10
266.2
 20
264.0
 11
296.2
 21
204.0
  0
LINE
  8
0
  6
CONTINUOUS
 62
     1
 10
296.2
 20
204.0
 11
361.6
 21
204.0
  0
TEXT
  8
0
  6
CONTINUOUS
 62
     1
 10
296.2
 20
206.0
 30
0.6
 40
6.0
  1
Ｍ２４ナット（第３種）
 50
0.0
 41
0.9
 51
0.0
  7
KANJI2
  0
LINE
  8
0
  6
CONTINUOUS
 62
     1
 10
332.2
 20
254.0
 11
333.2
 21
252.267949192
  0
LINE
  8
0
  6
CONTINUOUS
 62
     1
 10
332.2
 20
254.0
 11
333.932050808
 21
253.0
  0
LINE
  8
0
  6
CONTINUOUS
 62
     1
 10
332.2
 20
254.0
 11
362.2
 21
224.0
  0
LINE
  8
0
  6
CONTINUOUS
 62
     1
 10
362.2
 20
224.0
 11
445.9
 21
224.0
  0
TEXT
  8
0
  6
CONTINUOUS
 62
     1
 10
362.2
 20
226.0
 30
0.6
 40
6.0
  1
Ｍ８ナット（ナイロンロックリンク゛付）
 50
0.0
 41
0.9
 51
0.0
  7
KANJI2
  0
LINE
  8
0
  6
CONTINUOUS
 62
     1
 10
524.200005395
 20
289.5
 11
502.2
 21
289.5
  0
LINE
  8
0
  6
CONTINUOUS
 62
     1
 10
504.2
 20
289.5
 11
503.68236191
 21
287.568148347
  0
LINE
  8
0
  6
CONTINUOUS
 62
     1
 10
504.2
 20
289.5
 11
504.71763809
 21
287.568148347
  0
LINE
  8
0
  6
CONTINUOUS
 62
     1
 10
504.2
 20
289.5
 11
504.2
 21
280.5
  0
LINE
  8
0
  6
CONTINUOUS
 62
     1
 10
504.2
 20
280.5
 11
504.71763809
 21
282.431851653
  0
LINE
  8
0
  6
CONTINUOUS
 62
     1
 10
504.2
 20
280.5
 11
503.68236191
 21
282.431851653
  0
LINE
  8
0
  6
CONTINUOUS
 62
     1
 10
524.200005395
 20
280.5
 11
502.2
 21
280.5
  0
TEXT
  8
0
  6
CONTINUOUS
 62
     1
 10
502.2
 20
283.0
 30
0.0
 40
6.0
  1
９
 50
90.0
 41
0.666666667
 51
0.0
  7
KANJI0
  0
LINE
  8
0
  6
LTYPE1
 62
     1
 10
479.2
 20
285.0
 11
459.2
 21
285.0
  0
LINE
  8
0
  6
LTYPE1
 62
     1
 10
419.2
 20
285.0
 11
384.2
 21
285.0
  0
LINE
  8
0
  6
LTYPE1
 62
     1
 10
554.2
 20
285.0
 11
519.2
 21
285.0
  0
LINE
  8
0
  6
CONTINUOUS
 62
     1
 10
450.0
 20
82.0
 11
450.0
 21
10.0
  0
TEXT
  8
0
  6
CONTINUOUS
 62
     1
 10
455.0
 20
61.0
 30
0.6
 40
6.0
  1
スピーカ天井吊下げ金具
 50
0.0
 41
0.9
 51
0.0
  7
KANJI2
  0
TEXT
  8
0
  6
CONTINUOUS
 62
     1
 10
455.0
 20
49.0
 30
0.6
 40
6.0
  1
黒色半艶消し焼付け塗装
 50
0.0
 41
0.9
 51
0.0
  7
KANJI2
  0
TEXT
  8
0
  6
CONTINUOUS
 62
     1
 10
455.0
 20
37.0
 30
0.6
 40
6.0
  1
自重　　１，９ｋｇ
 50
0.0
 41
0.9
 51
0.0
  7
KANJI2
  0
TEXT
  8
0
  6
CONTINUOUS
 62
     1
 10
455.0
 20
25.0
 30
0.6
 40
6.0
  1
耐荷重　　３０ｋｇ（程度迄）
 50
0.0
 41
0.9
 51
0.0
  7
KANJI2
  0
LINE
  8
0
  6
CONTINUOUS
 62
     1
 10
590.0
 20
82.0
 11
450.0
 21
82.0
  0
LINE
  8
0
  6
CONTINUOUS
 62
     1
 10
450.0
 20
22.0
 11
590.0
 21
22.0
  0
LINE
  8
0
  6
CONTINUOUS
 62
     1
 10
590.0
 20
34.0
 11
450.0
 21
34.0
  0
LINE
  8
0
  6
CONTINUOUS
 62
     1
 10
450.0
 20
46.0
 11
590.0
 21
46.0
  0
LINE
  8
0
  6
CONTINUOUS
 62
     1
 10
590.0
 20
58.0
 11
450.0
 21
58.0
  0
LINE
  8
0
  6
CONTINUOUS
 62
     1
 10
450.0
 20
70.0
 11
590.0
 21
70.0
  0
TEXT
  8
0
  6
CONTINUOUS
 62
     1
 10
455.0
 20
71.5
 30
0.8
 40
8.0
  1
ＳＰＨ－１４０Ｂ
 50
0.0
 41
0.9
 51
0.0
  7
KANJI3
  0
TEXT
  8
0
  6
CONTINUOUS
 62
     1
 10
455.0
 20
13.0
 30
0.6
 40
6.0
  1
用紙　Ａ４　　尺度　　１／２
 50
0.0
 41
0.9
 51
0.0
  7
KANJI2
  0
ENDSEC
  0
EOF
