  0
SECTION
  2
HEADER
  9
$EXTMIN
 10
0.0
 20
0.0
 30
0.0
  9
$EXTMAX
 10
445.5
 20
315.0
 30
0.0
  9
$LIMMIN
 10
0.0
 20
0.0
  9
$LIMMAX
 10
445.5
 20
315.0
  9
$LTSCALE
 40
1.0
  9
$PDMODE
 70
     0
  0
ENDSEC
  0
SECTION
  2
TABLES
  0
TABLE
  2
LTYPE
 70
     4
  0
LTYPE
  2
CONTINUOUS
 70
    64
  3
Solid line
 72
    65
 73
     0
 40
0.0
  0
LTYPE
  2
LTYPE1
 70
    64
  3
HIDDEN
 72
    65
 73
     2
 40
10.125
 49
6.075
 49
-4.05
  0
LTYPE
  2
LTYPE2
 70
    64
  3
CENTER
 72
    65
 73
     4
 40
40.5
 49
28.35
 49
-4.05
 49
4.05
 49
-4.05
  0
LTYPE
  2
LTYPE3
 70
    64
  3
HIDDEN
 72
    65
 73
     2
 40
6.75
 49
4.05
 49
-2.7
  0
ENDTAB
  0
TABLE
  2
LAYER
 70
   128
  0
LAYER
  2
0
 70
     0
 62
     7
  6
CONTINUOUS
  0
LAYER
  2
2
 70
     0
 62
     7
  6
CONTINUOUS
  0
LAYER
  2
3
 70
     0
 62
     7
  6
CONTINUOUS
  0
LAYER
  2
4
 70
     0
 62
     7
  6
CONTINUOUS
  0
LAYER
  2
5
 70
     0
 62
     7
  6
CONTINUOUS
  0
LAYER
  2
6
 70
     0
 62
     7
  6
CONTINUOUS
  0
LAYER
  2
7
 70
     0
 62
     7
  6
CONTINUOUS
  0
LAYER
  2
8
 70
     0
 62
     7
  6
CONTINUOUS
  0
LAYER
  2
9
 70
     0
 62
     7
  6
CONTINUOUS
  0
LAYER
  2
10
 70
     0
 62
     7
  6
CONTINUOUS
  0
LAYER
  2
11
 70
     0
 62
     7
  6
CONTINUOUS
  0
LAYER
  2
12
 70
     0
 62
     7
  6
CONTINUOUS
  0
LAYER
  2
13
 70
     0
 62
     7
  6
CONTINUOUS
  0
LAYER
  2
14
 70
     0
 62
     7
  6
CONTINUOUS
  0
LAYER
  2
15
 70
     0
 62
     7
  6
CONTINUOUS
  0
LAYER
  2
16
 70
     0
 62
     7
  6
CONTINUOUS
  0
LAYER
  2
17
 70
     0
 62
     7
  6
CONTINUOUS
  0
LAYER
  2
18
 70
     0
 62
     7
  6
CONTINUOUS
  0
LAYER
  2
19
 70
     0
 62
     7
  6
CONTINUOUS
  0
LAYER
  2
20
 70
     0
 62
     7
  6
CONTINUOUS
  0
LAYER
  2
21
 70
     0
 62
     7
  6
CONTINUOUS
  0
LAYER
  2
22
 70
     0
 62
     7
  6
CONTINUOUS
  0
LAYER
  2
23
 70
     0
 62
     7
  6
CONTINUOUS
  0
LAYER
  2
24
 70
     0
 62
     7
  6
CONTINUOUS
  0
LAYER
  2
25
 70
     0
 62
     7
  6
CONTINUOUS
  0
LAYER
  2
26
 70
     0
 62
     7
  6
CONTINUOUS
  0
LAYER
  2
27
 70
     0
 62
     7
  6
CONTINUOUS
  0
LAYER
  2
28
 70
     0
 62
     7
  6
CONTINUOUS
  0
LAYER
  2
29
 70
     0
 62
     7
  6
CONTINUOUS
  0
LAYER
  2
30
 70
     0
 62
     7
  6
CONTINUOUS
  0
LAYER
  2
31
 70
     0
 62
     7
  6
CONTINUOUS
  0
LAYER
  2
32
 70
     0
 62
     7
  6
CONTINUOUS
  0
LAYER
  2
33
 70
     0
 62
     7
  6
CONTINUOUS
  0
LAYER
  2
34
 70
     0
 62
     7
  6
CONTINUOUS
  0
LAYER
  2
35
 70
     0
 62
     7
  6
CONTINUOUS
  0
LAYER
  2
36
 70
     0
 62
     7
  6
CONTINUOUS
  0
LAYER
  2
37
 70
     0
 62
     7
  6
CONTINUOUS
  0
LAYER
  2
38
 70
     0
 62
     7
  6
CONTINUOUS
  0
LAYER
  2
39
 70
     0
 62
     7
  6
CONTINUOUS
  0
LAYER
  2
40
 70
     0
 62
     7
  6
CONTINUOUS
  0
LAYER
  2
41
 70
     0
 62
     7
  6
CONTINUOUS
  0
LAYER
  2
42
 70
     0
 62
     7
  6
CONTINUOUS
  0
LAYER
  2
43
 70
     0
 62
     7
  6
CONTINUOUS
  0
LAYER
  2
44
 70
     0
 62
     7
  6
CONTINUOUS
  0
LAYER
  2
45
 70
     0
 62
     7
  6
CONTINUOUS
  0
LAYER
  2
46
 70
     0
 62
     7
  6
CONTINUOUS
  0
LAYER
  2
47
 70
     0
 62
     7
  6
CONTINUOUS
  0
LAYER
  2
48
 70
     0
 62
     7
  6
CONTINUOUS
  0
LAYER
  2
49
 70
     0
 62
     7
  6
CONTINUOUS
  0
LAYER
  2
50
 70
     0
 62
     7
  6
CONTINUOUS
  0
LAYER
  2
51
 70
     0
 62
     7
  6
CONTINUOUS
  0
LAYER
  2
52
 70
     0
 62
     7
  6
CONTINUOUS
  0
LAYER
  2
53
 70
     0
 62
     7
  6
CONTINUOUS
  0
LAYER
  2
54
 70
     0
 62
     7
  6
CONTINUOUS
  0
LAYER
  2
55
 70
     0
 62
     7
  6
CONTINUOUS
  0
LAYER
  2
56
 70
     0
 62
     7
  6
CONTINUOUS
  0
LAYER
  2
57
 70
     0
 62
     7
  6
CONTINUOUS
  0
LAYER
  2
58
 70
     0
 62
     7
  6
CONTINUOUS
  0
LAYER
  2
59
 70
     0
 62
     7
  6
CONTINUOUS
  0
LAYER
  2
60
 70
     0
 62
     7
  6
CONTINUOUS
  0
LAYER
  2
61
 70
     0
 62
     7
  6
CONTINUOUS
  0
LAYER
  2
62
 70
     0
 62
     7
  6
CONTINUOUS
  0
LAYER
  2
63
 70
     0
 62
     7
  6
CONTINUOUS
  0
LAYER
  2
64
 70
     0
 62
     7
  6
CONTINUOUS
  0
LAYER
  2
65
 70
     0
 62
     7
  6
CONTINUOUS
  0
LAYER
  2
66
 70
     0
 62
     7
  6
CONTINUOUS
  0
LAYER
  2
67
 70
     0
 62
     7
  6
CONTINUOUS
  0
LAYER
  2
68
 70
     0
 62
     7
  6
CONTINUOUS
  0
LAYER
  2
69
 70
     0
 62
     7
  6
CONTINUOUS
  0
LAYER
  2
70
 70
     0
 62
     7
  6
CONTINUOUS
  0
LAYER
  2
71
 70
     0
 62
     7
  6
CONTINUOUS
  0
LAYER
  2
72
 70
     0
 62
     7
  6
CONTINUOUS
  0
LAYER
  2
73
 70
     0
 62
     7
  6
CONTINUOUS
  0
LAYER
  2
74
 70
     0
 62
     7
  6
CONTINUOUS
  0
LAYER
  2
75
 70
     0
 62
     7
  6
CONTINUOUS
  0
LAYER
  2
76
 70
     0
 62
     7
  6
CONTINUOUS
  0
LAYER
  2
77
 70
     0
 62
     7
  6
CONTINUOUS
  0
LAYER
  2
78
 70
     0
 62
     7
  6
CONTINUOUS
  0
LAYER
  2
79
 70
     0
 62
     7
  6
CONTINUOUS
  0
LAYER
  2
80
 70
     0
 62
     7
  6
CONTINUOUS
  0
LAYER
  2
81
 70
     0
 62
     7
  6
CONTINUOUS
  0
LAYER
  2
82
 70
     0
 62
     7
  6
CONTINUOUS
  0
LAYER
  2
83
 70
     0
 62
     7
  6
CONTINUOUS
  0
LAYER
  2
84
 70
     0
 62
     7
  6
CONTINUOUS
  0
LAYER
  2
85
 70
     0
 62
     7
  6
CONTINUOUS
  0
LAYER
  2
86
 70
     0
 62
     7
  6
CONTINUOUS
  0
LAYER
  2
87
 70
     0
 62
     7
  6
CONTINUOUS
  0
LAYER
  2
88
 70
     0
 62
     7
  6
CONTINUOUS
  0
LAYER
  2
89
 70
     0
 62
     7
  6
CONTINUOUS
  0
LAYER
  2
90
 70
     0
 62
     7
  6
CONTINUOUS
  0
LAYER
  2
91
 70
     0
 62
     7
  6
CONTINUOUS
  0
LAYER
  2
92
 70
     0
 62
     7
  6
CONTINUOUS
  0
LAYER
  2
93
 70
     0
 62
     7
  6
CONTINUOUS
  0
LAYER
  2
94
 70
     0
 62
     7
  6
CONTINUOUS
  0
LAYER
  2
95
 70
     0
 62
     7
  6
CONTINUOUS
  0
LAYER
  2
96
 70
     0
 62
     7
  6
CONTINUOUS
  0
LAYER
  2
97
 70
     0
 62
     7
  6
CONTINUOUS
  0
LAYER
  2
98
 70
     0
 62
     7
  6
CONTINUOUS
  0
LAYER
  2
99
 70
     0
 62
     7
  6
CONTINUOUS
  0
LAYER
  2
100
 70
     0
 62
     7
  6
CONTINUOUS
  0
LAYER
  2
101
 70
     0
 62
     7
  6
CONTINUOUS
  0
LAYER
  2
102
 70
     0
 62
     7
  6
CONTINUOUS
  0
LAYER
  2
103
 70
     0
 62
     7
  6
CONTINUOUS
  0
LAYER
  2
104
 70
     0
 62
     7
  6
CONTINUOUS
  0
LAYER
  2
105
 70
     0
 62
     7
  6
CONTINUOUS
  0
LAYER
  2
106
 70
     0
 62
     7
  6
CONTINUOUS
  0
LAYER
  2
107
 70
     0
 62
     7
  6
CONTINUOUS
  0
LAYER
  2
108
 70
     0
 62
     7
  6
CONTINUOUS
  0
LAYER
  2
109
 70
     0
 62
     7
  6
CONTINUOUS
  0
LAYER
  2
110
 70
     0
 62
     7
  6
CONTINUOUS
  0
LAYER
  2
111
 70
     0
 62
     7
  6
CONTINUOUS
  0
LAYER
  2
112
 70
     0
 62
     7
  6
CONTINUOUS
  0
LAYER
  2
113
 70
     0
 62
     7
  6
CONTINUOUS
  0
LAYER
  2
114
 70
     0
 62
     7
  6
CONTINUOUS
  0
LAYER
  2
115
 70
     0
 62
     7
  6
CONTINUOUS
  0
LAYER
  2
116
 70
     0
 62
     7
  6
CONTINUOUS
  0
LAYER
  2
117
 70
     0
 62
     7
  6
CONTINUOUS
  0
LAYER
  2
118
 70
     0
 62
     7
  6
CONTINUOUS
  0
LAYER
  2
119
 70
     0
 62
     7
  6
CONTINUOUS
  0
LAYER
  2
120
 70
     0
 62
     7
  6
CONTINUOUS
  0
LAYER
  2
121
 70
     0
 62
     7
  6
CONTINUOUS
  0
LAYER
  2
122
 70
     0
 62
     7
  6
CONTINUOUS
  0
LAYER
  2
123
 70
     0
 62
     7
  6
CONTINUOUS
  0
LAYER
  2
124
 70
     0
 62
     7
  6
CONTINUOUS
  0
LAYER
  2
125
 70
     0
 62
     7
  6
CONTINUOUS
  0
LAYER
  2
126
 70
     0
 62
     7
  6
CONTINUOUS
  0
LAYER
  2
127
 70
     0
 62
     7
  6
CONTINUOUS
  0
LAYER
  2
128
 70
     0
 62
     7
  6
CONTINUOUS
  0
ENDTAB
  0
TABLE
  2
STYLE
 70
     5
  0
STYLE
  2
STANDARD
 70
     0
 40
0.0
 41
1.0
 50
0.0
 71
     0
 42
0.2
  3
txt
  4

  0
STYLE
  2
KANJI0
 70
     0
 40
4.002
 41
0.9
 50
0.0
 71
     0
 42
4.002
  3

  4
bigfont
  0
STYLE
  2
KANJI1
 70
     0
 40
3.0
 41
0.666666667
 50
0.0
 71
     0
 42
3.0
  3

  4
bigfont
  0
STYLE
  2
KANJI2
 70
     0
 40
5.336
 41
0.9
 50
0.0
 71
     0
 42
5.336
  3

  4
bigfont
  0
STYLE
  2
KANJI3
 70
     0
 40
3.0
 41
0.9
 50
0.0
 71
     0
 42
3.0
  3

  4
bigfont
  0
ENDTAB
  0
TABLE
  2
VIEW
 70
     0
  0
ENDTAB
  0
ENDSEC
  0
SECTION
  2
BLOCKS
  0
ENDSEC
  0
SECTION
  2
ENTITIES
  0
POLYLINE
  8
0
  6
CONTINUOUS
 62
     2
 66
     1
  0
VERTEX
  8
0
  6
CONTINUOUS
 62
     2
 10
431.89
 20
303.66
  0
VERTEX
  8
0
  6
CONTINUOUS
 62
     2
 10
15.0
 20
303.66
  0
VERTEX
  8
0
  6
CONTINUOUS
 62
     2
 10
15.0
 20
10.0
  0
SEQEND
  0
POLYLINE
  8
0
  6
CONTINUOUS
 62
     2
 66
     1
  0
VERTEX
  8
0
  6
CONTINUOUS
 62
     2
 10
15.0
 20
10.0
  0
VERTEX
  8
0
  6
CONTINUOUS
 62
     2
 10
431.89
 20
10.0
  0
VERTEX
  8
0
  6
CONTINUOUS
 62
     2
 10
431.89
 20
303.66
  0
SEQEND
  0
LINE
  8
0
  6
CONTINUOUS
 62
     2
 10
338.51
 20
18.004
 11
431.89
 21
18.004
  0
LINE
  8
0
  6
CONTINUOUS
 62
     2
 10
431.89
 20
26.008
 11
338.51
 21
26.008
  0
LINE
  8
0
  6
CONTINUOUS
 62
     2
 10
338.51
 20
34.012
 11
431.89
 21
34.012
  0
LINE
  8
0
  6
CONTINUOUS
 62
     2
 10
431.89
 20
42.016
 11
338.51
 21
42.016
  0
LINE
  8
0
  6
CONTINUOUS
 62
     2
 10
338.51
 20
50.02
 11
431.89
 21
50.02
  0
LINE
  8
0
  6
CONTINUOUS
 62
     2
 10
431.89
 20
58.024
 11
338.51
 21
58.024
  0
LINE
  8
0
  6
CONTINUOUS
 62
     2
 10
338.51
 20
58.024
 11
338.51
 21
10.0
  0
TEXT
  8
0
  6
CONTINUOUS
 62
     2
 10
341.845
 20
36.013
 30
0.4002
 40
4.002
  1
黒色半艶消し焼付け塗装
 50
0.0
 41
0.9
 51
0.0
  7
KANJI0
  0
CIRCLE
  8
0
  6
CONTINUOUS
 62
     2
 10
333.7
 20
165.2
 40
20.0
  0
LINE
  8
0
  6
CONTINUOUS
 62
     2
 10
293.7
 20
160.2
 11
293.7
 21
227.2
  0
LINE
  8
0
  6
CONTINUOUS
 62
     2
 10
293.7
 20
226.2
 11
295.148888739
 21
225.811771432
  0
LINE
  8
0
  6
CONTINUOUS
 62
     2
 10
293.7
 20
226.2
 11
295.148888739
 21
226.588228568
  0
LINE
  8
0
  6
CONTINUOUS
 62
     2
 10
293.7
 20
226.2
 11
373.7
 21
226.2
  0
LINE
  8
0
  6
CONTINUOUS
 62
     2
 10
373.7
 20
226.2
 11
372.251111261
 21
226.588228568
  0
LINE
  8
0
  6
CONTINUOUS
 62
     2
 10
373.7
 20
226.2
 11
372.251111261
 21
225.811771432
  0
LINE
  8
0
  6
CONTINUOUS
 62
     2
 10
373.7
 20
160.2
 11
373.7
 21
227.2
  0
TEXT
  8
0
  6
CONTINUOUS
 62
     2
 10
331.7
 20
227.2
 30
0.0
 40
3.0
  1
８０
 50
0.0
 41
0.666666667
 51
0.0
  7
KANJI1
  0
CIRCLE
  8
0
  6
CONTINUOUS
 62
     2
 10
333.7
 20
165.2
 40
6.0
  0
CIRCLE
  8
0
  6
CONTINUOUS
 62
     2
 10
324.7
 20
165.2
 40
0.8
  0
CIRCLE
  8
0
  6
CONTINUOUS
 62
     2
 10
338.2
 20
157.405771366
 40
0.8
  0
CIRCLE
  8
0
  6
CONTINUOUS
 62
     2
 10
338.2
 20
172.994228634
 40
0.8
  0
LINE
  8
0
  6
CONTINUOUS
 62
     2
 10
328.7
 20
125.2
 11
338.7
 21
125.2
  0
LINE
  8
0
  6
CONTINUOUS
 62
     2
 10
338.7
 20
205.2
 11
328.7
 21
205.2
  0
LINE
  8
0
  6
CONTINUOUS
 62
     2
 10
333.7
 20
205.2
 11
399.7
 21
205.2
  0
LINE
  8
0
  6
CONTINUOUS
 62
     2
 10
398.7
 20
205.2
 11
398.311771432
 21
203.751111261
  0
LINE
  8
0
  6
CONTINUOUS
 62
     2
 10
398.7
 20
205.2
 11
399.088228568
 21
203.751111261
  0
LINE
  8
0
  6
CONTINUOUS
 62
     2
 10
398.7
 20
205.2
 11
398.7
 21
125.2
  0
LINE
  8
0
  6
CONTINUOUS
 62
     2
 10
398.7
 20
125.2
 11
399.088228568
 21
126.648888739
  0
LINE
  8
0
  6
CONTINUOUS
 62
     2
 10
398.7
 20
125.2
 11
398.311771432
 21
126.648888739
  0
LINE
  8
0
  6
CONTINUOUS
 62
     2
 10
333.7
 20
125.2
 11
399.7
 21
125.2
  0
TEXT
  8
0
  6
CONTINUOUS
 62
     2
 10
397.7
 20
163.2
 30
0.0
 40
3.0
  1
８０
 50
90.0
 41
0.666666667
 51
0.0
  7
KANJI1
  0
CIRCLE
  8
0
  6
CONTINUOUS
 62
     1
 10
333.7
 20
165.2
 40
51.0
  0
CIRCLE
  8
0
  6
CONTINUOUS
 62
     2
 10
333.7
 20
165.2
 40
30.0
  0
CIRCLE
  8
0
  6
CONTINUOUS
 62
     1
 10
293.7
 20
165.2
 40
3.6
  0
CIRCLE
  8
0
  6
CONTINUOUS
 62
     1
 10
333.7
 20
125.2
 40
3.6
  0
CIRCLE
  8
0
  6
CONTINUOUS
 62
     1
 10
373.7
 20
165.2
 40
3.6
  0
CIRCLE
  8
0
  6
CONTINUOUS
 62
     1
 10
333.7
 20
205.2
 40
3.6
  0
LINE
  8
0
  6
CONTINUOUS
 62
     2
 10
336.7
 20
122.2
 11
337.45
 21
120.900961894
  0
LINE
  8
0
  6
CONTINUOUS
 62
     2
 10
336.7
 20
122.2
 11
337.999038106
 21
121.45
  0
LINE
  8
0
  6
CONTINUOUS
 62
     2
 10
336.7
 20
122.2
 11
351.7
 21
107.2
  0
LINE
  8
0
  6
CONTINUOUS
 62
     2
 10
351.7
 20
107.2
 11
364.0
 21
107.2
  0
ARC
  8
0
  6
CONTINUOUS
 62
     1
 10
91.7
 20
131.2
 40
6.0
 50
270.0
 51
0.0
  0
LINE
  8
0
  6
CONTINUOUS
 62
     1
 10
97.7
 20
131.2
 11
97.7
 21
199.2
  0
ARC
  8
0
  6
CONTINUOUS
 62
     1
 10
91.7
 20
199.2
 40
6.0
 50
0.0
 51
90.0
  0
LINE
  8
0
  6
CONTINUOUS
 62
     1
 10
91.7
 20
205.2
 11
75.7
 21
205.2
  0
ARC
  8
0
  6
CONTINUOUS
 62
     1
 10
75.7
 20
199.2
 40
6.0
 50
90.0
 51
180.0
  0
LINE
  8
0
  6
CONTINUOUS
 62
     1
 10
69.7
 20
199.2
 11
69.7
 21
131.2
  0
ARC
  8
0
  6
CONTINUOUS
 62
     1
 10
75.7
 20
131.2
 40
6.0
 50
180.0
 51
270.0
  0
LINE
  8
0
  6
CONTINUOUS
 62
     1
 10
75.7
 20
125.2
 11
91.7
 21
125.2
  0
LINE
  8
0
  6
CONTINUOUS
 62
     2
 10
71.6
 20
125.2
 11
45.7
 21
125.2
  0
LINE
  8
0
  6
CONTINUOUS
 62
     2
 10
46.7
 20
125.2
 11
47.088228568
 21
126.648888739
  0
LINE
  8
0
  6
CONTINUOUS
 62
     2
 10
46.7
 20
125.2
 11
46.311771432
 21
126.648888739
  0
LINE
  8
0
  6
CONTINUOUS
 62
     2
 10
46.7
 20
125.2
 11
46.7
 21
205.2
  0
LINE
  8
0
  6
CONTINUOUS
 62
     2
 10
46.7
 20
205.2
 11
46.311771432
 21
203.751111261
  0
LINE
  8
0
  6
CONTINUOUS
 62
     2
 10
46.7
 20
205.2
 11
47.088228568
 21
203.751111261
  0
LINE
  8
0
  6
CONTINUOUS
 62
     2
 10
71.6
 20
205.2
 11
45.7
 21
205.2
  0
TEXT
  8
0
  6
CONTINUOUS
 62
     2
 10
45.7
 20
163.2
 30
0.0
 40
3.0
  1
８０
 50
90.0
 41
0.666666667
 51
0.0
  7
KANJI1
  0
LINE
  8
0
  6
CONTINUOUS
 62
     2
 10
97.7
 20
204.2
 11
97.7
 21
225.95
  0
LINE
  8
0
  6
CONTINUOUS
 62
     2
 10
97.7
 20
224.95
 11
96.251111261
 21
225.338228568
  0
LINE
  8
0
  6
CONTINUOUS
 62
     2
 10
97.7
 20
224.95
 11
96.251111261
 21
224.561771432
  0
LINE
  8
0
  6
CONTINUOUS
 62
     2
 10
97.7
 20
224.95
 11
69.7
 21
224.95
  0
LINE
  8
0
  6
CONTINUOUS
 62
     2
 10
69.7
 20
224.95
 11
71.148888739
 21
224.561771432
  0
LINE
  8
0
  6
CONTINUOUS
 62
     2
 10
69.7
 20
224.95
 11
71.148888739
 21
225.338228568
  0
LINE
  8
0
  6
CONTINUOUS
 62
     2
 10
69.7
 20
204.2
 11
69.7
 21
225.95
  0
TEXT
  8
0
  6
CONTINUOUS
 62
     2
 10
81.7
 20
225.95
 30
0.0
 40
3.0
  1
２８
 50
0.0
 41
0.666666667
 51
0.0
  7
KANJI1
  0
LINE
  8
0
  6
CONTINUOUS
 62
     2
 10
97.6
 20
177.7
 11
69.6
 21
177.7
  0
LINE
  8
0
  6
CONTINUOUS
 62
     2
 10
69.6
 20
181.7
 11
97.6
 21
181.7
  0
LINE
  8
0
  6
CONTINUOUS
 62
     2
 10
97.6
 20
152.7
 11
69.6
 21
152.7
  0
LINE
  8
0
  6
CONTINUOUS
 62
     2
 10
69.6
 20
148.7
 11
97.6
 21
148.7
  0
LINE
  8
0
  6
CONTINUOUS
 62
     2
 10
87.7
 20
132.7
 11
53.7
 21
132.7
  0
LINE
  8
0
  6
CONTINUOUS
 62
     2
 10
87.7
 20
197.7
 11
53.7
 21
197.7
  0
LINE
  8
0
  6
CONTINUOUS
 62
     2
 10
62.7
 20
195.2
 11
62.311771432
 21
193.751111261
  0
LINE
  8
0
  6
CONTINUOUS
 62
     2
 10
62.7
 20
195.2
 11
63.088228568
 21
193.751111261
  0
POLYLINE
  8
0
  6
CONTINUOUS
 62
     2
 66
     1
  0
VERTEX
  8
0
  6
CONTINUOUS
 62
     2
 10
62.7
 20
195.2
  0
VERTEX
  8
0
  6
CONTINUOUS
 62
     2
 10
62.7
 20
135.2
  0
VERTEX
  8
0
  6
CONTINUOUS
 62
     2
 10
63.088228568
 20
136.648888739
  0
SEQEND
  0
LINE
  8
0
  6
CONTINUOUS
 62
     2
 10
62.7
 20
135.2
 11
62.311771432
 21
136.648888739
  0
TEXT
  8
0
  6
CONTINUOUS
 62
     2
 10
61.7
 20
163.2
 30
0.0
 40
3.0
  1
６０
 50
90.0
 41
0.666666667
 51
0.0
  7
KANJI1
  0
LINE
  8
0
  6
CONTINUOUS
 62
     2
 10
87.7
 20
195.2
 11
61.7
 21
195.2
  0
LINE
  8
0
  6
CONTINUOUS
 62
     2
 10
87.7
 20
135.2
 11
61.7
 21
135.2
  0
LINE
  8
0
  6
CONTINUOUS
 62
     2
 10
54.7
 20
132.7
 11
55.088228568
 21
134.148888739
  0
LINE
  8
0
  6
CONTINUOUS
 62
     2
 10
54.7
 20
132.7
 11
54.311771432
 21
134.148888739
  0
POLYLINE
  8
0
  6
CONTINUOUS
 62
     2
 66
     1
  0
VERTEX
  8
0
  6
CONTINUOUS
 62
     2
 10
54.7
 20
132.7
  0
VERTEX
  8
0
  6
CONTINUOUS
 62
     2
 10
54.7
 20
197.7
  0
VERTEX
  8
0
  6
CONTINUOUS
 62
     2
 10
54.311771432
 20
196.251111261
  0
SEQEND
  0
LINE
  8
0
  6
CONTINUOUS
 62
     2
 10
54.7
 20
197.7
 11
55.088228568
 21
196.251111261
  0
TEXT
  8
0
  6
CONTINUOUS
 62
     2
 10
53.7
 20
163.2
 30
0.0
 40
3.0
  1
６５
 50
90.0
 41
0.666666667
 51
0.0
  7
KANJI1
  0
ARC
  8
0
  6
LTYPE1
 62
     2
 10
83.7
 20
165.2
 40
4.0
 50
51.317812546
 51
308.682187454
  0
ARC
  8
0
  6
CONTINUOUS
 62
     2
 10
83.7
 20
165.2
 40
6.0
 50
41.409622109
 51
318.590377891
  0
LINE
  8
0
  6
LTYPE1
 62
     2
 10
86.2
 20
168.322498999
 11
86.2
 21
162.077501001
  0
LINE
  8
0
  6
CONTINUOUS
 62
     2
 10
88.2
 20
169.168626967
 11
88.2
 21
161.231373033
  0
ARC
  8
0
  6
CONTINUOUS
 62
     1
 10
83.7
 20
135.2
 40
3.1
 50
0.0
 51
180.0
  0
ARC
  8
0
  6
CONTINUOUS
 62
     1
 10
83.7
 20
132.7
 40
3.1
 50
180.0
 51
0.0
  0
LINE
  8
0
  6
CONTINUOUS
 62
     1
 10
80.6
 20
132.699998093
 11
80.6
 21
135.199998093
  0
LINE
  8
0
  6
CONTINUOUS
 62
     1
 10
86.8
 20
135.199998093
 11
86.8
 21
132.699998093
  0
ARC
  8
0
  6
CONTINUOUS
 62
     1
 10
83.7
 20
195.2
 40
3.1
 50
180.0
 51
0.0
  0
ARC
  8
0
  6
CONTINUOUS
 62
     1
 10
83.7
 20
197.7
 40
3.1
 50
0.0
 51
180.0
  0
LINE
  8
0
  6
CONTINUOUS
 62
     1
 10
80.6
 20
197.7
 11
80.6
 21
195.2
  0
LINE
  8
0
  6
CONTINUOUS
 62
     1
 10
86.8
 20
195.2
 11
86.8
 21
197.7
  0
LINE
  8
0
  6
CONTINUOUS
 62
     2
 10
80.6
 20
199.7
 11
80.6
 21
217.95
  0
LINE
  8
0
  6
CONTINUOUS
 62
     2
 10
80.6
 20
216.95
 11
82.048888739
 21
216.561771432
  0
LINE
  8
0
  6
CONTINUOUS
 62
     2
 10
80.6
 20
216.95
 11
82.048888739
 21
217.338228568
  0
LINE
  8
0
  6
CONTINUOUS
 62
     2
 10
80.6
 20
216.95
 11
86.8
 21
216.95
  0
LINE
  8
0
  6
CONTINUOUS
 62
     2
 10
86.8
 20
216.95
 11
85.351111261
 21
217.338228568
  0
LINE
  8
0
  6
CONTINUOUS
 62
     2
 10
86.8
 20
216.95
 11
85.351111261
 21
216.561771432
  0
LINE
  8
0
  6
CONTINUOUS
 62
     2
 10
86.8
 20
199.7
 11
86.8
 21
217.95
  0
TEXT
  8
0
  6
CONTINUOUS
 62
     2
 10
80.7
 20
217.95
 30
0.0
 40
3.0
  1
６．２
 50
0.0
 41
0.666666667
 51
0.0
  7
KANJI1
  0
LINE
  8
0
  6
CONTINUOUS
 62
     2
 10
85.7
 20
192.1
 11
109.7
 21
192.1
  0
LINE
  8
0
  6
CONTINUOUS
 62
     2
 10
108.7
 20
192.1
 11
109.088228568
 21
193.548888739
  0
LINE
  8
0
  6
CONTINUOUS
 62
     2
 10
108.7
 20
192.1
 11
108.311771432
 21
193.548888739
  0
LINE
  8
0
  6
CONTINUOUS
 62
     2
 10
108.7
 20
192.1
 11
108.7
 21
200.8
  0
LINE
  8
0
  6
CONTINUOUS
 62
     2
 10
108.7
 20
200.8
 11
108.311771432
 21
199.351111261
  0
LINE
  8
0
  6
CONTINUOUS
 62
     2
 10
108.7
 20
200.8
 11
109.088228568
 21
199.351111261
  0
LINE
  8
0
  6
CONTINUOUS
 62
     2
 10
85.7
 20
200.8
 11
109.7
 21
200.8
  0
TEXT
  8
0
  6
CONTINUOUS
 62
     2
 10
107.7
 20
193.45
 30
0.0
 40
3.0
  1
８．７
 50
90.0
 41
0.666666667
 51
0.0
  7
KANJI1
  0
LINE
  8
0
  6
CONTINUOUS
 62
     2
 10
79.557864376
 20
135.2
 11
79.557864376
 21
136.2
  0
CIRCLE
  8
0
  6
LTYPE1
 62
     2
 10
333.7
 20
165.2
 40
4.0
  0
CIRCLE
  8
0
  6
LTYPE1
 62
     2
 10
333.7
 20
165.2
 40
10.0
  0
POLYLINE
  8
0
  6
CONTINUOUS
 62
     1
 66
     1
  0
VERTEX
  8
0
  6
CONTINUOUS
 62
     1
 10
126.7
 20
125.2
  0
VERTEX
  8
0
  6
CONTINUOUS
 62
     1
 10
128.7
 20
125.2
  0
VERTEX
  8
0
  6
CONTINUOUS
 62
     1
 10
128.7
 20
148.658548116
  0
SEQEND
  0
LINE
  8
0
  6
CONTINUOUS
 62
     1
 10
131.7
 20
152.7
 11
127.7
 21
150.390598923
  0
LINE
  8
0
  6
CONTINUOUS
 62
     1
 10
126.7
 20
148.658548116
 11
126.7
 21
125.2
  0
ARC
  8
0
  6
CONTINUOUS
 62
     1
 10
128.7
 20
148.658548116
 40
2.0
 50
120.0
 51
180.0
  0
LINE
  8
0
  6
CONTINUOUS
 62
     1
 10
128.7
 20
148.658548116
 11
132.7
 21
150.967949192
  0
LINE
  8
0
  6
CONTINUOUS
 62
     1
 10
131.7
 20
165.2
 11
131.7
 21
152.7
  0
ARC
  8
0
  6
CONTINUOUS
 62
     1
 10
131.7
 20
152.7
 40
2.0
 50
300.0
 51
0.0
  0
LINE
  8
0
  6
CONTINUOUS
 62
     1
 10
133.7
 20
165.2
 11
133.7
 21
152.7
  0
LINE
  8
0
  6
CONTINUOUS
 62
     1
 10
131.7
 20
159.7
 11
130.7
 21
159.7
  0
LINE
  8
0
  6
CONTINUOUS
 62
     1
 10
130.7
 20
159.7
 11
130.2
 21
165.2
  0
LINE
  8
0
  6
CONTINUOUS
 62
     1
 10
131.7
 20
170.7
 11
130.7
 21
170.7
  0
LINE
  8
0
  6
CONTINUOUS
 62
     1
 10
130.7
 20
170.7
 11
130.2
 21
165.2
  0
LINE
  8
0
  6
CONTINUOUS
 62
     1
 10
126.7
 20
205.2
 11
128.7
 21
205.2
  0
LINE
  8
0
  6
CONTINUOUS
 62
     1
 10
128.7
 20
205.2
 11
128.7
 21
181.741451884
  0
LINE
  8
0
  6
CONTINUOUS
 62
     1
 10
131.7
 20
177.7
 11
127.7
 21
180.009401077
  0
LINE
  8
0
  6
CONTINUOUS
 62
     1
 10
126.7
 20
181.741451884
 11
126.7
 21
205.2
  0
ARC
  8
0
  6
CONTINUOUS
 62
     1
 10
128.7
 20
181.741451884
 40
2.0
 50
180.0
 51
240.0
  0
LINE
  8
0
  6
CONTINUOUS
 62
     1
 10
128.7
 20
181.741451884
 11
132.7
 21
179.432050808
  0
LINE
  8
0
  6
CONTINUOUS
 62
     1
 10
131.7
 20
165.2
 11
131.7
 21
177.7
  0
ARC
  8
0
  6
CONTINUOUS
 62
     1
 10
131.7
 20
177.7
 40
2.0
 50
0.0
 51
60.0
  0
LINE
  8
0
  6
CONTINUOUS
 62
     1
 10
133.7
 20
165.2
 11
133.7
 21
177.7
  0
LINE
  8
0
  6
CONTINUOUS
 62
     2
 10
248.842135624
 20
216.2
 11
262.842135624
 21
216.2
  0
LINE
  8
0
  6
CONTINUOUS
 62
     2
 10
248.842135624
 20
114.2
 11
262.842135624
 21
114.2
  0
TEXT
  8
0
  6
CONTINUOUS
 62
     2
 10
260.842135624
 20
161.2
 30
0.0
 40
3.0
  1
φ１０２
 50
90.0
 41
0.666666667
 51
0.0
  7
KANJI1
  0
LINE
  8
0
  6
CONTINUOUS
 62
     1
 10
238.156922767
 20
143.556516071
 11
244.842135624
 21
135.2
  0
ARC
  8
0
  6
CONTINUOUS
 62
     1
 10
242.842135624
 20
147.304686356
 40
6.0
 50
180.0
 51
218.659808254
  0
LINE
  8
0
  6
CONTINUOUS
 62
     1
 10
246.842135624
 20
165.2
 11
246.842135624
 21
114.2
  0
LINE
  8
0
  6
CONTINUOUS
 62
     1
 10
246.842135624
 20
114.2
 11
244.842135624
 21
114.2
  0
LINE
  8
0
  6
CONTINUOUS
 62
     1
 10
246.842135624
 20
216.2
 11
244.842135624
 21
216.2
  0
LINE
  8
0
  6
CONTINUOUS
 62
     1
 10
244.842135624
 20
195.2
 11
237.203831535
 21
184.291371241
  0
LINE
  8
0
  6
CONTINUOUS
 62
     1
 10
246.842135624
 20
195.2
 11
246.842135624
 21
216.2
  0
LINE
  8
0
  6
CONTINUOUS
 62
     1
 10
246.842135624
 20
165.2
 11
246.842135624
 21
195.658489899
  0
LINE
  8
0
  6
CONTINUOUS
 62
     2
 10
261.842135624
 20
216.2
 11
261.453907056
 21
214.751111261
  0
LINE
  8
0
  6
CONTINUOUS
 62
     2
 10
261.842135624
 20
216.2
 11
262.230364191
 21
214.751111261
  0
POLYLINE
  8
0
  6
CONTINUOUS
 62
     2
 66
     1
  0
VERTEX
  8
0
  6
CONTINUOUS
 62
     2
 10
261.842135624
 20
216.2
  0
VERTEX
  8
0
  6
CONTINUOUS
 62
     2
 10
261.842135624
 20
114.2
  0
VERTEX
  8
0
  6
CONTINUOUS
 62
     2
 10
262.230364191
 20
115.648888739
  0
SEQEND
  0
LINE
  8
0
  6
CONTINUOUS
 62
     2
 10
261.842135624
 20
114.2
 11
261.453907056
 21
115.648888739
  0
LINE
  8
0
  6
CONTINUOUS
 62
     1
 10
226.842135624
 20
155.2
 11
236.842135624
 21
155.2
  0
LINE
  8
0
  6
CONTINUOUS
 62
     1
 10
226.842135624
 20
175.2
 11
236.842135624
 21
175.2
  0
LINE
  8
0
  6
CONTINUOUS
 62
     1
 10
226.842135624
 20
155.2
 11
224.842135624
 21
157.2
  0
LINE
  8
0
  6
CONTINUOUS
 62
     1
 10
226.842135624
 20
175.2
 11
224.842135624
 21
173.2
  0
LINE
  8
0
  6
CONTINUOUS
 62
     2
 10
126.7
 20
208.2
 11
126.7
 21
246.2
  0
LINE
  8
0
  6
CONTINUOUS
 62
     2
 10
126.7
 20
245.2
 11
128.148888739
 21
244.811771432
  0
LINE
  8
0
  6
CONTINUOUS
 62
     2
 10
126.7
 20
245.2
 11
128.148888739
 21
245.588228568
  0
LINE
  8
0
  6
CONTINUOUS
 62
     2
 10
126.7
 20
245.2
 11
246.842135624
 21
245.2
  0
LINE
  8
0
  6
CONTINUOUS
 62
     2
 10
246.842135624
 20
245.2
 11
245.393246884
 21
245.588228568
  0
LINE
  8
0
  6
CONTINUOUS
 62
     2
 10
246.842135624
 20
245.2
 11
245.393246884
 21
244.811771432
  0
LINE
  8
0
  6
CONTINUOUS
 62
     2
 10
246.842135624
 20
219.2
 11
246.842135624
 21
246.2
  0
TEXT
  8
0
  6
CONTINUOUS
 62
     2
 10
181.371067812
 20
246.2
 30
0.0
 40
3.0
  1
１２０
 50
0.0
 41
0.666666667
 51
0.0
  7
KANJI1
  0
LINE
  8
0
  6
CONTINUOUS
 62
     2
 10
172.2
 20
182.4
 11
167.2
 21
182.4
  0
LINE
  8
0
  6
CONTINUOUS
 62
     2
 10
167.2
 20
182.4
 11
166.7
 21
181.9
  0
LINE
  8
0
  6
CONTINUOUS
 62
     2
 10
166.7
 20
181.9
 11
172.7
 21
181.9
  0
LINE
  8
0
  6
CONTINUOUS
 62
     2
 10
172.7
 20
181.9
 11
172.2
 21
182.4
  0
ARC
  8
0
  6
CONTINUOUS
 62
     1
 10
150.2
 20
159.7
 40
0.5
 50
90.0
 51
180.0
  0
ARC
  8
0
  6
CONTINUOUS
 62
     1
 10
150.2
 20
159.7
 40
0.5
 50
90.0
 51
180.0
  0
LINE
  8
0
  6
CONTINUOUS
 62
     1
 10
150.2
 20
160.2
 11
156.7
 21
160.2
  0
ARC
  8
0
  6
CONTINUOUS
 62
     1
 10
156.7
 20
165.2
 40
10.0
 50
211.788330617
 51
225.0
  0
LINE
  8
0
  6
CONTINUOUS
 62
     1
 10
148.2
 20
159.932173124
 11
148.2
 21
170.467608032
  0
LINE
  8
0
  6
CONTINUOUS
 62
     1
 10
181.7
 20
175.2
 11
182.842135624
 21
175.2
  0
LINE
  8
0
  6
CONTINUOUS
 62
     1
 10
184.842135624
 20
157.2
 11
182.842135624
 21
155.2
  0
LINE
  8
0
  6
CONTINUOUS
 62
     1
 10
182.842135624
 20
155.2
 11
181.692135624
 21
155.2
  0
LINE
  8
0
  6
CONTINUOUS
 62
     1
 10
224.842135624
 20
173.2
 11
184.842135624
 21
173.2
  0
LINE
  8
0
  6
CONTINUOUS
 62
     1
 10
224.842135624
 20
157.2
 11
184.842135624
 21
157.2
  0
POLYLINE
  8
0
  6
CONTINUOUS
 62
     1
 66
     1
  0
VERTEX
  8
0
  6
CONTINUOUS
 62
     1
 10
133.7
 20
173.2
  0
VERTEX
  8
0
  6
CONTINUOUS
 62
     1
 10
135.2
 20
173.2
  0
VERTEX
  8
0
  6
CONTINUOUS
 62
     1
 10
137.2
 20
171.2
  0
VERTEX
  8
0
  6
CONTINUOUS
 62
     1
 10
137.2
 20
159.2
  0
VERTEX
  8
0
  6
CONTINUOUS
 62
     1
 10
135.2
 20
157.2
  0
VERTEX
  8
0
  6
CONTINUOUS
 62
     1
 10
133.7
 20
157.2
  0
SEQEND
  0
LINE
  8
0
  6
CONTINUOUS
 62
     1
 10
135.2
 20
157.2
 11
135.2
 21
173.2
  0
LINE
  8
0
  6
CONTINUOUS
 62
     1
 10
148.2
 20
160.7
 11
137.2
 21
160.7
  0
LINE
  8
0
  6
CONTINUOUS
 62
     1
 10
148.2
 20
169.7
 11
137.2
 21
169.7
  0
LINE
  8
0
  6
CONTINUOUS
 62
     2
 10
246.842135624
 20
235.2
 11
245.393246884
 21
235.588228568
  0
LINE
  8
0
  6
CONTINUOUS
 62
     2
 10
246.842135624
 20
235.2
 11
245.393246884
 21
234.811771432
  0
POLYLINE
  8
0
  6
CONTINUOUS
 62
     2
 66
     1
  0
VERTEX
  8
0
  6
CONTINUOUS
 62
     2
 10
246.842135624
 20
235.2
  0
VERTEX
  8
0
  6
CONTINUOUS
 62
     2
 10
156.7
 20
235.2
  0
VERTEX
  8
0
  6
CONTINUOUS
 62
     2
 10
158.148888739
 20
234.811771432
  0
SEQEND
  0
LINE
  8
0
  6
CONTINUOUS
 62
     2
 10
156.7
 20
235.2
 11
158.148888739
 21
235.588228568
  0
TEXT
  8
0
  6
CONTINUOUS
 62
     2
 10
197.371067812
 20
236.2
 30
0.0
 40
3.0
  1
９０
 50
0.0
 41
0.666666667
 51
0.0
  7
KANJI1
  0
LINE
  8
0
  6
CONTINUOUS
 62
     2
 10
156.7
 20
235.2
 11
155.251111261
 21
235.588228568
  0
LINE
  8
0
  6
CONTINUOUS
 62
     2
 10
156.7
 20
235.2
 11
155.251111261
 21
234.811771432
  0
POLYLINE
  8
0
  6
CONTINUOUS
 62
     2
 66
     1
  0
VERTEX
  8
0
  6
CONTINUOUS
 62
     2
 10
156.7
 20
235.2
  0
VERTEX
  8
0
  6
CONTINUOUS
 62
     2
 10
126.7
 20
235.2
  0
VERTEX
  8
0
  6
CONTINUOUS
 62
     2
 10
128.148888739
 20
234.811771432
  0
SEQEND
  0
LINE
  8
0
  6
CONTINUOUS
 62
     2
 10
126.7
 20
235.2
 11
128.148888739
 21
235.588228568
  0
TEXT
  8
0
  6
CONTINUOUS
 62
     2
 10
137.3
 20
236.2
 30
0.0
 40
3.0
  1
３０
 50
0.0
 41
0.666666667
 51
0.0
  7
KANJI1
  0
ARC
  8
0
  6
CONTINUOUS
 62
     1
 10
150.7
 20
177.57
 40
1.0
 50
111.524578218
 51
180.0
  0
ARC
  8
0
  6
CONTINUOUS
 62
     1
 10
150.7
 20
152.83
 40
1.0
 50
180.0
 51
248.475421782
  0
ARC
  8
0
  6
CONTINUOUS
 62
     1
 10
165.7
 20
187.2
 40
38.5
 50
246.475556529
 51
293.631079532
  0
ARC
  8
0
  6
CONTINUOUS
 62
     1
 10
180.7
 20
152.83
 40
1.0
 50
295.630944781
 51
0.0
  0
LINE
  8
0
  6
CONTINUOUS
 62
     1
 10
149.7
 20
159.7
 11
149.7
 21
152.83
  0
LINE
  8
0
  6
LTYPE2
 62
     2
 10
83.7
 20
119.2
 11
83.7
 21
209.2
  0
LINE
  8
0
  6
LTYPE2
 62
     2
 10
103.7
 20
165.2
 11
63.7
 21
165.2
  0
LINE
  8
0
  6
LTYPE2
 62
     2
 10
113.842135624
 20
165.2
 11
243.142135624
 21
165.2
  0
LINE
  8
0
  6
LTYPE2
 62
     2
 10
156.7
 20
162.2
 11
156.7
 21
236.2
  0
LINE
  8
0
  6
LTYPE2
 62
     2
 10
388.7
 20
165.2
 11
278.7
 21
165.2
  0
LINE
  8
0
  6
LTYPE2
 62
     2
 10
333.7
 20
220.2
 11
333.7
 21
110.2
  0
LINE
  8
0
  6
CONTINUOUS
 62
     2
 10
172.7
 20
181.058288392
 11
172.7
 21
181.9
  0
LINE
  8
0
  6
CONTINUOUS
 62
     2
 10
172.2
 20
182.4
 11
172.2
 21
181.147331922
  0
LINE
  8
0
  6
CONTINUOUS
 62
     2
 10
167.2
 20
181.670768123
 11
167.2
 21
182.4
  0
LINE
  8
0
  6
CONTINUOUS
 62
     2
 10
166.7
 20
181.9
 11
166.7
 21
181.687010796
  0
ARC
  8
0
  6
CONTINUOUS
 62
     1
 10
165.7
 20
143.2
 40
38.5
 50
66.368920468
 51
113.524443471
  0
ARC
  8
0
  6
CONTINUOUS
 62
     1
 10
150.2
 20
170.7
 40
0.5
 50
180.0
 51
270.0
  0
LINE
  8
0
  6
CONTINUOUS
 62
     1
 10
150.2
 20
170.2
 11
156.7
 21
170.2
  0
LINE
  8
0
  6
CONTINUOUS
 62
     1
 10
149.7
 20
170.700001907
 11
149.7
 21
177.57
  0
ARC
  8
0
  6
CONTINUOUS
 62
     1
 10
150.2
 20
170.7
 40
0.5
 50
179.999781434
 51
270.0
  0
ARC
  8
0
  6
CONTINUOUS
 62
     1
 10
156.7
 20
165.2
 40
5.0
 50
269.999977967
 51
90.000022033
  0
ARC
  8
0
  6
CONTINUOUS
 62
     1
 10
156.700135624
 20
165.2
 40
10.0
 50
134.428092122
 51
148.213144532
  0
ARC
  8
0
  6
LTYPE3
 62
     2
 10
156.700135624
 20
165.2
 40
10.0
 50
18.194872339
 51
134.428092122
  0
ARC
  8
0
  6
LTYPE3
 62
     2
 10
156.700135624
 20
165.2
 40
10.0
 50
224.999450536
 51
341.805127661
  0
LINE
  8
0
  6
LTYPE3
 62
     2
 10
166.200135624
 20
162.077501001
 11
166.200135624
 21
168.322498999
  0
CIRCLE
  8
0
  6
CONTINUOUS
 62
     2
 10
169.7
 20
165.2
 40
3.3
  0
CIRCLE
  8
0
  6
CONTINUOUS
 62
     2
 10
169.7
 20
165.2
 40
4.0
  0
CIRCLE
  8
0
  6
CONTINUOUS
 62
     2
 10
169.7
 20
165.2
 40
0.7
  0
ARC
  8
0
  6
CONTINUOUS
 62
     2
 10
169.866256791
 20
167.204885895
 40
0.734326312
 50
338.26298996
 51
343.811116723
  0
ARC
  8
0
  6
CONTINUOUS
 62
     2
 10
169.851746052
 20
167.210553393
 40
0.749904192
 50
332.799702212
 51
338.271356518
  0
ARC
  8
0
  6
CONTINUOUS
 62
     2
 10
169.834829283
 20
167.219091551
 40
0.768853029
 50
327.428181974
 51
332.810041363
  0
ARC
  8
0
  6
CONTINUOUS
 62
     2
 10
169.816363668
 20
167.230694468
 40
0.790660843
 50
322.157240843
 51
327.440001251
  0
ARC
  8
0
  6
CONTINUOUS
 62
     2
 10
169.797253507
 20
167.245310403
 40
0.814718934
 50
316.991618727
 51
322.170029818
  0
ARC
  8
0
  6
CONTINUOUS
 62
     2
 10
169.778390494
 20
167.262639827
 40
0.840333101
 50
311.932209135
 51
317.004870046
  0
ARC
  8
0
  6
CONTINUOUS
 62
     2
 10
169.760595395
 20
167.282150523
 40
0.866739423
 50
306.976466819
 51
311.945454989
  0
ARC
  8
0
  6
CONTINUOUS
 62
     2
 10
169.744565047
 20
167.303109319
 40
0.893125108
 50
302.118887671
 51
306.989292331
  0
ARC
  8
0
  6
CONTINUOUS
 62
     2
 10
169.730828383
 20
167.32462792
 40
0.918653717
 50
297.351517354
 51
302.130941152
  0
ARC
  8
0
  6
CONTINUOUS
 62
     2
 10
169.719714402
 20
167.34572003
 40
0.942494142
 50
292.664432935
 51
297.362505591
  0
ARC
  8
0
  6
CONTINUOUS
 62
     2
 10
169.711333989
 20
167.365365776
 40
0.963852059
 50
288.046193354
 51
292.674128115
  0
ARC
  8
0
  6
CONTINUOUS
 62
     2
 10
169.705577632
 20
167.382578522
 40
0.982001296
 50
283.484209132
 51
288.054417625
  0
ARC
  8
0
  6
CONTINUOUS
 62
     2
 10
169.702128149
 20
167.396470453
 40
0.996314632
 50
278.965061722
 51
283.490828929
  0
ARC
  8
0
  6
CONTINUOUS
 62
     2
 10
169.700488113
 20
167.406311492
 40
1.006291022
 50
274.474768152
 51
278.969984002
  0
ARC
  8
0
  6
CONTINUOUS
 62
     2
 10
169.700020013
 20
167.411577929
 40
1.011577929
 50
269.99899085
 51
274.477927848
  0
ARC
  8
0
  6
CONTINUOUS
 62
     2
 10
169.699995992
 20
167.411987497
 40
1.011987497
 50
265.523227717
 51
270.000351238
  0
ARC
  8
0
  6
CONTINUOUS
 62
     2
 10
169.699654124
 20
167.407518231
 40
1.007505182
 50
261.032975085
 51
265.522771469
  0
ARC
  8
0
  6
CONTINUOUS
 62
     2
 10
169.698256828
 20
167.398409813
 40
0.998290295
 50
256.513902607
 51
261.030709507
  0
ARC
  8
0
  6
CONTINUOUS
 62
     2
 10
169.695147888
 20
167.385147736
 40
0.984668868
 50
251.952029089
 51
256.50985124
  0
ARC
  8
0
  6
CONTINUOUS
 62
     2
 10
169.689803398
 20
167.368430646
 40
0.967118513
 50
247.333947054
 51
251.946244137
  0
ARC
  8
0
  6
CONTINUOUS
 62
     2
 10
169.681873887
 20
167.349124049
 40
0.946247328
 50
242.647075959
 51
247.326505964
  0
ARC
  8
0
  6
CONTINUOUS
 62
     2
 10
169.671213878
 20
167.328202434
 40
0.922766946
 50
237.879981063
 51
242.638090638
  0
ARC
  8
0
  6
CONTINUOUS
 62
     2
 10
169.657897312
 20
167.306684853
 40
0.897462597
 50
233.022752562
 51
237.869606845
  0
ARC
  8
0
  6
CONTINUOUS
 62
     2
 10
169.642217631
 20
167.285567737
 40
0.871161397
 50
228.06743719
 51
233.011190127
  0
ARC
  8
0
  6
CONTINUOUS
 62
     2
 10
169.624672275
 20
167.265759987
 40
0.844701021
 50
223.008534303
 51
228.054950568
  0
ARC
  8
0
  6
CONTINUOUS
 62
     2
 10
169.605932941
 20
167.248024128
 40
0.818900106
 50
217.843484195
 51
222.995440181
  0
ARC
  8
0
  6
CONTINUOUS
 62
     2
 10
169.586803164
 20
167.232928546
 40
0.794532302
 50
212.57316933
 51
217.83017358
  0
ARC
  8
0
  6
CONTINUOUS
 62
     2
 10
169.568166763
 20
167.220813043
 40
0.772304642
 50
207.202291245
 51
212.560082922
  0
ARC
  8
0
  6
CONTINUOUS
 62
     2
 10
169.550930091
 20
167.211770975
 40
0.752840964
 50
201.739625053
 51
207.18992112
  0
ARC
  8
0
  6
CONTINUOUS
 62
     2
 10
169.535962257
 20
167.205648377
 40
0.736669962
 50
196.198022255
 51
201.728486372
  0
ARC
  8
0
  6
CONTINUOUS
 62
     2
 10
169.535962257
 20
167.205648377
 40
0.736669962
 50
196.198022255
 51
201.728486372
  0
ARC
  8
0
  6
CONTINUOUS
 62
     2
 10
169.7
 20
165.2
 40
2.0
 50
175.831927347
 51
184.168072618
  0
ARC
  8
0
  6
CONTINUOUS
 62
     2
 10
169.7
 20
165.2
 40
2.0
 50
355.831927307
 51
4.168072606
  0
ARC
  8
0
  6
CONTINUOUS
 62
     2
 10
169.7
 20
165.2
 40
2.0
 50
115.249956072
 51
124.16807254
  0
ARC
  8
0
  6
CONTINUOUS
 62
     2
 10
167.880589491
 20
166.058460351
 40
0.734326319
 50
256.188882328
 51
261.737019405
  0
ARC
  8
0
  6
CONTINUOUS
 62
     2
 10
167.882936678
 20
166.073860804
 40
0.749904237
 50
261.728651927
 51
267.200316095
  0
ARC
  8
0
  6
CONTINUOUS
 62
     2
 10
167.884000778
 20
166.092780318
 40
0.768853157
 50
267.189978493
 51
272.571847294
  0
ARC
  8
0
  6
CONTINUOUS
 62
     2
 10
167.883185166
 20
166.114573475
 40
0.790660977
 50
272.560027112
 51
277.84279673
  0
ARC
  8
0
  6
CONTINUOUS
 62
     2
 10
167.88008244
 20
166.13843139
 40
0.814719134
 50
277.830008549
 51
283.00842837
  0
ARC
  8
0
  6
CONTINUOUS
 62
     2
 10
167.874506196
 20
166.163431989
 40
0.840333345
 50
282.995176897
 51
288.067846337
  0
ARC
  8
0
  6
CONTINUOUS
 62
     2
 10
167.866506944
 20
166.188598399
 40
0.866739733
 50
288.054600447
 51
293.023596626
  0
ARC
  8
0
  6
CONTINUOUS
 62
     2
 10
167.856371243
 20
166.212960523
 40
0.893125462
 50
293.010769779
 51
297.881182221
  0
ARC
  8
0
  6
CONTINUOUS
 62
     2
 10
167.844603857
 20
166.235616123
 40
0.918654099
 50
297.869130256
 51
302.648561597
  0
ARC
  8
0
  6
CONTINUOUS
 62
     2
 10
167.83189451
 20
166.25578719
 40
0.942494561
 50
302.637572449
 51
307.335652425
  0
ARC
  8
0
  6
CONTINUOUS
 62
     2
 10
167.819070992
 20
166.272867673
 40
0.963852452
 50
307.325957249
 51
311.953899358
  0
ARC
  8
0
  6
CONTINUOUS
 62
     2
 10
167.807042524
 20
166.286459108
 40
0.982001601
 50
311.945675607
 51
316.515891646
  0
ARC
  8
0
  6
CONTINUOUS
 62
     2
 10
167.796736501
 20
166.296392383
 40
0.996314917
 50
316.509271627
 51
321.035046381
  0
ARC
  8
0
  6
CONTINUOUS
 62
     2
 10
167.789033997
 20
166.30273313
 40
1.0062912
 50
321.030124399
 51
325.525348029
  0
ARC
  8
0
  6
CONTINUOUS
 62
     2
 10
167.784707261
 20
166.305771679
 40
1.011578007
 50
325.522187705
 51
330.001132747
  0
ARC
  8
0
  6
CONTINUOUS
 62
     2
 10
167.784364678
 20
166.305997185
 40
1.011987446
 50
329.999773357
 51
334.476905367
  0
ARC
  8
0
  6
CONTINUOUS
 62
     2
 10
167.78840628
 20
166.304058572
 40
1.007504958
 50
334.477360453
 51
338.967165802
  0
ARC
  8
0
  6
CONTINUOUS
 62
     2
 10
167.796993174
 20
166.300714414
 40
0.998289939
 50
338.969432384
 51
343.486248653
  0
ARC
  8
0
  6
CONTINUOUS
 62
     2
 10
167.810033166
 20
166.296775788
 40
0.984668293
 50
343.490298869
 51
348.04813131
  0
ARC
  8
0
  6
CONTINUOUS
 62
     2
 10
167.827182959
 20
166.293045713
 40
0.967117818
 50
348.053917308
 51
352.666225165
  0
ARC
  8
0
  6
CONTINUOUS
 62
     2
 10
167.847867868
 20
166.290259622
 40
0.94624649
 50
352.673665972
 51
357.353107448
  0
ARC
  8
0
  6
CONTINUOUS
 62
     2
 10
167.87131666
 20
166.289030723
 40
0.922765976
 50
357.362092662
 51
2.12021437
  0
ARC
  8
0
  6
CONTINUOUS
 62
     2
 10
167.896609811
 20
166.289804497
 40
0.897461528
 50
2.130589179
 51
6.97745629
  0
ARC
  8
0
  6
CONTINUOUS
 62
     2
 10
167.922737694
 20
166.292825059
 40
0.87116023
 50
6.989018043
 51
11.932784525
  0
ARC
  8
0
  6
CONTINUOUS
 62
     2
 10
167.94866436
 20
166.298115985
 40
0.844699865
 50
11.945272628
 51
16.991702808
  0
ARC
  8
0
  6
CONTINUOUS
 62
     2
 10
167.973393708
 20
166.30547691
 40
0.81889894
 50
17.004796237
 51
22.156766631
  0
ARC
  8
0
  6
CONTINUOUS
 62
     2
 10
167.996031673
 20
166.314496075
 40
0.794531181
 50
22.170077175
 51
27.427096078
  0
ARC
  8
0
  6
CONTINUOUS
 62
     2
 10
168.015842108
 20
166.324577969
 40
0.772303587
 50
27.440183557
 51
32.797990079
  0
ARC
  8
0
  6
CONTINUOUS
 62
     2
 10
168.032290945
 20
166.334984356
 40
0.752840031
 50
32.810359304
 51
38.260669976
  0
ARC
  8
0
  6
CONTINUOUS
 62
     2
 10
168.04507702
 20
166.344885555
 40
0.736669177
 50
38.271808694
 51
43.802286977
  0
ARC
  8
0
  6
CONTINUOUS
 62
     2
 10
168.04507702
 20
166.344885555
 40
0.736669177
 50
38.271808694
 51
43.802286977
  0
ARC
  8
0
  6
CONTINUOUS
 62
     2
 10
169.7
 20
165.2
 40
2.0
 50
55.83192734
 51
64.750043862
  0
ARC
  8
0
  6
CONTINUOUS
 62
     2
 10
171.353154293
 20
166.346425033
 40
0.734327083
 50
136.189192116
 51
141.737314986
  0
ARC
  8
0
  6
CONTINUOUS
 62
     2
 10
171.365318051
 20
166.336692064
 40
0.749905143
 50
141.728948151
 51
147.200597874
  0
ARC
  8
0
  6
CONTINUOUS
 62
     2
 10
171.381170959
 20
166.326310768
 40
0.768854212
 50
147.190260482
 51
152.572114376
  0
ARC
  8
0
  6
CONTINUOUS
 62
     2
 10
171.400452318
 20
166.316120577
 40
0.790662122
 50
152.560293986
 51
157.843048681
  0
ARC
  8
0
  6
CONTINUOUS
 62
     2
 10
171.422665289
 20
166.306878754
 40
0.814720286
 50
157.83026058
 51
163.008665966
  0
ARC
  8
0
  6
CONTINUOUS
 62
     2
 10
171.44710462
 20
166.299207706
 40
0.840334526
 50
162.995413771
 51
168.06806898
  0
ARC
  8
0
  6
CONTINUOUS
 62
     2
 10
171.472899015
 20
166.293552156
 40
0.866740911
 50
168.05482296
 51
173.023805441
  0
ARC
  8
0
  6
CONTINUOUS
 62
     2
 10
171.499065009
 20
166.290148982
 40
0.893126551
 50
173.010979118
 51
177.881378556
  0
ARC
  8
0
  6
CONTINUOUS
 62
     2
 10
171.524568939
 20
166.28901214
 40
0.918655095
 50
177.869327364
 51
182.648746304
  0
ARC
  8
0
  6
CONTINUOUS
 62
     2
 10
171.548392142
 20
166.289933288
 40
0.942495432
 50
182.637756726
 51
187.335825093
  0
ARC
  8
0
  6
CONTINUOUS
 62
     2
 10
171.569595847
 20
166.292498574
 40
0.963853142
 50
187.326129571
 51
191.954060876
  0
ARC
  8
0
  6
CONTINUOUS
 62
     2
 10
171.587380487
 20
166.296119856
 40
0.982002181
 50
191.945837951
 51
196.51604366
  0
ARC
  8
0
  6
CONTINUOUS
 62
     2
 10
171.601135782
 20
166.300078463
 40
0.996315309
 50
196.509422647
 51
201.035187782
  0
ARC
  8
0
  6
CONTINUOUS
 62
     2
 10
171.610478139
 20
166.303578637
 40
1.006291453
 50
201.030266413
 51
205.525480906
  0
ARC
  8
0
  6
CONTINUOUS
 62
     2
 10
171.615272824
 20
166.305806387
 40
1.011578115
 50
205.522321444
 51
210.001257826
  0
ARC
  8
0
  6
CONTINUOUS
 62
     2
 10
171.6156393
 20
166.305990229
 40
1.011987413
 50
209.999897045
 51
214.477020788
  0
ARC
  8
0
  6
CONTINUOUS
 62
     2
 10
171.611939484
 20
166.303459344
 40
1.007504784
 50
214.477477539
 51
218.967275095
  0
ARC
  8
0
  6
CONTINUOUS
 62
     2
 10
171.60474985
 20
166.297694863
 40
0.998289661
 50
218.969540847
 51
223.486349552
  0
ARC
  8
0
  6
CONTINUOUS
 62
     2
 10
171.594818896
 20
166.288371183
 40
0.984667989
 50
223.49040024
 51
228.04822511
  0
ARC
  8
0
  6
CONTINUOUS
 62
     2
 10
171.583013632
 20
166.27538398
 40
0.967117433
 50
228.054010729
 51
232.666311264
  0
ARC
  8
0
  6
CONTINUOUS
 62
     2
 10
171.570258373
 20
166.25886337
 40
0.94624612
 50
232.673752985
 51
237.35318692
  0
ARC
  8
0
  6
CONTINUOUS
 62
     2
 10
171.557469758
 20
166.239170532
 40
0.922765594
 50
237.362170863
 51
242.120285028
  0
ARC
  8
0
  6
CONTINUOUS
 62
     2
 10
171.545493302
 20
166.216879111
 40
0.897461132
 50
242.130660496
 51
246.977520104
  0
ARC
  8
0
  6
CONTINUOUS
 62
     2
 10
171.535045311
 20
166.192741497
 40
0.871159932
 50
246.989081771
 51
251.932840218
  0
ARC
  8
0
  6
CONTINUOUS
 62
     2
 10
171.526664082
 20
166.167642893
 40
0.844699585
 50
251.94532844
 51
256.9917504
  0
ARC
  8
0
  6
CONTINUOUS
 62
     2
 10
171.520674197
 20
166.142546244
 40
0.818898725
 50
257.004843489
 51
262.156805181
  0
ARC
  8
0
  6
CONTINUOUS
 62
     2
 10
171.51716605
 20
166.118431648
 40
0.794531006
 50
262.17011661
 51
267.427126552
  0
ARC
  8
0
  6
CONTINUOUS
 62
     2
 10
171.515992043
 20
166.096234465
 40
0.772303518
 50
267.440212698
 51
272.798009588
  0
ARC
  8
0
  6
CONTINUOUS
 62
     2
 10
171.516779823
 20
166.076786162
 40
0.752839963
 50
272.810379096
 51
278.260679968
  0
ARC
  8
0
  6
CONTINUOUS
 62
     2
 10
171.518961454
 20
166.060762573
 40
0.736669188
 50
278.271819683
 51
283.802287673
  0
ARC
  8
0
  6
CONTINUOUS
 62
     2
 10
171.518961454
 20
166.060762573
 40
0.736669188
 50
278.271819683
 51
283.802287673
  0
ARC
  8
0
  6
CONTINUOUS
 62
     2
 10
171.519410509
 20
164.341539659
 40
0.734326311
 50
76.188883021
 51
81.737020073
  0
ARC
  8
0
  6
CONTINUOUS
 62
     2
 10
171.517063334
 20
164.326139191
 40
0.749904241
 50
81.728653612
 51
87.200317812
  0
ARC
  8
0
  6
CONTINUOUS
 62
     2
 10
171.515999223
 20
164.307219686
 40
0.768853152
 50
87.189979302
 51
92.571848064
  0
ARC
  8
0
  6
CONTINUOUS
 62
     2
 10
171.516814825
 20
164.285426518
 40
0.790660982
 50
92.560027096
 51
97.842796677
  0
ARC
  8
0
  6
CONTINUOUS
 62
     2
 10
171.51991756
 20
164.261568611
 40
0.814719133
 50
97.830009215
 51
103.008429053
  0
ARC
  8
0
  6
CONTINUOUS
 62
     2
 10
171.525493807
 20
164.236568022
 40
0.840333335
 50
102.995177921
 51
108.067847372
  0
ARC
  8
0
  6
CONTINUOUS
 62
     2
 10
171.533493045
 20
164.211401599
 40
0.866739731
 50
108.054600263
 51
113.02359645
  0
ARC
  8
0
  6
CONTINUOUS
 62
     2
 10
171.543628764
 20
164.187039487
 40
0.893125456
 50
113.010771001
 51
117.881183446
  0
ARC
  8
0
  6
CONTINUOUS
 62
     2
 10
171.555396136
 20
164.16438388
 40
0.918654093
 50
117.869130476
 51
122.648561796
  0
ARC
  8
0
  6
CONTINUOUS
 62
     2
 10
171.568105491
 20
164.144212812
 40
0.942494559
 50
122.637572965
 51
127.335652985
  0
ARC
  8
0
  6
CONTINUOUS
 62
     2
 10
171.580928993
 20
164.127132335
 40
0.963852435
 50
127.325957279
 51
131.953899383
  0
ARC
  8
0
  6
CONTINUOUS
 62
     2
 10
171.59295752
 20
164.113540858
 40
0.982001656
 50
131.945676557
 51
136.515892339
  0
ARC
  8
0
  6
CONTINUOUS
 62
     2
 10
171.603263491
 20
164.10360761
 40
0.996314915
 50
136.509271379
 51
141.035046142
  0
ARC
  8
0
  6
CONTINUOUS
 62
     2
 10
171.610966007
 20
164.097266877
 40
1.0062912
 50
141.030125217
 51
145.525348815
  0
ARC
  8
0
  6
CONTINUOUS
 62
     2
 10
171.615292736
 20
164.094228332
 40
1.011577999
 50
145.522188441
 51
150.001133491
  0
ARC
  8
0
  6
CONTINUOUS
 62
     2
 10
171.615635316
 20
164.094002808
 40
1.011987444
 50
149.999773136
 51
154.476905108
  0
ARC
  8
0
  6
CONTINUOUS
 62
     2
 10
171.611593731
 20
164.095941422
 40
1.00750497
 50
154.477360634
 51
158.967165927
  0
ARC
  8
0
  6
CONTINUOUS
 62
     2
 10
171.603006821
 20
164.099285584
 40
0.998289935
 50
158.969432442
 51
163.486248728
  0
ARC
  8
0
  6
CONTINUOUS
 62
     2
 10
171.589966875
 20
164.103224223
 40
0.98466833
 50
163.490300373
 51
168.048132613
  0
ARC
  8
0
  6
CONTINUOUS
 62
     2
 10
171.57281704
 20
164.106954283
 40
0.967117817
 50
168.053917297
 51
172.666225159
  0
ARC
  8
0
  6
CONTINUOUS
 62
     2
 10
171.55213211
 20
164.109740375
 40
0.946246468
 50
172.673665827
 51
177.353107291
  0
ARC
  8
0
  6
CONTINUOUS
 62
     2
 10
171.52868334
 20
164.110969275
 40
0.922765976
 50
177.362092657
 51
182.120214366
  0
ARC
  8
0
  6
CONTINUOUS
 62
     2
 10
171.503390185
 20
164.110195513
 40
0.897461525
 50
182.130589948
 51
186.97745708
  0
ARC
  8
0
  6
CONTINUOUS
 62
     2
 10
171.477262358
 20
164.107174947
 40
0.871160282
 50
186.989018154
 51
191.93278434
  0
ARC
  8
0
  6
CONTINUOUS
 62
     2
 10
171.451335623
 20
164.101884013
 40
0.844699847
 50
191.945272855
 51
196.991703076
  0
ARC
  8
0
  6
CONTINUOUS
 62
     2
 10
171.426606291
 20
164.094523075
 40
0.818898934
 50
197.004795362
 51
202.15676577
  0
ARC
  8
0
  6
CONTINUOUS
 62
     2
 10
171.403968315
 20
164.085503936
 40
0.794531174
 50
202.17007835
 51
207.427097264
  0
ARC
  8
0
  6
CONTINUOUS
 62
     2
 10
171.384157923
 20
164.075422037
 40
0.772303617
 50
207.440182948
 51
212.797989226
  0
ARC
  8
0
  6
CONTINUOUS
 62
     2
 10
171.367709055
 20
164.065015643
 40
0.75284003
 50
212.810359258
 51
218.26066994
  0
ARC
  8
0
  6
CONTINUOUS
 62
     2
 10
171.354923003
 20
164.055114465
 40
0.736669208
 50
218.271808808
 51
223.802286861
  0
ARC
  8
0
  6
CONTINUOUS
 62
     2
 10
169.7
 20
165.2
 40
2.0
 50
295.831927285
 51
304.168072602
  0
ARC
  8
0
  6
CONTINUOUS
 62
     2
 10
169.7
 20
165.2
 40
2.0
 50
235.831927136
 51
244.168100666
  0
ARC
  8
0
  6
CONTINUOUS
 62
     2
 10
168.046846279
 20
164.053574441
 40
0.734326307
 50
316.188883716
 51
321.737020787
  0
ARC
  8
0
  6
CONTINUOUS
 62
     2
 10
168.034682678
 20
164.063307405
 40
0.74990424
 50
321.728652897
 51
327.200317059
  0
ARC
  8
0
  6
CONTINUOUS
 62
     2
 10
168.018829967
 20
164.073688692
 40
0.76885314
 50
327.189979182
 51
332.571848
  0
ARC
  8
0
  6
CONTINUOUS
 62
     2
 10
167.999548718
 20
164.083878942
 40
0.790660981
 50
332.560027463
 51
337.842797071
  0
ARC
  8
0
  6
CONTINUOUS
 62
     2
 10
167.977335798
 20
164.093120851
 40
0.814719131
 50
337.830009405
 51
343.008429236
  0
ARC
  8
0
  6
CONTINUOUS
 62
     2
 10
167.952896521
 20
164.100791985
 40
0.840333344
 50
342.99517756
 51
348.067846982
  0
ARC
  8
0
  6
CONTINUOUS
 62
     2
 10
167.927102145
 20
164.10644764
 40
0.866739733
 50
348.054600736
 51
353.023596914
  0
ARC
  8
0
  6
CONTINUOUS
 62
     2
 10
167.900936095
 20
164.109850923
 40
0.893125443
 50
353.010770145
 51
357.881182669
  0
ARC
  8
0
  6
CONTINUOUS
 62
     2
 10
167.875432069
 20
164.110987867
 40
0.918654088
 50
357.8691308
 51
2.648562152
  0
ARC
  8
0
  6
CONTINUOUS
 62
     2
 10
167.851608722
 20
164.110066788
 40
0.942494566
 50
2.637572612
 51
7.335652574
  0
ARC
  8
0
  6
CONTINUOUS
 62
     2
 10
167.830404849
 20
164.107501521
 40
0.963852441
 50
7.325958485
 51
11.953900598
  0
ARC
  8
0
  6
CONTINUOUS
 62
     2
 10
167.812620025
 20
164.103880286
 40
0.98200165
 50
11.945675699
 51
16.515891488
  0
ARC
  8
0
  6
CONTINUOUS
 62
     2
 10
167.7988646
 20
164.099921653
 40
0.996314911
 50
16.509271983
 51
21.035046742
  0
ARC
  8
0
  6
CONTINUOUS
 62
     2
 10
167.789522094
 20
164.096421462
 40
1.0062912
 50
21.030124662
 51
25.525348306
  0
ARC
  8
0
  6
CONTINUOUS
 62
     2
 10
167.784727277
 20
164.094193669
 40
1.011577998
 50
25.522188474
 51
30.001133527
  0
ARC
  8
0
  6
CONTINUOUS
 62
     2
 10
167.78436068
 20
164.09400975
 40
1.01198744
 50
29.999773128
 51
34.476905112
  0
ARC
  8
0
  6
CONTINUOUS
 62
     2
 10
167.788060367
 20
164.096540564
 40
1.007504959
 50
34.477360596
 51
38.967165944
  0
ARC
  8
0
  6
CONTINUOUS
 62
     2
 10
167.795249945
 20
164.102304942
 40
0.998289943
 50
38.969433202
 51
43.486249475
  0
ARC
  8
0
  6
CONTINUOUS
 62
     2
 10
167.805180866
 20
164.111628576
 40
0.984668327
 50
43.490299397
 51
48.048131616
  0
ARC
  8
0
  6
CONTINUOUS
 62
     2
 10
167.816986127
 20
164.124615731
 40
0.96711781
 50
48.053917363
 51
52.666225236
  0
ARC
  8
0
  6
CONTINUOUS
 62
     2
 10
167.829741408
 20
164.141136337
 40
0.946246485
 50
52.673666244
 51
57.353107703
  0
ARC
  8
0
  6
CONTINUOUS
 62
     2
 10
167.842530062
 20
164.16082914
 40
0.922765968
 50
57.362092774
 51
62.120214517
  0
ARC
  8
0
  6
CONTINUOUS
 62
     2
 10
167.854506535
 20
164.183120549
 40
0.897461509
 50
62.130589396
 51
66.977456546
  0
ARC
  8
0
  6
CONTINUOUS
 62
     2
 10
167.86495457
 20
164.207258181
 40
0.871160275
 50
66.989018418
 51
71.932784648
  0
ARC
  8
0
  6
CONTINUOUS
 62
     2
 10
167.873335837
 20
164.232356852
 40
0.844699852
 50
71.945272192
 51
76.991702426
  0
ARC
  8
0
  6
CONTINUOUS
 62
     2
 10
167.879325756
 20
164.25745355
 40
0.818898936
 50
77.00479553
 51
82.156765942
  0
ARC
  8
0
  6
CONTINUOUS
 62
     2
 10
167.882833942
 20
164.281568181
 40
0.794531178
 50
82.170078631
 51
87.427097505
  0
ARC
  8
0
  6
CONTINUOUS
 62
     2
 10
167.884007957
 20
164.303765439
 40
0.772303614
 50
87.440183159
 51
92.79798948
  0
ARC
  8
0
  6
CONTINUOUS
 62
     2
 10
167.883220181
 20
164.323213776
 40
0.752840025
 50
92.810358905
 51
98.260669598
  0
ARC
  8
0
  6
CONTINUOUS
 62
     2
 10
167.881038548
 20
164.339237407
 40
0.736669208
 50
98.271809411
 51
103.80228747
  0
ARC
  8
0
  6
CONTINUOUS
 62
     2
 10
169.866256788
 20
163.195114103
 40
0.734326316
 50
16.188883336
 51
21.737010068
  0
ARC
  8
0
  6
CONTINUOUS
 62
     2
 10
169.851746047
 20
163.189446608
 40
0.749904196
 50
21.72864326
 51
27.200297537
  0
ARC
  8
0
  6
CONTINUOUS
 62
     2
 10
169.834829289
 20
163.180908447
 40
0.768853025
 50
27.189958981
 51
32.571818397
  0
ARC
  8
0
  6
CONTINUOUS
 62
     2
 10
169.81636367
 20
163.169305535
 40
0.79066084
 50
32.559998591
 51
37.842759025
  0
ARC
  8
0
  6
CONTINUOUS
 62
     2
 10
169.797253505
 20
163.154689597
 40
0.814718935
 50
37.829970105
 51
43.008381188
  0
ARC
  8
0
  6
CONTINUOUS
 62
     2
 10
169.778390489
 20
163.137360176
 40
0.840333103
 50
42.995129528
 51
48.06779043
  0
ARC
  8
0
  6
CONTINUOUS
 62
     2
 10
169.760595395
 20
163.117849473
 40
0.866739427
 50
48.054545191
 51
53.023533343
  0
ARC
  8
0
  6
CONTINUOUS
 62
     2
 10
169.744565044
 20
163.096890681
 40
0.89312511
 50
53.010707517
 51
57.881112166
  0
ARC
  8
0
  6
CONTINUOUS
 62
     2
 10
169.730828389
 20
163.07537208
 40
0.918653714
 50
57.869059139
 51
62.648482952
  0
ARC
  8
0
  6
CONTINUOUS
 62
     2
 10
169.719714401
 20
163.054279971
 40
0.942494141
 50
62.637494327
 51
67.335566987
  0
ARC
  8
0
  6
CONTINUOUS
 62
     2
 10
169.71133399
 20
163.034634227
 40
0.963852055
 50
67.325871858
 51
71.953806636
  0
ARC
  8
0
  6
CONTINUOUS
 62
     2
 10
169.705577632
 20
163.017421477
 40
0.982001296
 50
71.945582385
 51
76.515790875
  0
ARC
  8
0
  6
CONTINUOUS
 62
     2
 10
169.702128149
 20
163.003529542
 40
0.996314637
 50
76.509171142
 51
81.034938326
  0
ARC
  8
0
  6
CONTINUOUS
 62
     2
 10
169.700488114
 20
162.993688516
 40
1.006291015
 50
81.030015985
 51
85.525231868
  0
ARC
  8
0
  6
CONTINUOUS
 62
     2
 10
169.700020013
 20
162.988422086
 40
1.011577914
 50
85.522072083
 51
90.001009147
  0
ARC
  8
0
  6
CONTINUOUS
 62
     2
 10
169.699995992
 20
162.988012498
 40
1.011987502
 50
89.999648762
 51
94.476772262
  0
ARC
  8
0
  6
CONTINUOUS
 62
     2
 10
169.699654123
 20
162.992481771
 40
1.00750518
 50
94.477228513
 51
98.967024907
  0
ARC
  8
0
  6
CONTINUOUS
 62
     2
 10
169.698256827
 20
163.001590186
 40
0.998290296
 50
98.969290459
 51
103.486097355
  0
ARC
  8
0
  6
CONTINUOUS
 62
     2
 10
169.695147887
 20
163.01485226
 40
0.984668872
 50
103.490148635
 51
108.04797077
  0
ARC
  8
0
  6
CONTINUOUS
 62
     2
 10
169.689803395
 20
163.031569358
 40
0.967118508
 50
108.053755764
 51
112.666052871
  0
ARC
  8
0
  6
CONTINUOUS
 62
     2
 10
169.681873887
 20
163.050875954
 40
0.946247325
 50
112.673494107
 51
117.352924125
  0
ARC
  8
0
  6
CONTINUOUS
 62
     2
 10
169.671213875
 20
163.071797572
 40
0.922766939
 50
117.361909335
 51
122.120018947
  0
ARC
  8
0
  6
CONTINUOUS
 62
     2
 10
169.657897307
 20
163.093315153
 40
0.89746259
 50
122.130393074
 51
126.977247397
  0
ARC
  8
0
  6
CONTINUOUS
 62
     2
 10
169.642217634
 20
163.114432254
 40
0.871161406
 50
126.98880966
 51
131.93256255
  0
ARC
  8
0
  6
CONTINUOUS
 62
     2
 10
169.624672277
 20
163.13424001
 40
0.844701024
 50
131.945049381
 51
136.991465623
  0
ARC
  8
0
  6
CONTINUOUS
 62
     2
 10
169.605932945
 20
163.151975871
 40
0.818900109
 50
137.004559954
 51
142.156515919
  0
ARC
  8
0
  6
CONTINUOUS
 62
     2
 10
169.586803162
 20
163.167071454
 40
0.794532301
 50
142.169826294
 51
147.426830551
  0
ARC
  8
0
  6
CONTINUOUS
 62
     2
 10
169.568166769
 20
163.179186955
 40
0.772304648
 50
147.439917134
 51
152.797708767
  0
ARC
  8
0
  6
CONTINUOUS
 62
     2
 10
169.5509301
 20
163.188229024
 40
0.752840972
 50
152.810079112
 51
158.260375118
  0
ARC
  8
0
  6
CONTINUOUS
 62
     2
 10
169.535962259
 20
163.194351624
 40
0.736669964
 50
158.271513714
 51
163.801977819
  0
ARC
  8
0
  6
CONTINUOUS
 62
     1
 10
180.7
 20
177.57
 40
1.0
 50
0.00015455
 51
64.369055219
  0
LINE
  8
0
  6
CONTINUOUS
 62
     1
 10
181.7
 20
152.829997303
 11
181.7
 21
177.570002697
  0
LINE
  8
0
  6
CONTINUOUS
 62
     2
 10
182.842135624
 20
155.2
 11
182.842135624
 21
175.2
  0
LINE
  8
0
  6
CONTINUOUS
 62
     1
 10
184.842135624
 20
173.2
 11
182.842135624
 21
175.2
  0
LINE
  8
0
  6
CONTINUOUS
 62
     2
 10
184.842135624
 20
173.2
 11
184.842135624
 21
157.2
  0
LINE
  8
0
  6
CONTINUOUS
 62
     1
 10
244.842135624
 20
114.2
 11
244.842135624
 21
216.2
  0
LINE
  8
0
  6
CONTINUOUS
 62
     1
 10
236.842135624
 20
183.14422304
 11
236.842135624
 21
147.304686356
  0
ARC
  8
0
  6
CONTINUOUS
 62
     1
 10
238.842135624
 20
183.144218368
 40
2.0
 50
145.0
 51
179.999866156
  0
POLYLINE
  8
0
  6
CONTINUOUS
 62
     2
 66
     1
 70
     1
  0
VERTEX
  8
0
  6
CONTINUOUS
 62
     2
 10
172.2
 20
148.0
  0
VERTEX
  8
0
  6
CONTINUOUS
 62
     2
 10
167.2
 20
148.0
  0
VERTEX
  8
0
  6
CONTINUOUS
 62
     2
 10
166.7
 20
148.5
  0
VERTEX
  8
0
  6
CONTINUOUS
 62
     2
 10
172.7
 20
148.5
  0
SEQEND
  0
LINE
  8
0
  6
CONTINUOUS
 62
     2
 10
172.7
 20
149.341711608
 11
172.7
 21
148.5
  0
LINE
  8
0
  6
CONTINUOUS
 62
     2
 10
172.2
 20
148.0
 11
172.2
 21
149.252668078
  0
LINE
  8
0
  6
CONTINUOUS
 62
     2
 10
167.2
 20
148.729231877
 11
167.2
 21
148.0
  0
LINE
  8
0
  6
CONTINUOUS
 62
     2
 10
166.7
 20
148.5
 11
166.7
 21
148.712989204
  0
LINE
  8
0
  6
CONTINUOUS
 62
     2
 10
224.842135624
 20
157.2
 11
224.842135624
 21
173.2
  0
LINE
  8
0
  6
CONTINUOUS
 62
     2
 10
226.842135624
 20
175.2
 11
226.842135624
 21
155.2
  0
TEXT
  8
0
  6
CONTINUOUS
 62
     2
 10
341.845
 20
51.354
 30
0.5336
 40
5.336
  1
ＳＰＨ－１２０
 50
0.0
 41
0.9
 51
0.0
  7
KANJI2
  0
TEXT
  8
0
  6
CONTINUOUS
 62
     2
 10
341.845
 20
44.017
 30
0.4002
 40
4.002
  1
軽量小型スピーカハンガー
 50
0.0
 41
0.9
 51
0.0
  7
KANJI0
  0
TEXT
  8
0
  6
CONTINUOUS
 62
     2
 10
341.845
 20
28.009
 30
0.4002
 40
4.002
  1
自重　　０．４２ｋｇ
 50
0.0
 41
0.9
 51
0.0
  7
KANJI0
  0
TEXT
  8
0
  6
CONTINUOUS
 62
     2
 10
341.845
 20
20.005
 30
0.4002
 40
4.002
  1
耐荷重　　２～３ｋｇ（程度迄）
 50
0.0
 41
0.9
 51
0.0
  7
KANJI0
  0
TEXT
  8
0
  6
CONTINUOUS
 62
     2
 10
341.845
 20
12.001
 30
0.4002
 40
4.002
  1
用紙　Ａ４　　　尺度　２／３
 50
0.0
 41
0.9
 51
0.0
  7
KANJI0
  0
TEXT
  8
0
  6
CONTINUOUS
 62
     2
 10
351.7
 20
108.2
 30
0.3
 40
3.0
  1
４－φ７．２
 50
0.0
 41
0.9
 51
0.0
  7
KANJI3
  0
ENDSEC
  0
EOF
