  0
SECTION
  2
HEADER
  9
$EXTMIN
 10
0.0
 20
0.0
 30
0.0
  9
$EXTMAX
 10
1188.0
 20
840.0
 30
0.0
  9
$LIMMIN
 10
0.0
 20
0.0
  9
$LIMMAX
 10
1188.0
 20
840.0
  9
$LTSCALE
 40
1.0
  9
$PDMODE
 70
     0
  0
ENDSEC
  0
SECTION
  2
TABLES
  0
TABLE
  2
LTYPE
 70
     3
  0
LTYPE
  2
CONTINUOUS
 70
    64
  3
Solid line
 72
    65
 73
     0
 40
0.0
  0
LTYPE
  2
LTYPE1
 70
    64
  3
HIDDEN
 72
    65
 73
     2
 40
24.0
 49
14.4
 49
-9.6
  0
LTYPE
  2
LTYPE2
 70
    64
  3
CENTER
 72
    65
 73
     4
 40
80.0
 49
56.0
 49
-8.0
 49
8.0
 49
-8.0
  0
ENDTAB
  0
TABLE
  2
LAYER
 70
   128
  0
LAYER
  2
0
 70
     0
 62
     7
  6
CONTINUOUS
  0
LAYER
  2
1
 70
     0
 62
     7
  6
CONTINUOUS
  0
LAYER
  2
2
 70
     0
 62
     7
  6
CONTINUOUS
  0
LAYER
  2
3
 70
     0
 62
     7
  6
CONTINUOUS
  0
LAYER
  2
4
 70
     0
 62
     7
  6
CONTINUOUS
  0
LAYER
  2
5
 70
     0
 62
     7
  6
CONTINUOUS
  0
LAYER
  2
6
 70
     0
 62
     7
  6
CONTINUOUS
  0
LAYER
  2
7
 70
     0
 62
     7
  6
CONTINUOUS
  0
LAYER
  2
8
 70
     0
 62
     7
  6
CONTINUOUS
  0
LAYER
  2
9
 70
     0
 62
     7
  6
CONTINUOUS
  0
LAYER
  2
10
 70
     0
 62
     7
  6
CONTINUOUS
  0
LAYER
  2
11
 70
     0
 62
     7
  6
CONTINUOUS
  0
LAYER
  2
12
 70
     0
 62
     7
  6
CONTINUOUS
  0
LAYER
  2
13
 70
     0
 62
     7
  6
CONTINUOUS
  0
LAYER
  2
14
 70
     0
 62
     7
  6
CONTINUOUS
  0
LAYER
  2
15
 70
     0
 62
     7
  6
CONTINUOUS
  0
LAYER
  2
16
 70
     0
 62
     7
  6
CONTINUOUS
  0
LAYER
  2
17
 70
     0
 62
     7
  6
CONTINUOUS
  0
LAYER
  2
18
 70
     0
 62
     7
  6
CONTINUOUS
  0
LAYER
  2
19
 70
     0
 62
     7
  6
CONTINUOUS
  0
LAYER
  2
20
 70
     0
 62
     7
  6
CONTINUOUS
  0
LAYER
  2
21
 70
     0
 62
     7
  6
CONTINUOUS
  0
LAYER
  2
22
 70
     0
 62
     7
  6
CONTINUOUS
  0
LAYER
  2
23
 70
     0
 62
     7
  6
CONTINUOUS
  0
LAYER
  2
24
 70
     0
 62
     7
  6
CONTINUOUS
  0
LAYER
  2
25
 70
     0
 62
     7
  6
CONTINUOUS
  0
LAYER
  2
26
 70
     0
 62
     7
  6
CONTINUOUS
  0
LAYER
  2
27
 70
     0
 62
     7
  6
CONTINUOUS
  0
LAYER
  2
28
 70
     0
 62
     7
  6
CONTINUOUS
  0
LAYER
  2
29
 70
     0
 62
     7
  6
CONTINUOUS
  0
LAYER
  2
30
 70
     0
 62
     7
  6
CONTINUOUS
  0
LAYER
  2
31
 70
     0
 62
     7
  6
CONTINUOUS
  0
LAYER
  2
32
 70
     0
 62
     7
  6
CONTINUOUS
  0
LAYER
  2
33
 70
     0
 62
     7
  6
CONTINUOUS
  0
LAYER
  2
34
 70
     0
 62
     7
  6
CONTINUOUS
  0
LAYER
  2
35
 70
     0
 62
     7
  6
CONTINUOUS
  0
LAYER
  2
36
 70
     0
 62
     7
  6
CONTINUOUS
  0
LAYER
  2
37
 70
     0
 62
     7
  6
CONTINUOUS
  0
LAYER
  2
38
 70
     0
 62
     7
  6
CONTINUOUS
  0
LAYER
  2
39
 70
     0
 62
     7
  6
CONTINUOUS
  0
LAYER
  2
40
 70
     0
 62
     7
  6
CONTINUOUS
  0
LAYER
  2
41
 70
     0
 62
     7
  6
CONTINUOUS
  0
LAYER
  2
42
 70
     0
 62
     7
  6
CONTINUOUS
  0
LAYER
  2
43
 70
     0
 62
     7
  6
CONTINUOUS
  0
LAYER
  2
44
 70
     0
 62
     7
  6
CONTINUOUS
  0
LAYER
  2
45
 70
     0
 62
     7
  6
CONTINUOUS
  0
LAYER
  2
46
 70
     0
 62
     7
  6
CONTINUOUS
  0
LAYER
  2
47
 70
     0
 62
     7
  6
CONTINUOUS
  0
LAYER
  2
48
 70
     0
 62
     7
  6
CONTINUOUS
  0
LAYER
  2
49
 70
     0
 62
     7
  6
CONTINUOUS
  0
LAYER
  2
50
 70
     0
 62
     7
  6
CONTINUOUS
  0
LAYER
  2
51
 70
     0
 62
     7
  6
CONTINUOUS
  0
LAYER
  2
52
 70
     0
 62
     7
  6
CONTINUOUS
  0
LAYER
  2
53
 70
     0
 62
     7
  6
CONTINUOUS
  0
LAYER
  2
54
 70
     0
 62
     7
  6
CONTINUOUS
  0
LAYER
  2
55
 70
     0
 62
     7
  6
CONTINUOUS
  0
LAYER
  2
56
 70
     0
 62
     7
  6
CONTINUOUS
  0
LAYER
  2
57
 70
     0
 62
     7
  6
CONTINUOUS
  0
LAYER
  2
58
 70
     0
 62
     7
  6
CONTINUOUS
  0
LAYER
  2
59
 70
     0
 62
     7
  6
CONTINUOUS
  0
LAYER
  2
60
 70
     0
 62
     7
  6
CONTINUOUS
  0
LAYER
  2
61
 70
     0
 62
     7
  6
CONTINUOUS
  0
LAYER
  2
62
 70
     0
 62
     7
  6
CONTINUOUS
  0
LAYER
  2
63
 70
     0
 62
     7
  6
CONTINUOUS
  0
LAYER
  2
64
 70
     0
 62
     7
  6
CONTINUOUS
  0
LAYER
  2
65
 70
     0
 62
     7
  6
CONTINUOUS
  0
LAYER
  2
66
 70
     0
 62
     7
  6
CONTINUOUS
  0
LAYER
  2
67
 70
     0
 62
     7
  6
CONTINUOUS
  0
LAYER
  2
68
 70
     0
 62
     7
  6
CONTINUOUS
  0
LAYER
  2
69
 70
     0
 62
     7
  6
CONTINUOUS
  0
LAYER
  2
70
 70
     0
 62
     7
  6
CONTINUOUS
  0
LAYER
  2
71
 70
     0
 62
     7
  6
CONTINUOUS
  0
LAYER
  2
72
 70
     0
 62
     7
  6
CONTINUOUS
  0
LAYER
  2
73
 70
     0
 62
     7
  6
CONTINUOUS
  0
LAYER
  2
74
 70
     0
 62
     7
  6
CONTINUOUS
  0
LAYER
  2
75
 70
     0
 62
     7
  6
CONTINUOUS
  0
LAYER
  2
76
 70
     0
 62
     7
  6
CONTINUOUS
  0
LAYER
  2
77
 70
     0
 62
     7
  6
CONTINUOUS
  0
LAYER
  2
78
 70
     0
 62
     7
  6
CONTINUOUS
  0
LAYER
  2
79
 70
     0
 62
     7
  6
CONTINUOUS
  0
LAYER
  2
80
 70
     0
 62
     7
  6
CONTINUOUS
  0
LAYER
  2
81
 70
     0
 62
     7
  6
CONTINUOUS
  0
LAYER
  2
82
 70
     0
 62
     7
  6
CONTINUOUS
  0
LAYER
  2
83
 70
     0
 62
     7
  6
CONTINUOUS
  0
LAYER
  2
84
 70
     0
 62
     7
  6
CONTINUOUS
  0
LAYER
  2
85
 70
     0
 62
     7
  6
CONTINUOUS
  0
LAYER
  2
86
 70
     0
 62
     7
  6
CONTINUOUS
  0
LAYER
  2
87
 70
     0
 62
     7
  6
CONTINUOUS
  0
LAYER
  2
88
 70
     0
 62
     7
  6
CONTINUOUS
  0
LAYER
  2
89
 70
     0
 62
     7
  6
CONTINUOUS
  0
LAYER
  2
90
 70
     0
 62
     7
  6
CONTINUOUS
  0
LAYER
  2
91
 70
     0
 62
     7
  6
CONTINUOUS
  0
LAYER
  2
92
 70
     0
 62
     7
  6
CONTINUOUS
  0
LAYER
  2
93
 70
     0
 62
     7
  6
CONTINUOUS
  0
LAYER
  2
94
 70
     0
 62
     7
  6
CONTINUOUS
  0
LAYER
  2
95
 70
     0
 62
     7
  6
CONTINUOUS
  0
LAYER
  2
96
 70
     0
 62
     7
  6
CONTINUOUS
  0
LAYER
  2
97
 70
     0
 62
     7
  6
CONTINUOUS
  0
LAYER
  2
98
 70
     0
 62
     7
  6
CONTINUOUS
  0
LAYER
  2
99
 70
     0
 62
     7
  6
CONTINUOUS
  0
LAYER
  2
100
 70
     0
 62
     7
  6
CONTINUOUS
  0
LAYER
  2
101
 70
     0
 62
     7
  6
CONTINUOUS
  0
LAYER
  2
102
 70
     0
 62
     7
  6
CONTINUOUS
  0
LAYER
  2
103
 70
     0
 62
     7
  6
CONTINUOUS
  0
LAYER
  2
104
 70
     0
 62
     7
  6
CONTINUOUS
  0
LAYER
  2
105
 70
     0
 62
     7
  6
CONTINUOUS
  0
LAYER
  2
106
 70
     0
 62
     7
  6
CONTINUOUS
  0
LAYER
  2
107
 70
     0
 62
     7
  6
CONTINUOUS
  0
LAYER
  2
108
 70
     0
 62
     7
  6
CONTINUOUS
  0
LAYER
  2
109
 70
     0
 62
     7
  6
CONTINUOUS
  0
LAYER
  2
110
 70
     0
 62
     7
  6
CONTINUOUS
  0
LAYER
  2
111
 70
     0
 62
     7
  6
CONTINUOUS
  0
LAYER
  2
112
 70
     0
 62
     7
  6
CONTINUOUS
  0
LAYER
  2
113
 70
     0
 62
     7
  6
CONTINUOUS
  0
LAYER
  2
114
 70
     0
 62
     7
  6
CONTINUOUS
  0
LAYER
  2
115
 70
     0
 62
     7
  6
CONTINUOUS
  0
LAYER
  2
116
 70
     0
 62
     7
  6
CONTINUOUS
  0
LAYER
  2
117
 70
     0
 62
     7
  6
CONTINUOUS
  0
LAYER
  2
118
 70
     0
 62
     7
  6
CONTINUOUS
  0
LAYER
  2
119
 70
     0
 62
     7
  6
CONTINUOUS
  0
LAYER
  2
120
 70
     0
 62
     7
  6
CONTINUOUS
  0
LAYER
  2
121
 70
     0
 62
     7
  6
CONTINUOUS
  0
LAYER
  2
122
 70
     0
 62
     7
  6
CONTINUOUS
  0
LAYER
  2
123
 70
     0
 62
     7
  6
CONTINUOUS
  0
LAYER
  2
124
 70
     0
 62
     7
  6
CONTINUOUS
  0
LAYER
  2
125
 70
     0
 62
     7
  6
CONTINUOUS
  0
LAYER
  2
126
 70
     0
 62
     7
  6
CONTINUOUS
  0
LAYER
  2
127
 70
     0
 62
     7
  6
CONTINUOUS
  0
ENDTAB
  0
TABLE
  2
STYLE
 70
     5
  0
STYLE
  2
STANDARD
 70
     0
 40
0.0
 41
1.0
 50
0.0
 71
     0
 42
0.2
  3
txt
  4

  0
STYLE
  2
KANJI0
 70
     0
 40
12.0
 41
0.666666667
 50
0.0
 71
     0
 42
12.0
  3

  4
bigfont
  0
STYLE
  2
KANJI1
 70
     0
 40
7.2
 41
0.666666667
 50
0.0
 71
     0
 42
7.2
  3

  4
bigfont
  0
STYLE
  2
KANJI2
 70
     0
 40
12.0
 41
0.9
 50
0.0
 71
     0
 42
12.0
  3

  4
bigfont
  0
STYLE
  2
KANJI3
 70
     0
 40
16.0
 41
0.9
 50
0.0
 71
     0
 42
16.0
  3

  4
bigfont
  0
ENDTAB
  0
TABLE
  2
VIEW
 70
     0
  0
ENDTAB
  0
ENDSEC
  0
SECTION
  2
BLOCKS
  0
ENDSEC
  0
SECTION
  2
ENTITIES
  0
LINE
  8
0
  6
CONTINUOUS
 62
     3
 10
620.0
 20
530.0
 11
620.0
 21
680.0
  0
LINE
  8
0
  6
CONTINUOUS
 62
     3
 10
620.0
 20
526.8
 11
620.0
 21
530.0
  0
LINE
  8
0
  6
CONTINUOUS
 62
     3
 10
620.0
 20
530.0
 11
623.2
 21
530.0
  0
LINE
  8
0
  6
CONTINUOUS
 62
     3
 10
623.2
 20
530.0
 11
623.2
 21
680.0
  0
LINE
  8
0
  6
CONTINUOUS
 62
     3
 10
623.2
 20
680.0
 11
620.0
 21
680.0
  0
LINE
  8
0
  6
CONTINUOUS
 62
     3
 10
830.0
 20
530.0
 11
820.0
 21
530.0
  0
LINE
  8
0
  6
CONTINUOUS
 62
     3
 10
820.0
 20
530.0
 11
820.0
 21
680.0
  0
LINE
  8
0
  6
CONTINUOUS
 62
     3
 10
820.0
 20
680.0
 11
830.0
 21
680.0
  0
LINE
  8
0
  6
CONTINUOUS
 62
     3
 10
830.0
 20
680.0
 11
830.0
 21
683.2
  0
LINE
  8
0
  6
CONTINUOUS
 62
     3
 10
830.0
 20
526.8
 11
830.0
 21
530.0
  0
ARC
  8
0
  6
CONTINUOUS
 62
     3
 10
820.0
 20
530.0
 40
3.2
 50
180.0
 51
270.0
  0
LINE
  8
0
  6
CONTINUOUS
 62
     3
 10
830.0
 20
683.2
 11
820.0
 21
683.2
  0
ARC
  8
0
  6
CONTINUOUS
 62
     3
 10
820.0
 20
680.0
 40
3.2
 50
90.0
 51
180.0
  0
LINE
  8
0
  6
CONTINUOUS
 62
     3
 10
795.0
 20
530.0
 11
820.0
 21
530.0
  0
ARC
  8
0
  6
CONTINUOUS
 62
     3
 10
795.0
 20
540.0
 40
10.0
 50
180.0
 51
270.0
  0
LINE
  8
0
  6
CONTINUOUS
 62
     3
 10
820.0
 20
680.0
 11
795.0
 21
680.0
  0
LINE
  8
0
  6
CONTINUOUS
 62
     3
 10
785.0
 20
670.0
 11
785.0
 21
540.0
  0
ARC
  8
0
  6
CONTINUOUS
 62
     3
 10
795.0
 20
670.0
 40
10.0
 50
90.0
 51
180.0
  0
LINE
  8
0
  6
CONTINUOUS
 62
     3
 10
860.0
 20
530.0
 11
870.0
 21
530.0
  0
LINE
  8
0
  6
CONTINUOUS
 62
     3
 10
870.0
 20
530.0
 11
870.0
 21
680.0
  0
LINE
  8
0
  6
CONTINUOUS
 62
     3
 10
870.0
 20
680.0
 11
860.0
 21
680.0
  0
LINE
  8
0
  6
CONTINUOUS
 62
     3
 10
860.0
 20
680.0
 11
860.0
 21
683.2
  0
LINE
  8
0
  6
CONTINUOUS
 62
     3
 10
860.0
 20
526.8
 11
860.0
 21
530.0
  0
LINE
  8
0
  6
CONTINUOUS
 62
     3
 10
870.0
 20
526.8
 11
860.0
 21
526.8
  0
ARC
  8
0
  6
CONTINUOUS
 62
     3
 10
870.0
 20
530.0
 40
3.2
 50
270.0
 51
0.0
  0
LINE
  8
0
  6
CONTINUOUS
 62
     3
 10
860.0
 20
683.2
 11
870.0
 21
683.2
  0
ARC
  8
0
  6
CONTINUOUS
 62
     3
 10
870.0
 20
680.0
 40
3.2
 50
0.0
 51
90.0
  0
LINE
  8
0
  6
CONTINUOUS
 62
     3
 10
895.0
 20
530.0
 11
870.0
 21
530.0
  0
ARC
  8
0
  6
CONTINUOUS
 62
     3
 10
895.0
 20
540.0
 40
10.0
 50
270.0
 51
0.0
  0
LINE
  8
0
  6
CONTINUOUS
 62
     3
 10
870.0
 20
680.0
 11
895.0
 21
680.0
  0
LINE
  8
0
  6
CONTINUOUS
 62
     3
 10
905.0
 20
670.0
 11
905.0
 21
540.0
  0
ARC
  8
0
  6
CONTINUOUS
 62
     3
 10
895.0
 20
670.0
 40
10.0
 50
0.0
 51
90.0
  0
LINE
  8
0
  6
LTYPE1
 62
     1
 10
873.2
 20
680.0
 11
873.2
 21
530.0
  0
LINE
  8
0
  6
CONTINUOUS
 62
     3
 10
830.0
 20
530.0
 11
860.0
 21
530.0
  0
LINE
  8
0
  6
CONTINUOUS
 62
     3
 10
820.0
 20
564.978466374
 11
830.0
 21
564.978466374
  0
LINE
  8
0
  6
CONTINUOUS
 62
     3
 10
821.0
 20
679.978466374
 11
821.0
 21
667.878466374
  0
LINE
  8
0
  6
CONTINUOUS
 62
     3
 10
821.0
 20
667.878466374
 11
869.0
 21
667.878466374
  0
LINE
  8
0
  6
CONTINUOUS
 62
     3
 10
869.0
 20
667.878466374
 11
869.0
 21
679.878466374
  0
LINE
  8
0
  6
CONTINUOUS
 62
     3
 10
830.0
 20
680.0
 11
860.0
 21
680.0
  0
LINE
  8
0
  6
CONTINUOUS
 62
     1
 10
869.0
 20
676.778466374
 11
821.0
 21
676.778466374
  0
LINE
  8
0
  6
CONTINUOUS
 62
     1
 10
821.0
 20
642.8
 11
869.0
 21
642.8
  0
LINE
  8
0
  6
CONTINUOUS
 62
     3
 10
845.0
 20
646.0
 11
821.0
 21
646.0
  0
LINE
  8
0
  6
CONTINUOUS
 62
     3
 10
821.0
 20
646.0
 11
821.0
 21
634.0
  0
LINE
  8
0
  6
CONTINUOUS
 62
     3
 10
821.0
 20
634.0
 11
869.0
 21
634.0
  0
LINE
  8
0
  6
CONTINUOUS
 62
     3
 10
869.0
 20
634.0
 11
869.0
 21
646.0
  0
LINE
  8
0
  6
CONTINUOUS
 62
     3
 10
869.0
 20
646.0
 11
845.0
 21
646.0
  0
LINE
  8
0
  6
CONTINUOUS
 62
     3
 10
830.0
 20
646.0
 11
830.0
 21
667.8
  0
LINE
  8
0
  6
CONTINUOUS
 62
     1
 10
821.0
 20
609.7
 11
869.0
 21
609.7
  0
LINE
  8
0
  6
CONTINUOUS
 62
     3
 10
845.0
 20
612.9
 11
821.0
 21
612.9
  0
LINE
  8
0
  6
CONTINUOUS
 62
     3
 10
821.0
 20
612.9
 11
821.0
 21
600.9
  0
LINE
  8
0
  6
CONTINUOUS
 62
     3
 10
821.0
 20
600.9
 11
869.0
 21
600.9
  0
LINE
  8
0
  6
CONTINUOUS
 62
     3
 10
869.0
 20
600.9
 11
869.0
 21
612.9
  0
LINE
  8
0
  6
CONTINUOUS
 62
     3
 10
869.0
 20
612.9
 11
845.0
 21
612.9
  0
LINE
  8
0
  6
CONTINUOUS
 62
     1
 10
821.0
 20
576.5
 11
869.0
 21
576.5
  0
LINE
  8
0
  6
CONTINUOUS
 62
     3
 10
845.0
 20
579.7
 11
821.0
 21
579.7
  0
LINE
  8
0
  6
CONTINUOUS
 62
     3
 10
821.0
 20
579.7
 11
821.0
 21
567.7
  0
LINE
  8
0
  6
CONTINUOUS
 62
     3
 10
821.0
 20
567.7
 11
869.0
 21
567.7
  0
LINE
  8
0
  6
CONTINUOUS
 62
     3
 10
869.0
 20
567.7
 11
869.0
 21
579.7
  0
LINE
  8
0
  6
CONTINUOUS
 62
     3
 10
869.0
 20
579.7
 11
845.0
 21
579.7
  0
LINE
  8
0
  6
CONTINUOUS
 62
     3
 10
830.0
 20
612.9
 11
830.0
 21
634.0
  0
LINE
  8
0
  6
CONTINUOUS
 62
     3
 10
830.0
 20
579.7
 11
830.0
 21
600.9
  0
LINE
  8
0
  6
CONTINUOUS
 62
     3
 10
830.0
 20
564.978466374
 11
830.0
 21
567.7
  0
LINE
  8
0
  6
CONTINUOUS
 62
     3
 10
870.0
 20
564.978466374
 11
860.0
 21
564.978466374
  0
LINE
  8
0
  6
CONTINUOUS
 62
     3
 10
860.0
 20
564.978466374
 11
860.0
 21
567.7
  0
LINE
  8
0
  6
CONTINUOUS
 62
     3
 10
860.0
 20
579.7
 11
860.0
 21
600.9
  0
LINE
  8
0
  6
CONTINUOUS
 62
     3
 10
860.0
 20
612.9
 11
860.0
 21
634.0
  0
LINE
  8
0
  6
CONTINUOUS
 62
     3
 10
860.0
 20
646.0
 11
860.0
 21
667.8
  0
LINE
  8
0
  6
CONTINUOUS
 62
     3
 10
820.0
 20
526.8
 11
860.0
 21
526.8
  0
LINE
  8
0
  6
CONTINUOUS
 62
     3
 10
620.0
 20
243.2
 11
620.0
 21
275.0
  0
LINE
  8
0
  6
CONTINUOUS
 62
     3
 10
620.0
 20
275.0
 11
623.2
 21
275.0
  0
LINE
  8
0
  6
CONTINUOUS
 62
     3
 10
623.2
 20
275.0
 11
623.2
 21
243.2
  0
POINT
  8
0
  6
CONTINUOUS
 62
     3
 10
620.0
 20
240.0
  0
ARC
  8
0
  6
CONTINUOUS
 62
     3
 10
620.0
 20
243.2
 40
3.2
 50
270.0
 51
0.0
  0
LINE
  8
0
  6
CONTINUOUS
 62
     3
 10
620.0
 20
186.8
 11
620.0
 21
155.0
  0
LINE
  8
0
  6
CONTINUOUS
 62
     3
 10
620.0
 20
155.0
 11
623.2
 21
155.0
  0
LINE
  8
0
  6
CONTINUOUS
 62
     3
 10
623.2
 20
155.0
 11
623.2
 21
186.8
  0
POINT
  8
0
  6
CONTINUOUS
 62
     3
 10
620.0
 20
190.0
  0
ARC
  8
0
  6
CONTINUOUS
 62
     3
 10
620.0
 20
186.8
 40
3.2
 50
0.0
 51
90.0
  0
LINE
  8
0
  6
CONTINUOUS
 62
     3
 10
620.0
 20
186.8
 11
620.0
 21
200.0
  0
LINE
  8
0
  6
CONTINUOUS
 62
     3
 10
620.0
 20
243.2
 11
620.0
 21
200.0
  0
LINE
  8
0
  6
CONTINUOUS
 62
     3
 10
870.2
 20
526.8
 11
819.8
 21
526.8
  0
LINE
  8
0
  6
CONTINUOUS
 62
     3
 10
863.8
 20
530.0
 11
826.2
 21
530.0
  0
LINE
  8
0
  6
CONTINUOUS
 62
     1
 10
890.0
 20
598.0
 11
890.0
 21
612.0
  0
LINE
  8
0
  6
CONTINUOUS
 62
     1
 10
800.0
 20
612.0
 11
800.0
 21
598.0
  0
LINE
  8
0
  6
CONTINUOUS
 62
     1
 10
807.0
 20
605.0
 11
793.0
 21
605.0
  0
LINE
  8
0
  6
CONTINUOUS
 62
     1
 10
793.0
 20
545.0
 11
807.0
 21
545.0
  0
LINE
  8
0
  6
CONTINUOUS
 62
     1
 10
800.0
 20
552.0
 11
800.0
 21
538.0
  0
LINE
  8
0
  6
CONTINUOUS
 62
     1
 10
890.0
 20
538.0
 11
890.0
 21
552.0
  0
LINE
  8
0
  6
CONTINUOUS
 62
     1
 10
793.0
 20
665.0
 11
807.0
 21
665.0
  0
CIRCLE
  8
0
  6
CONTINUOUS
 62
     3
 10
800.0
 20
665.0
 40
5.5
  0
CIRCLE
  8
0
  6
CONTINUOUS
 62
     3
 10
800.0
 20
605.0
 40
5.5
  0
CIRCLE
  8
0
  6
CONTINUOUS
 62
     3
 10
800.0
 20
545.0
 40
5.5
  0
CIRCLE
  8
0
  6
CONTINUOUS
 62
     3
 10
890.0
 20
545.0
 40
5.5
  0
CIRCLE
  8
0
  6
CONTINUOUS
 62
     3
 10
890.0
 20
605.0
 40
5.5
  0
CIRCLE
  8
0
  6
CONTINUOUS
 62
     3
 10
890.0
 20
665.0
 40
5.5
  0
LINE
  8
0
  6
CONTINUOUS
 62
     3
 10
863.8
 20
547.2
 11
865.8
 21
546.2
  0
LINE
  8
0
  6
CONTINUOUS
 62
     3
 10
865.8
 20
546.2
 11
865.8
 21
534.2
  0
LINE
  8
0
  6
CONTINUOUS
 62
     3
 10
865.8
 20
534.2
 11
863.8
 21
533.2
  0
LINE
  8
0
  6
CONTINUOUS
 62
     3
 10
826.2
 20
533.2
 11
824.2
 21
534.2
  0
LINE
  8
0
  6
CONTINUOUS
 62
     3
 10
824.2
 20
534.2
 11
824.2
 21
546.2
  0
LINE
  8
0
  6
CONTINUOUS
 62
     3
 10
824.2
 20
546.2
 11
826.2
 21
547.2
  0
LINE
  8
0
  6
CONTINUOUS
 62
     1
 10
855.0
 20
533.2
 11
857.0
 21
534.2
  0
LINE
  8
0
  6
CONTINUOUS
 62
     1
 10
857.0
 20
534.2
 11
859.0
 21
533.2
  0
LINE
  8
0
  6
CONTINUOUS
 62
     1
 10
857.0
 20
534.2
 11
857.0
 21
546.2
  0
LINE
  8
0
  6
CONTINUOUS
 62
     1
 10
857.0
 20
546.2
 11
859.0
 21
547.2
  0
LINE
  8
0
  6
CONTINUOUS
 62
     1
 10
855.0
 20
547.2
 11
857.0
 21
546.2
  0
LINE
  8
0
  6
CONTINUOUS
 62
     1
 10
831.0
 20
547.2
 11
833.0
 21
546.2
  0
LINE
  8
0
  6
CONTINUOUS
 62
     1
 10
833.0
 20
546.2
 11
833.0
 21
534.2
  0
LINE
  8
0
  6
CONTINUOUS
 62
     1
 10
833.0
 20
534.2
 11
831.0
 21
533.2
  0
LINE
  8
0
  6
CONTINUOUS
 62
     1
 10
835.0
 20
533.2
 11
833.0
 21
534.2
  0
LINE
  8
0
  6
CONTINUOUS
 62
     1
 10
835.0
 20
547.2
 11
833.0
 21
546.2
  0
LINE
  8
0
  6
CONTINUOUS
 62
     3
 10
863.8
 20
547.2
 11
826.2
 21
547.2
  0
LINE
  8
0
  6
CONTINUOUS
 62
     3
 10
821.0
 20
530.0
 11
821.0
 21
533.2
  0
LINE
  8
0
  6
CONTINUOUS
 62
     3
 10
821.0
 20
533.2
 11
869.0
 21
533.2
  0
LINE
  8
0
  6
CONTINUOUS
 62
     3
 10
869.0
 20
533.2
 11
869.0
 21
530.0
  0
LINE
  8
0
  6
CONTINUOUS
 62
     3
 10
833.0
 20
547.2
 11
834.0
 21
548.2
  0
LINE
  8
0
  6
CONTINUOUS
 62
     3
 10
834.0
 20
548.2
 11
856.0
 21
548.2
  0
LINE
  8
0
  6
CONTINUOUS
 62
     3
 10
856.0
 20
548.2
 11
857.0
 21
547.2
  0
LINE
  8
0
  6
CONTINUOUS
 62
     1
 10
390.0
 20
527.0
 11
391.99040986
 21
524.755391217
  0
CIRCLE
  8
0
  6
CONTINUOUS
 62
     3
 10
190.0
 20
545.0
 40
4.0
  0
CIRCLE
  8
0
  6
CONTINUOUS
 62
     1
 10
190.0
 20
545.0
 40
9.0
  0
CIRCLE
  8
0
  6
CONTINUOUS
 62
     1
 10
190.0
 20
545.0
 40
3.5
  0
CIRCLE
  8
0
  6
CONTINUOUS
 62
     1
 10
190.0
 20
545.0
 40
6.5
  0
LINE
  8
0
  6
CONTINUOUS
 62
     1
 10
196.5
 20
548.8
 11
190.0
 21
552.5
  0
LINE
  8
0
  6
CONTINUOUS
 62
     1
 10
190.0
 20
552.5
 11
183.5
 21
548.8
  0
LINE
  8
0
  6
CONTINUOUS
 62
     1
 10
183.5
 20
548.8
 11
183.5
 21
541.2
  0
LINE
  8
0
  6
CONTINUOUS
 62
     1
 10
183.5
 20
541.2
 11
190.0
 21
537.5
  0
LINE
  8
0
  6
CONTINUOUS
 62
     1
 10
190.0
 20
537.5
 11
196.5
 21
541.2
  0
LINE
  8
0
  6
CONTINUOUS
 62
     1
 10
196.5
 20
541.2
 11
196.5
 21
548.8
  0
LINE
  8
0
  6
CONTINUOUS
 62
     3
 10
180.0
 20
529.978466374
 11
180.0
 21
526.778466374
  0
LINE
  8
0
  6
CONTINUOUS
 62
     3
 10
208.0
 20
526.778466374
 11
232.0
 21
526.778466374
  0
LINE
  8
0
  6
CONTINUOUS
 62
     3
 10
244.0
 20
526.778466374
 11
244.0
 21
522.778466374
  0
LINE
  8
0
  6
CONTINUOUS
 62
     3
 10
244.0
 20
522.778466374
 11
196.0
 21
522.778466374
  0
LINE
  8
0
  6
CONTINUOUS
 62
     3
 10
196.0
 20
522.778466374
 11
196.0
 21
526.778466374
  0
LINE
  8
0
  6
CONTINUOUS
 62
     3
 10
238.8
 20
522.778466374
 11
240.8
 21
521.778466374
  0
LINE
  8
0
  6
CONTINUOUS
 62
     3
 10
240.8
 20
521.778466374
 11
240.8
 21
509.778466374
  0
LINE
  8
0
  6
CONTINUOUS
 62
     3
 10
240.8
 20
509.778466374
 11
238.8
 21
508.778466374
  0
LINE
  8
0
  6
CONTINUOUS
 62
     3
 10
238.8
 20
508.778466374
 11
201.2
 21
508.778466374
  0
LINE
  8
0
  6
CONTINUOUS
 62
     3
 10
201.2
 20
508.778466374
 11
199.2
 21
509.778466374
  0
LINE
  8
0
  6
CONTINUOUS
 62
     3
 10
199.2
 20
509.778466374
 11
199.2
 21
521.778466374
  0
LINE
  8
0
  6
CONTINUOUS
 62
     3
 10
199.2
 20
521.778466374
 11
201.2
 21
522.778466374
  0
LINE
  8
0
  6
CONTINUOUS
 62
     3
 10
232.0
 20
508.778466374
 11
232.0
 21
505.178466374
  0
LINE
  8
0
  6
CONTINUOUS
 62
     3
 10
232.0
 20
505.178466374
 11
231.0
 21
504.178466374
  0
LINE
  8
0
  6
CONTINUOUS
 62
     3
 10
209.0
 20
504.178466374
 11
208.0
 21
505.178466374
  0
LINE
  8
0
  6
CONTINUOUS
 62
     3
 10
208.0
 20
505.178466374
 11
208.0
 21
508.778466374
  0
ARC
  8
0
  6
CONTINUOUS
 62
     3
 10
220.0
 20
458.178466374
 40
40.0
 50
0.0
 51
180.0
  0
CIRCLE
  8
0
  6
CONTINUOUS
 62
     3
 10
220.0
 20
488.278466374
 40
4.0
  0
CIRCLE
  8
0
  6
CONTINUOUS
 62
     3
 10
220.0
 20
458.278466374
 40
4.0
  0
ARC
  8
0
  6
CONTINUOUS
 62
     3
 10
250.0
 20
458.178466374
 40
4.5
 50
270.0
 51
0.0
  0
ARC
  8
0
  6
CONTINUOUS
 62
     3
 10
250.0
 20
458.178466374
 40
4.5
 50
180.0
 51
270.0
  0
ARC
  8
0
  6
CONTINUOUS
 62
     3
 10
220.0
 20
458.178466374
 40
25.5
 50
0.0
 51
74.1
  0
ARC
  8
0
  6
CONTINUOUS
 62
     3
 10
220.0
 20
458.178466374
 40
34.5
 50
0.0
 51
75.9
  0
LINE
  8
0
  6
CONTINUOUS
 62
     3
 10
203.0
 20
501.178466374
 11
237.0
 21
501.178466374
  0
LINE
  8
0
  6
CONTINUOUS
 62
     3
 10
237.0
 20
501.178466374
 11
237.0
 21
494.378466374
  0
LINE
  8
0
  6
CONTINUOUS
 62
     3
 10
203.0
 20
494.378466374
 11
203.0
 21
501.178466374
  0
CIRCLE
  8
0
  6
CONTINUOUS
 62
     1
 10
220.0
 20
488.278466374
 40
3.5
  0
CIRCLE
  8
0
  6
CONTINUOUS
 62
     1
 10
220.0
 20
488.278466374
 40
6.5
  0
CIRCLE
  8
0
  6
CONTINUOUS
 62
     1
 10
220.0
 20
458.278466374
 40
3.5
  0
CIRCLE
  8
0
  6
CONTINUOUS
 62
     1
 10
220.0
 20
458.278466374
 40
6.5
  0
ARC
  8
0
  6
CONTINUOUS
 62
     1
 10
220.0
 20
488.178466374
 40
13.0
 50
327.3
 51
8.9
  0
ARC
  8
0
  6
CONTINUOUS
 62
     1
 10
220.0
 20
488.178466374
 40
13.0
 50
42.8
 51
137.2
  0
LINE
  8
0
  6
CONTINUOUS
 62
     1
 10
206.0
 20
522.778466374
 11
208.0
 21
521.778466374
  0
LINE
  8
0
  6
CONTINUOUS
 62
     1
 10
208.0
 20
521.778466374
 11
208.0
 21
509.778466374
  0
LINE
  8
0
  6
CONTINUOUS
 62
     1
 10
208.0
 20
509.778466374
 11
206.0
 21
508.778466374
  0
LINE
  8
0
  6
CONTINUOUS
 62
     1
 10
210.0
 20
508.778466374
 11
208.0
 21
509.778466374
  0
LINE
  8
0
  6
CONTINUOUS
 62
     1
 10
230.0
 20
508.778466374
 11
232.0
 21
509.778466374
  0
LINE
  8
0
  6
CONTINUOUS
 62
     1
 10
232.0
 20
509.778466374
 11
234.0
 21
508.778466374
  0
LINE
  8
0
  6
CONTINUOUS
 62
     1
 10
232.0
 20
509.778466374
 11
232.0
 21
521.778466374
  0
LINE
  8
0
  6
CONTINUOUS
 62
     1
 10
232.0
 20
521.778466374
 11
234.0
 21
522.778466374
  0
LINE
  8
0
  6
CONTINUOUS
 62
     1
 10
230.0
 20
522.778466374
 11
232.0
 21
521.778466374
  0
LINE
  8
0
  6
CONTINUOUS
 62
     1
 10
210.0
 20
522.778466374
 11
208.0
 21
521.778466374
  0
LINE
  8
0
  6
CONTINUOUS
 62
     3
 10
231.0
 20
501.178466374
 11
231.0
 21
504.178466374
  0
LINE
  8
0
  6
CONTINUOUS
 62
     3
 10
209.0
 20
504.178466374
 11
209.0
 21
501.178466374
  0
LINE
  8
0
  6
CONTINUOUS
 62
     1
 10
209.0
 20
508.778466374
 11
209.0
 21
504.178466374
  0
LINE
  8
0
  6
CONTINUOUS
 62
     1
 10
231.0
 20
504.178466374
 11
231.0
 21
508.778466374
  0
LINE
  8
0
  6
CONTINUOUS
 62
     1
 10
208.0
 20
505.178466374
 11
232.0
 21
505.178466374
  0
LINE
  8
0
  6
CONTINUOUS
 62
     1
 10
231.0
 20
504.178466374
 11
209.0
 21
504.178466374
  0
CIRCLE
  8
0
  6
CONTINUOUS
 62
     3
 10
220.0
 20
488.278466374
 40
9.0
  0
LINE
  8
0
  6
CONTINUOUS
 62
     3
 10
227.5
 20
488.278466374
 11
223.8
 21
494.778466374
  0
LINE
  8
0
  6
CONTINUOUS
 62
     3
 10
223.8
 20
494.778466374
 11
216.2
 21
494.778466374
  0
LINE
  8
0
  6
CONTINUOUS
 62
     3
 10
223.8
 20
481.778466374
 11
227.5
 21
488.278466374
  0
LINE
  8
0
  6
CONTINUOUS
 62
     3
 10
216.2
 20
481.778466374
 11
223.8
 21
481.778466374
  0
LINE
  8
0
  6
CONTINUOUS
 62
     3
 10
216.2
 20
494.778466374
 11
212.5
 21
488.278466374
  0
LINE
  8
0
  6
CONTINUOUS
 62
     3
 10
212.5
 20
488.278466374
 11
216.2
 21
481.778466374
  0
LINE
  8
0
  6
CONTINUOUS
 62
     3
 10
237.0
 20
488.128466374
 11
237.0
 21
477.178466374
  0
CIRCLE
  8
0
  6
CONTINUOUS
 62
     3
 10
220.0
 20
458.278466374
 40
9.0
  0
LINE
  8
0
  6
CONTINUOUS
 62
     3
 10
227.5
 20
458.278466374
 11
223.8
 21
464.778466374
  0
LINE
  8
0
  6
CONTINUOUS
 62
     3
 10
223.8
 20
464.778466374
 11
216.2
 21
464.778466374
  0
LINE
  8
0
  6
CONTINUOUS
 62
     3
 10
223.8
 20
451.778466374
 11
227.5
 21
458.278466374
  0
LINE
  8
0
  6
CONTINUOUS
 62
     3
 10
216.2
 20
451.778466374
 11
223.8
 21
451.778466374
  0
LINE
  8
0
  6
CONTINUOUS
 62
     3
 10
212.5
 20
458.278466374
 11
216.2
 21
451.778466374
  0
LINE
  8
0
  6
CONTINUOUS
 62
     3
 10
216.2
 20
464.778466374
 11
212.5
 21
458.278466374
  0
LINE
  8
0
  6
CONTINUOUS
 62
     3
 10
180.0
 20
526.778466374
 11
620.0
 21
526.778466374
  0
LINE
  8
0
  6
LTYPE1
 62
     1
 10
180.0
 20
533.2
 11
620.0
 21
533.2
  0
LINE
  8
0
  6
CONTINUOUS
 62
     3
 10
523.251116998
 20
654.708625228
 11
523.253448642
 21
654.705081035
  0
LINE
  8
0
  6
CONTINUOUS
 62
     1
 10
586.137890949
 20
671.14801883
 11
586.947214942
 21
668.052054574
  0
LINE
  8
0
  6
CONTINUOUS
 62
     1
 10
494.226452097
 20
647.121212797
 11
495.03577609
 21
644.025248541
  0
LINE
  8
0
  6
CONTINUOUS
 62
     1
 10
461.173667039
 20
635.173267371
 11
460.364343046
 21
638.269231627
  0
LINE
  8
0
  6
CONTINUOUS
 62
     1
 10
368.452904194
 20
614.242425594
 11
369.262228187
 21
611.146461338
  0
LINE
  8
0
  6
CONTINUOUS
 62
     1
 10
335.400119136
 20
602.294480168
 11
334.590795144
 21
605.390444424
  0
LINE
  8
0
  6
CONTINUOUS
 62
     1
 10
242.679356292
 20
581.363638391
 11
243.488680284
 21
578.267674135
  0
LINE
  8
0
  6
CONTINUOUS
 62
     1
 10
209.626571234
 20
569.415692964
 11
208.817247241
 21
572.511657221
  0
LINE
  8
0
  6
LTYPE1
 62
     1
 10
243.488680284
 20
578.267674135
 11
209.626571234
 21
569.415692964
  0
LINE
  8
0
  6
LTYPE1
 62
     1
 10
369.262228187
 20
611.146461338
 11
335.400119136
 21
602.294480168
  0
LINE
  8
0
  6
LTYPE1
 62
     1
 10
495.03577609
 20
644.025248541
 11
461.173667039
 21
635.173267371
  0
LINE
  8
0
  6
LTYPE1
 62
     1
 10
586.947214942
 20
668.052054574
 11
620.809323993
 21
676.904035744
  0
LINE
  8
0
  6
LTYPE1
 62
     1
 10
180.0
 20
565.0
 11
620.0
 21
680.0
  0
LINE
  8
0
  6
CONTINUOUS
 62
     3
 10
180.0
 20
568.287998722
 11
619.188014943
 21
683.116720785
  0
LINE
  8
0
  6
CONTINUOUS
 62
     3
 10
180.0
 20
568.287998722
 11
180.0
 21
529.978466374
  0
LINE
  8
0
  6
CONTINUOUS
 62
     3
 10
620.0
 20
680.0
 11
619.190676007
 21
683.095964256
  0
LINE
  8
0
  6
LTYPE1
 62
     1
 10
816.8
 20
680.0
 11
816.8
 21
530.0
  0
LINE
  8
0
  6
CONTINUOUS
 62
     1
 10
800.0
 20
655.0
 11
800.0
 21
724.0
  0
LINE
  8
0
  6
CONTINUOUS
 62
     1
 10
800.0
 20
720.0
 11
803.863703305
 21
718.96472382
  0
LINE
  8
0
  6
CONTINUOUS
 62
     1
 10
800.0
 20
720.0
 11
803.863703305
 21
721.03527618
  0
LINE
  8
0
  6
CONTINUOUS
 62
     1
 10
800.0
 20
720.0
 11
890.0
 21
720.0
  0
LINE
  8
0
  6
CONTINUOUS
 62
     1
 10
890.0
 20
720.0
 11
886.136296695
 21
721.03527618
  0
LINE
  8
0
  6
CONTINUOUS
 62
     1
 10
890.0
 20
720.0
 11
886.136296695
 21
718.96472382
  0
LINE
  8
0
  6
CONTINUOUS
 62
     1
 10
890.0
 20
655.0
 11
890.0
 21
724.0
  0
TEXT
  8
0
  6
CONTINUOUS
 62
     1
 10
832.2
 20
724.0
 30
0.0
 40
12.0
  1
９０
 50
0.0
 41
0.666666667
 51
0.0
  7
KANJI0
  0
TEXT
  8
0
  6
CONTINUOUS
 62
     1
 10
848.2
 20
724.0
 30
0.0
 40
7.2
  1
±１
 50
0.0
 41
0.666666667
 51
0.0
  7
KANJI1
  0
LINE
  8
0
  6
CONTINUOUS
 62
     1
 10
905.0
 20
680.0
 11
905.0
 21
754.0
  0
LINE
  8
0
  6
CONTINUOUS
 62
     1
 10
905.0
 20
750.0
 11
901.136296695
 21
751.03527618
  0
LINE
  8
0
  6
CONTINUOUS
 62
     1
 10
905.0
 20
750.0
 11
901.136296695
 21
748.96472382
  0
LINE
  8
0
  6
CONTINUOUS
 62
     1
 10
905.0
 20
750.0
 11
785.0
 21
750.0
  0
LINE
  8
0
  6
CONTINUOUS
 62
     1
 10
785.0
 20
750.0
 11
788.863703305
 21
748.96472382
  0
LINE
  8
0
  6
CONTINUOUS
 62
     1
 10
785.0
 20
750.0
 11
788.863703305
 21
751.03527618
  0
LINE
  8
0
  6
CONTINUOUS
 62
     1
 10
785.0
 20
680.0
 11
785.0
 21
754.0
  0
TEXT
  8
0
  6
CONTINUOUS
 62
     1
 10
828.2
 20
754.0
 30
0.0
 40
12.0
  1
１２０
 50
0.0
 41
0.666666667
 51
0.0
  7
KANJI0
  0
TEXT
  8
0
  6
CONTINUOUS
 62
     1
 10
852.2
 20
754.0
 30
0.0
 40
7.2
  1
±２
 50
0.0
 41
0.666666667
 51
0.0
  7
KANJI1
  0
LINE
  8
0
  6
CONTINUOUS
 62
     1
 10
880.0
 20
665.0
 11
949.0
 21
665.0
  0
LINE
  8
0
  6
CONTINUOUS
 62
     1
 10
945.0
 20
665.0
 11
943.96472382
 21
661.136296695
  0
LINE
  8
0
  6
CONTINUOUS
 62
     1
 10
945.0
 20
665.0
 11
946.03527618
 21
661.136296695
  0
LINE
  8
0
  6
CONTINUOUS
 62
     1
 10
945.0
 20
665.0
 11
945.0
 21
605.0
  0
LINE
  8
0
  6
CONTINUOUS
 62
     1
 10
945.0
 20
605.0
 11
946.03527618
 21
608.863703305
  0
LINE
  8
0
  6
CONTINUOUS
 62
     1
 10
945.0
 20
605.0
 11
943.96472382
 21
608.863703305
  0
LINE
  8
0
  6
CONTINUOUS
 62
     1
 10
880.0
 20
605.0
 11
949.0
 21
605.0
  0
TEXT
  8
0
  6
CONTINUOUS
 62
     1
 10
941.0
 20
627.0
 30
0.0
 40
12.0
  1
６０
 50
90.0
 41
0.666666667
 51
0.0
  7
KANJI0
  0
LINE
  8
0
  6
CONTINUOUS
 62
     1
 10
945.0
 20
605.0
 11
943.96472382
 21
601.136296695
  0
LINE
  8
0
  6
CONTINUOUS
 62
     1
 10
945.0
 20
605.0
 11
946.03527618
 21
601.136296695
  0
LINE
  8
0
  6
CONTINUOUS
 62
     1
 10
945.0
 20
605.0
 11
945.0
 21
545.0
  0
LINE
  8
0
  6
CONTINUOUS
 62
     1
 10
945.0
 20
545.0
 11
946.03527618
 21
548.863703305
  0
LINE
  8
0
  6
CONTINUOUS
 62
     1
 10
945.0
 20
545.0
 11
943.96472382
 21
548.863703305
  0
LINE
  8
0
  6
CONTINUOUS
 62
     1
 10
880.0
 20
545.0
 11
949.0
 21
545.0
  0
TEXT
  8
0
  6
CONTINUOUS
 62
     1
 10
941.0
 20
567.0
 30
0.0
 40
12.0
  1
６０
 50
90.0
 41
0.666666667
 51
0.0
  7
KANJI0
  0
LINE
  8
0
  6
CONTINUOUS
 62
     1
 10
905.0
 20
530.0
 11
974.0
 21
530.0
  0
LINE
  8
0
  6
CONTINUOUS
 62
     1
 10
970.0
 20
530.0
 11
971.03527618
 21
533.863703305
  0
LINE
  8
0
  6
CONTINUOUS
 62
     1
 10
970.0
 20
530.0
 11
968.96472382
 21
533.863703305
  0
LINE
  8
0
  6
CONTINUOUS
 62
     1
 10
970.0
 20
530.0
 11
970.0
 21
680.0
  0
LINE
  8
0
  6
CONTINUOUS
 62
     1
 10
970.0
 20
680.0
 11
968.96472382
 21
676.136296695
  0
LINE
  8
0
  6
CONTINUOUS
 62
     1
 10
970.0
 20
680.0
 11
971.03527618
 21
676.136296695
  0
LINE
  8
0
  6
CONTINUOUS
 62
     1
 10
905.0
 20
680.0
 11
974.0
 21
680.0
  0
TEXT
  8
0
  6
CONTINUOUS
 62
     1
 10
966.0
 20
588.2
 30
0.0
 40
12.0
  1
１５０
 50
90.0
 41
0.666666667
 51
0.0
  7
KANJI0
  0
TEXT
  8
0
  6
CONTINUOUS
 62
     1
 10
966.0
 20
612.2
 30
0.0
 40
7.2
  1
±１
 50
90.0
 41
0.666666667
 51
0.0
  7
KANJI1
  0
LINE
  8
0
  6
CONTINUOUS
 62
     1
 10
1010.0
 20
418.0
 11
1011.03527618
 21
421.863703305
  0
LINE
  8
0
  6
CONTINUOUS
 62
     1
 10
1010.0
 20
418.0
 11
1008.96472382
 21
421.863703305
  0
LINE
  8
0
  6
CONTINUOUS
 62
     1
 10
1010.0
 20
418.0
 11
1010.0
 21
680.0
  0
LINE
  8
0
  6
CONTINUOUS
 62
     1
 10
1010.0
 20
680.0
 11
1008.96472382
 21
676.136296695
  0
LINE
  8
0
  6
CONTINUOUS
 62
     1
 10
1010.0
 20
680.0
 11
1011.03527618
 21
676.136296695
  0
LINE
  8
0
  6
CONTINUOUS
 62
     1
 10
970.0
 20
680.0
 11
1014.0
 21
680.0
  0
TEXT
  8
0
  6
CONTINUOUS
 62
     1
 10
1006.0
 20
532.2
 30
0.0
 40
12.0
  1
２６２
 50
90.0
 41
0.666666667
 51
0.0
  7
KANJI0
  0
TEXT
  8
0
  6
CONTINUOUS
 62
     1
 10
1006.0
 20
556.2
 30
0.0
 40
7.2
  1
±５
 50
90.0
 41
0.666666667
 51
0.0
  7
KANJI1
  0
LINE
  8
0
  6
CONTINUOUS
 62
     1
 10
620.0
 20
685.0
 11
620.0
 21
724.0
  0
LINE
  8
0
  6
CONTINUOUS
 62
     1
 10
620.0
 20
720.0
 11
616.136296695
 21
721.03527618
  0
LINE
  8
0
  6
CONTINUOUS
 62
     1
 10
620.0
 20
720.0
 11
616.136296695
 21
718.96472382
  0
LINE
  8
0
  6
CONTINUOUS
 62
     1
 10
620.0
 20
720.0
 11
220.0
 21
720.0
  0
LINE
  8
0
  6
CONTINUOUS
 62
     1
 10
220.0
 20
720.0
 11
223.863703305
 21
718.96472382
  0
LINE
  8
0
  6
CONTINUOUS
 62
     1
 10
220.0
 20
720.0
 11
223.863703305
 21
721.03527618
  0
TEXT
  8
0
  6
CONTINUOUS
 62
     1
 10
403.2
 20
724.0
 30
0.0
 40
12.0
  1
４００
 50
0.0
 41
0.666666667
 51
0.0
  7
KANJI0
  0
TEXT
  8
0
  6
CONTINUOUS
 62
     1
 10
427.2
 20
724.0
 30
0.0
 40
7.2
  1
±３
 50
0.0
 41
0.666666667
 51
0.0
  7
KANJI1
  0
LINE
  8
0
  6
CONTINUOUS
 62
     1
 10
220.0
 20
720.0
 11
216.136296695
 21
721.03527618
  0
LINE
  8
0
  6
CONTINUOUS
 62
     1
 10
220.0
 20
720.0
 11
216.136296695
 21
718.96472382
  0
LINE
  8
0
  6
CONTINUOUS
 62
     1
 10
220.0
 20
720.0
 11
180.0
 21
720.0
  0
LINE
  8
0
  6
CONTINUOUS
 62
     1
 10
180.0
 20
720.0
 11
183.863703305
 21
718.96472382
  0
LINE
  8
0
  6
CONTINUOUS
 62
     1
 10
180.0
 20
720.0
 11
183.863703305
 21
721.03527618
  0
LINE
  8
0
  6
CONTINUOUS
 62
     1
 10
180.0
 20
575.0
 11
180.0
 21
724.0
  0
TEXT
  8
0
  6
CONTINUOUS
 62
     1
 10
187.2
 20
724.0
 30
0.0
 40
12.0
  1
４０
 50
0.0
 41
0.666666667
 51
0.0
  7
KANJI0
  0
TEXT
  8
0
  6
CONTINUOUS
 62
     1
 10
203.2
 20
724.0
 30
0.0
 40
7.2
  1
±１
 50
0.0
 41
0.666666667
 51
0.0
  7
KANJI1
  0
LINE
  8
0
  6
CONTINUOUS
 62
     1
 10
180.0
 20
720.0
 11
180.0
 21
754.0
  0
LINE
  8
0
  6
CONTINUOUS
 62
     1
 10
180.0
 20
750.0
 11
183.863703305
 21
748.96472382
  0
LINE
  8
0
  6
CONTINUOUS
 62
     1
 10
180.0
 20
750.0
 11
183.863703305
 21
751.03527618
  0
LINE
  8
0
  6
CONTINUOUS
 62
     1
 10
180.0
 20
750.0
 11
620.0
 21
750.0
  0
LINE
  8
0
  6
CONTINUOUS
 62
     1
 10
620.0
 20
750.0
 11
616.136296695
 21
751.03527618
  0
LINE
  8
0
  6
CONTINUOUS
 62
     1
 10
620.0
 20
750.0
 11
616.136296695
 21
748.96472382
  0
LINE
  8
0
  6
CONTINUOUS
 62
     1
 10
620.0
 20
720.0
 11
620.0
 21
754.0
  0
TEXT
  8
0
  6
CONTINUOUS
 62
     1
 10
383.2
 20
754.0
 30
0.0
 40
12.0
  1
４４０
 50
0.0
 41
0.666666667
 51
0.0
  7
KANJI0
  0
TEXT
  8
0
  6
CONTINUOUS
 62
     1
 10
407.2
 20
754.0
 30
0.0
 40
7.2
  1
±３
 50
0.0
 41
0.666666667
 51
0.0
  7
KANJI1
  0
LINE
  8
0
  6
CONTINUOUS
 62
     1
 10
623.2
 20
280.0
 11
623.2
 21
307.0
  0
LINE
  8
0
  6
CONTINUOUS
 62
     1
 10
623.2
 20
303.0
 11
627.063703305
 21
301.96472382
  0
LINE
  8
0
  6
CONTINUOUS
 62
     1
 10
623.2
 20
303.0
 11
627.063703305
 21
304.03527618
  0
LINE
  8
0
  6
CONTINUOUS
 62
     1
 10
631.2
 20
303.0
 11
588.0
 21
303.0
  0
LINE
  8
0
  6
CONTINUOUS
 62
     1
 10
620.0
 20
303.0
 11
616.136296695
 21
304.03527618
  0
LINE
  8
0
  6
CONTINUOUS
 62
     1
 10
620.0
 20
303.0
 11
616.136296695
 21
301.96472382
  0
LINE
  8
0
  6
CONTINUOUS
 62
     1
 10
620.0
 20
280.0
 11
620.0
 21
307.0
  0
TEXT
  8
0
  6
CONTINUOUS
 62
     1
 10
588.0
 20
307.0
 30
0.0
 40
12.0
  1
３．２
 50
0.0
 41
0.666666667
 51
0.0
  7
KANJI0
  0
LINE
  8
0
  6
CONTINUOUS
 62
     1
 10
40.0
 20
40.0
 11
1160.0
 21
40.0
  0
LINE
  8
0
  6
CONTINUOUS
 62
     1
 10
1160.0
 20
40.0
 11
1160.0
 21
810.0
  0
LINE
  8
0
  6
CONTINUOUS
 62
     1
 10
1160.0
 20
810.0
 11
40.0
 21
810.0
  0
LINE
  8
0
  6
CONTINUOUS
 62
     1
 10
40.0
 20
810.0
 11
40.0
 21
40.0
  0
LINE
  8
0
  6
CONTINUOUS
 62
     1
 10
1160.0
 20
64.0
 11
880.0
 21
64.0
  0
LINE
  8
0
  6
CONTINUOUS
 62
     1
 10
880.0
 20
88.0
 11
1160.0
 21
88.0
  0
LINE
  8
0
  6
CONTINUOUS
 62
     1
 10
1160.0
 20
112.0
 11
880.0
 21
112.0
  0
LINE
  8
0
  6
CONTINUOUS
 62
     1
 10
880.0
 20
136.0
 11
1160.0
 21
136.0
  0
LINE
  8
0
  6
CONTINUOUS
 62
     1
 10
1160.0
 20
160.0
 11
880.0
 21
160.0
  0
LINE
  8
0
  6
CONTINUOUS
 62
     1
 10
880.0
 20
184.0
 11
1160.0
 21
184.0
  0
LINE
  8
0
  6
CONTINUOUS
 62
     1
 10
880.0
 20
184.0
 11
880.0
 21
40.0
  0
TEXT
  8
0
  6
CONTINUOUS
 62
     1
 10
900.0
 20
142.0
 30
1.2
 40
12.0
  1
スピーカ壁面取付金具
 50
0.0
 41
0.9
 51
0.0
  7
KANJI2
  0
TEXT
  8
0
  6
CONTINUOUS
 62
     1
 10
900.0
 20
118.0
 30
1.2
 40
12.0
  1
黒色半艶消し焼付け塗装
 50
0.0
 41
0.9
 51
0.0
  7
KANJI2
  0
TEXT
  8
0
  6
CONTINUOUS
 62
     1
 10
900.0
 20
94.0
 30
1.2
 40
12.0
  1
自重　　５，２ｋｇ
 50
0.0
 41
0.9
 51
0.0
  7
KANJI2
  0
TEXT
  8
0
  6
CONTINUOUS
 62
     1
 10
900.0
 20
70.0
 30
1.2
 40
12.0
  1
耐荷重　　２０ｋｇ（程度迄）
 50
0.0
 41
0.9
 51
0.0
  7
KANJI2
  0
LINE
  8
0
  6
CONTINUOUS
 62
     1
 10
815.0
 20
480.0
 11
811.02814962
 21
479.526286418
  0
LINE
  8
0
  6
CONTINUOUS
 62
     1
 10
815.0
 20
480.0
 11
811.797133462
 21
477.603826814
  0
LINE
  8
0
  6
CONTINUOUS
 62
     1
 10
815.0
 20
480.0
 11
765.0
 21
460.0
  0
LINE
  8
0
  6
CONTINUOUS
 62
     1
 10
765.0
 20
460.0
 11
597.6
 21
460.0
  0
TEXT
  8
0
  6
CONTINUOUS
 62
     1
 10
597.6
 20
464.0
 30
1.2
 40
12.0
  1
Ｍ８ナット（ナイロンロックリンク゛付）
 50
0.0
 41
0.9
 51
0.0
  7
KANJI2
  0
LINE
  8
0
  6
CONTINUOUS
 62
     1
 10
795.0
 20
600.0
 11
791.535898385
 21
598.0
  0
LINE
  8
0
  6
CONTINUOUS
 62
     1
 10
795.0
 20
600.0
 11
793.0
 21
596.535898385
  0
LINE
  8
0
  6
CONTINUOUS
 62
     1
 10
795.0
 20
600.0
 11
765.0
 21
570.0
  0
LINE
  8
0
  6
CONTINUOUS
 62
     1
 10
765.0
 20
570.0
 11
706.2
 21
570.0
  0
TEXT
  8
0
  6
CONTINUOUS
 62
     1
 10
706.2
 20
574.0
 30
1.2
 40
12.0
  1
６－φ１１
 50
0.0
 41
0.9
 51
0.0
  7
KANJI2
  0
ARC
  8
0
  6
CONTINUOUS
 62
     1
 10
220.0
 20
458.178466374
 40
60.0
 50
0.0
 51
90.0
  0
LINE
  8
0
  6
CONTINUOUS
 62
     1
 10
280.0
 20
458.178466374
 11
281.03527618
 21
462.042169679
  0
LINE
  8
0
  6
CONTINUOUS
 62
     1
 10
280.0
 20
458.178466374
 11
278.96472382
 21
462.042169679
  0
LINE
  8
0
  6
CONTINUOUS
 62
     1
 10
220.0
 20
518.178466374
 11
223.863703305
 21
517.143190193
  0
LINE
  8
0
  6
CONTINUOUS
 62
     1
 10
220.0
 20
518.178466374
 11
223.863703305
 21
519.213742554
  0
TEXT
  8
0
  6
CONTINUOUS
 62
     1
 10
256.769552622
 20
511.918581744
 30
0.0
 40
12.0
  1
９０゜
 50
315.0
 41
0.666666667
 51
0.0
  7
KANJI0
  0
LINE
  8
0
  6
CONTINUOUS
 62
     1
 10
210.0
 20
458.178466374
 11
284.0
 21
458.178466374
  0
LINE
  8
0
  6
CONTINUOUS
 62
     1
 10
823.0
 20
512.178466374
 11
819.007186132
 21
511.93880533
  0
LINE
  8
0
  6
CONTINUOUS
 62
     1
 10
823.0
 20
512.178466374
 11
819.66195228
 21
509.974506888
  0
LINE
  8
0
  6
CONTINUOUS
 62
     1
 10
823.0
 20
512.178466374
 11
763.0
 21
492.178466374
  0
LINE
  8
0
  6
CONTINUOUS
 62
     1
 10
763.0
 20
492.178466374
 11
632.2
 21
492.178466374
  0
TEXT
  8
0
  6
CONTINUOUS
 62
     1
 10
632.2
 20
496.178466374
 30
1.2
 40
12.0
  1
Ｍ２４ナット（第３種）
 50
0.0
 41
0.9
 51
0.0
  7
KANJI2
  0
LINE
  8
0
  6
CONTINUOUS
 62
     3
 10
869.0
 20
526.8
 11
869.0
 21
522.8
  0
LINE
  8
0
  6
CONTINUOUS
 62
     3
 10
869.0
 20
522.8
 11
821.0
 21
522.8
  0
LINE
  8
0
  6
CONTINUOUS
 62
     3
 10
821.0
 20
522.8
 11
821.0
 21
526.8
  0
LINE
  8
0
  6
CONTINUOUS
 62
     3
 10
863.8
 20
522.8
 11
865.8
 21
521.8
  0
LINE
  8
0
  6
CONTINUOUS
 62
     3
 10
865.8
 20
521.8
 11
865.8
 21
509.8
  0
LINE
  8
0
  6
CONTINUOUS
 62
     3
 10
865.8
 20
509.8
 11
863.8
 21
508.8
  0
LINE
  8
0
  6
CONTINUOUS
 62
     3
 10
863.8
 20
508.8
 11
826.2
 21
508.8
  0
LINE
  8
0
  6
CONTINUOUS
 62
     3
 10
826.2
 20
508.8
 11
824.2
 21
509.8
  0
LINE
  8
0
  6
CONTINUOUS
 62
     3
 10
824.2
 20
509.8
 11
824.2
 21
521.8
  0
LINE
  8
0
  6
CONTINUOUS
 62
     3
 10
824.2
 20
521.8
 11
826.2
 21
522.8
  0
LINE
  8
0
  6
CONTINUOUS
 62
     3
 10
825.0
 20
498.2
 11
823.0
 21
498.2
  0
LINE
  8
0
  6
CONTINUOUS
 62
     3
 10
823.0
 20
498.2
 11
823.0
 21
428.0
  0
LINE
  8
0
  6
CONTINUOUS
 62
     3
 10
865.0
 20
498.2
 11
867.0
 21
498.2
  0
LINE
  8
0
  6
CONTINUOUS
 62
     3
 10
867.0
 20
498.2
 11
867.0
 21
428.0
  0
LINE
  8
0
  6
CONTINUOUS
 62
     3
 10
862.0
 20
445.2
 11
861.0
 21
444.2
  0
LINE
  8
0
  6
CONTINUOUS
 62
     3
 10
861.0
 20
444.2
 11
829.0
 21
444.2
  0
LINE
  8
0
  6
CONTINUOUS
 62
     3
 10
829.0
 20
444.2
 11
828.0
 21
445.2
  0
LINE
  8
0
  6
CONTINUOUS
 62
     3
 10
828.0
 20
475.2
 11
828.0
 21
471.2
  0
LINE
  8
0
  6
CONTINUOUS
 62
     3
 10
828.0
 20
501.2
 11
862.0
 21
501.2
  0
LINE
  8
0
  6
CONTINUOUS
 62
     3
 10
862.0
 20
475.2
 11
862.0
 21
471.2
  0
LINE
  8
0
  6
CONTINUOUS
 62
     3
 10
828.0
 20
445.2
 11
825.0
 21
445.2
  0
LINE
  8
0
  6
CONTINUOUS
 62
     3
 10
825.0
 20
471.2
 11
828.0
 21
471.2
  0
LINE
  8
0
  6
CONTINUOUS
 62
     3
 10
828.0
 20
475.2
 11
825.0
 21
475.2
  0
LINE
  8
0
  6
CONTINUOUS
 62
     3
 10
825.0
 20
498.2
 11
825.0
 21
501.2
  0
LINE
  8
0
  6
CONTINUOUS
 62
     3
 10
825.0
 20
501.2
 11
828.0
 21
501.2
  0
LINE
  8
0
  6
CONTINUOUS
 62
     3
 10
862.0
 20
501.2
 11
865.0
 21
501.2
  0
LINE
  8
0
  6
CONTINUOUS
 62
     3
 10
865.0
 20
501.2
 11
865.0
 21
498.2
  0
LINE
  8
0
  6
CONTINUOUS
 62
     3
 10
865.0
 20
475.2
 11
862.0
 21
475.2
  0
LINE
  8
0
  6
CONTINUOUS
 62
     3
 10
862.0
 20
471.2
 11
865.0
 21
471.2
  0
LINE
  8
0
  6
CONTINUOUS
 62
     3
 10
865.0
 20
445.2
 11
862.0
 21
445.2
  0
LINE
  8
0
  6
CONTINUOUS
 62
     3
 10
857.0
 20
508.8
 11
857.0
 21
505.2
  0
LINE
  8
0
  6
CONTINUOUS
 62
     3
 10
857.0
 20
505.2
 11
856.0
 21
504.2
  0
LINE
  8
0
  6
CONTINUOUS
 62
     3
 10
834.0
 20
504.2
 11
833.0
 21
505.2
  0
LINE
  8
0
  6
CONTINUOUS
 62
     3
 10
833.0
 20
505.2
 11
833.0
 21
508.8
  0
LINE
  8
0
  6
CONTINUOUS
 62
     3
 10
867.0
 20
497.2
 11
868.0
 21
497.2
  0
LINE
  8
0
  6
CONTINUOUS
 62
     3
 10
868.0
 20
497.2
 11
868.0
 21
479.2
  0
LINE
  8
0
  6
CONTINUOUS
 62
     3
 10
868.0
 20
479.2
 11
867.0
 21
479.2
  0
LINE
  8
0
  6
CONTINUOUS
 62
     3
 10
867.0
 20
467.2
 11
868.0
 21
467.2
  0
LINE
  8
0
  6
CONTINUOUS
 62
     3
 10
868.0
 20
467.2
 11
868.0
 21
449.2
  0
LINE
  8
0
  6
CONTINUOUS
 62
     3
 10
868.0
 20
449.2
 11
867.0
 21
449.2
  0
LINE
  8
0
  6
CONTINUOUS
 62
     3
 10
823.0
 20
449.2
 11
822.0
 21
449.2
  0
LINE
  8
0
  6
CONTINUOUS
 62
     3
 10
822.0
 20
449.2
 11
822.0
 21
467.2
  0
LINE
  8
0
  6
CONTINUOUS
 62
     3
 10
822.0
 20
467.2
 11
823.0
 21
467.2
  0
LINE
  8
0
  6
CONTINUOUS
 62
     3
 10
823.0
 20
479.2
 11
822.0
 21
479.2
  0
LINE
  8
0
  6
CONTINUOUS
 62
     3
 10
822.0
 20
479.2
 11
822.0
 21
497.2
  0
LINE
  8
0
  6
CONTINUOUS
 62
     3
 10
822.0
 20
497.2
 11
823.0
 21
497.2
  0
LINE
  8
0
  6
CONTINUOUS
 62
     3
 10
868.0
 20
495.7
 11
873.0
 21
495.7
  0
LINE
  8
0
  6
CONTINUOUS
 62
     3
 10
873.0
 20
495.7
 11
873.5
 21
495.2
  0
LINE
  8
0
  6
CONTINUOUS
 62
     3
 10
873.5
 20
495.2
 11
873.5
 21
481.2
  0
LINE
  8
0
  6
CONTINUOUS
 62
     3
 10
873.5
 20
481.2
 11
873.0
 21
480.7
  0
LINE
  8
0
  6
CONTINUOUS
 62
     3
 10
873.0
 20
480.7
 11
868.0
 21
480.7
  0
LINE
  8
0
  6
CONTINUOUS
 62
     3
 10
868.0
 20
465.7
 11
873.0
 21
465.7
  0
LINE
  8
0
  6
CONTINUOUS
 62
     3
 10
873.0
 20
465.7
 11
873.5
 21
465.2
  0
LINE
  8
0
  6
CONTINUOUS
 62
     3
 10
873.5
 20
465.2
 11
873.5
 21
451.2
  0
LINE
  8
0
  6
CONTINUOUS
 62
     3
 10
873.5
 20
451.2
 11
873.0
 21
450.7
  0
LINE
  8
0
  6
CONTINUOUS
 62
     3
 10
873.0
 20
450.7
 11
868.0
 21
450.7
  0
LINE
  8
0
  6
CONTINUOUS
 62
     3
 10
822.0
 20
495.7
 11
817.0
 21
495.7
  0
LINE
  8
0
  6
CONTINUOUS
 62
     3
 10
817.0
 20
495.7
 11
816.5
 21
495.2
  0
LINE
  8
0
  6
CONTINUOUS
 62
     3
 10
816.5
 20
481.2
 11
817.0
 21
480.7
  0
LINE
  8
0
  6
CONTINUOUS
 62
     3
 10
817.0
 20
480.7
 11
822.0
 21
480.7
  0
LINE
  8
0
  6
CONTINUOUS
 62
     3
 10
816.5
 20
495.2
 11
814.5
 21
494.7
  0
LINE
  8
0
  6
CONTINUOUS
 62
     3
 10
814.5
 20
494.7
 11
814.5
 21
481.7
  0
LINE
  8
0
  6
CONTINUOUS
 62
     3
 10
814.5
 20
481.7
 11
816.5
 21
481.2
  0
LINE
  8
0
  6
CONTINUOUS
 62
     3
 10
822.0
 20
465.7
 11
817.0
 21
465.7
  0
LINE
  8
0
  6
CONTINUOUS
 62
     3
 10
817.0
 20
465.7
 11
816.5
 21
465.2
  0
LINE
  8
0
  6
CONTINUOUS
 62
     3
 10
816.5
 20
451.2
 11
817.0
 21
450.7
  0
LINE
  8
0
  6
CONTINUOUS
 62
     3
 10
817.0
 20
450.7
 11
822.0
 21
450.7
  0
LINE
  8
0
  6
CONTINUOUS
 62
     3
 10
816.5
 20
465.2
 11
814.5
 21
464.7
  0
LINE
  8
0
  6
CONTINUOUS
 62
     3
 10
814.5
 20
464.7
 11
814.5
 21
451.7
  0
LINE
  8
0
  6
CONTINUOUS
 62
     3
 10
814.5
 20
451.7
 11
816.5
 21
451.2
  0
LINE
  8
0
  6
CONTINUOUS
 62
     3
 10
808.5
 20
492.2
 11
814.5
 21
492.2
  0
LINE
  8
0
  6
CONTINUOUS
 62
     3
 10
808.5
 20
492.2
 11
808.0
 21
491.7
  0
LINE
  8
0
  6
CONTINUOUS
 62
     3
 10
808.0
 20
491.7
 11
808.0
 21
484.7
  0
LINE
  8
0
  6
CONTINUOUS
 62
     3
 10
808.0
 20
484.7
 11
808.5
 21
484.2
  0
LINE
  8
0
  6
CONTINUOUS
 62
     3
 10
808.5
 20
484.2
 11
814.5
 21
484.2
  0
LINE
  8
0
  6
CONTINUOUS
 62
     3
 10
808.5
 20
462.2
 11
814.5
 21
462.2
  0
LINE
  8
0
  6
CONTINUOUS
 62
     3
 10
808.5
 20
462.2
 11
808.0
 21
461.7
  0
LINE
  8
0
  6
CONTINUOUS
 62
     3
 10
808.0
 20
461.7
 11
808.0
 21
454.7
  0
LINE
  8
0
  6
CONTINUOUS
 62
     3
 10
808.0
 20
454.7
 11
808.5
 21
454.2
  0
LINE
  8
0
  6
CONTINUOUS
 62
     3
 10
808.5
 20
454.2
 11
814.5
 21
454.2
  0
LINE
  8
0
  6
CONTINUOUS
 62
     1
 10
808.0
 20
491.7
 11
814.5
 21
491.7
  0
LINE
  8
0
  6
CONTINUOUS
 62
     1
 10
808.5
 20
492.2
 11
808.5
 21
484.2
  0
LINE
  8
0
  6
CONTINUOUS
 62
     1
 10
808.0
 20
484.7
 11
814.5
 21
484.7
  0
LINE
  8
0
  6
CONTINUOUS
 62
     1
 10
814.5
 20
461.7
 11
808.0
 21
461.7
  0
LINE
  8
0
  6
CONTINUOUS
 62
     1
 10
808.5
 20
462.2
 11
808.5
 21
454.2
  0
LINE
  8
0
  6
CONTINUOUS
 62
     1
 10
808.0
 20
454.7
 11
814.5
 21
454.7
  0
LINE
  8
0
  6
CONTINUOUS
 62
     1
 10
833.0
 20
505.2
 11
857.0
 21
505.2
  0
LINE
  8
0
  6
CONTINUOUS
 62
     1
 10
855.0
 20
508.8
 11
857.0
 21
509.8
  0
LINE
  8
0
  6
CONTINUOUS
 62
     1
 10
857.0
 20
509.8
 11
859.0
 21
508.8
  0
LINE
  8
0
  6
CONTINUOUS
 62
     1
 10
857.0
 20
509.8
 11
857.0
 21
521.8
  0
LINE
  8
0
  6
CONTINUOUS
 62
     1
 10
857.0
 20
521.8
 11
859.0
 21
522.8
  0
LINE
  8
0
  6
CONTINUOUS
 62
     1
 10
855.0
 20
522.8
 11
857.0
 21
521.8
  0
LINE
  8
0
  6
CONTINUOUS
 62
     1
 10
831.0
 20
522.8
 11
833.0
 21
521.8
  0
LINE
  8
0
  6
CONTINUOUS
 62
     1
 10
833.0
 20
521.8
 11
833.0
 21
509.8
  0
LINE
  8
0
  6
CONTINUOUS
 62
     1
 10
833.0
 20
509.8
 11
831.0
 21
508.8
  0
LINE
  8
0
  6
CONTINUOUS
 62
     1
 10
835.0
 20
508.8
 11
833.0
 21
509.8
  0
LINE
  8
0
  6
CONTINUOUS
 62
     1
 10
835.0
 20
522.8
 11
833.0
 21
521.8
  0
LINE
  8
0
  6
CONTINUOUS
 62
     3
 10
856.0
 20
501.2
 11
856.0
 21
504.2
  0
LINE
  8
0
  6
CONTINUOUS
 62
     3
 10
834.0
 20
504.2
 11
834.0
 21
501.2
  0
LINE
  8
0
  6
CONTINUOUS
 62
     1
 10
834.0
 20
508.8
 11
834.0
 21
504.2
  0
LINE
  8
0
  6
CONTINUOUS
 62
     1
 10
856.0
 20
504.2
 11
856.0
 21
508.8
  0
LINE
  8
0
  6
CONTINUOUS
 62
     1
 10
856.0
 20
504.2
 11
834.0
 21
504.2
  0
ARC
  8
0
  6
CONTINUOUS
 62
     1
 10
868.6
 20
488.2
 40
14.6
 50
116.8
 51
243.2
  0
ARC
  8
0
  6
CONTINUOUS
 62
     1
 10
821.4
 20
458.2
 40
14.6
 50
296.8
 51
63.2
  0
ARC
  8
0
  6
CONTINUOUS
 62
     1
 10
821.4
 20
488.2
 40
14.6
 50
296.8
 51
63.2
  0
ARC
  8
0
  6
CONTINUOUS
 62
     1
 10
868.6
 20
458.2
 40
14.6
 50
116.8
 51
243.2
  0
LINE
  8
0
  6
CONTINUOUS
 62
     1
 10
816.5
 20
465.2
 11
816.5
 21
451.2
  0
LINE
  8
0
  6
CONTINUOUS
 62
     1
 10
822.0
 20
453.7
 11
817.0
 21
453.7
  0
LINE
  8
0
  6
CONTINUOUS
 62
     1
 10
817.0
 20
453.7
 11
816.5
 21
452.7
  0
LINE
  8
0
  6
CONTINUOUS
 62
     1
 10
816.5
 20
454.7
 11
817.0
 21
453.7
  0
LINE
  8
0
  6
CONTINUOUS
 62
     1
 10
822.0
 20
462.7
 11
817.0
 21
462.7
  0
LINE
  8
0
  6
CONTINUOUS
 62
     1
 10
817.0
 20
462.7
 11
816.5
 21
461.7
  0
LINE
  8
0
  6
CONTINUOUS
 62
     1
 10
816.5
 20
463.7
 11
817.0
 21
462.7
  0
LINE
  8
0
  6
CONTINUOUS
 62
     1
 10
816.5
 20
495.2
 11
816.5
 21
481.2
  0
LINE
  8
0
  6
CONTINUOUS
 62
     1
 10
822.0
 20
483.7
 11
817.0
 21
483.7
  0
LINE
  8
0
  6
CONTINUOUS
 62
     1
 10
817.0
 20
483.7
 11
816.5
 21
482.7
  0
LINE
  8
0
  6
CONTINUOUS
 62
     1
 10
816.5
 20
484.7
 11
817.0
 21
483.7
  0
LINE
  8
0
  6
CONTINUOUS
 62
     1
 10
822.0
 20
492.7
 11
817.0
 21
492.7
  0
LINE
  8
0
  6
CONTINUOUS
 62
     1
 10
817.0
 20
492.7
 11
816.5
 21
491.7
  0
LINE
  8
0
  6
CONTINUOUS
 62
     1
 10
816.5
 20
493.7
 11
817.0
 21
492.7
  0
LINE
  8
0
  6
CONTINUOUS
 62
     1
 10
862.0
 20
445.2
 11
828.0
 21
445.2
  0
LINE
  8
0
  6
CONTINUOUS
 62
     1
 10
868.0
 20
453.7
 11
873.0
 21
453.7
  0
LINE
  8
0
  6
CONTINUOUS
 62
     1
 10
873.0
 20
453.7
 11
873.5
 21
452.7
  0
LINE
  8
0
  6
CONTINUOUS
 62
     1
 10
873.5
 20
454.7
 11
873.0
 21
453.7
  0
LINE
  8
0
  6
CONTINUOUS
 62
     1
 10
868.0
 20
462.7
 11
873.0
 21
462.7
  0
LINE
  8
0
  6
CONTINUOUS
 62
     1
 10
873.0
 20
462.7
 11
873.5
 21
463.7
  0
LINE
  8
0
  6
CONTINUOUS
 62
     1
 10
873.5
 20
461.7
 11
873.0
 21
462.7
  0
LINE
  8
0
  6
CONTINUOUS
 62
     1
 10
868.0
 20
483.7
 11
873.0
 21
483.7
  0
LINE
  8
0
  6
CONTINUOUS
 62
     1
 10
873.0
 20
483.7
 11
873.5
 21
482.7
  0
LINE
  8
0
  6
CONTINUOUS
 62
     1
 10
873.5
 20
484.7
 11
873.0
 21
483.7
  0
LINE
  8
0
  6
CONTINUOUS
 62
     1
 10
868.0
 20
492.7
 11
873.0
 21
492.7
  0
LINE
  8
0
  6
CONTINUOUS
 62
     1
 10
873.0
 20
492.7
 11
873.5
 21
493.7
  0
LINE
  8
0
  6
CONTINUOUS
 62
     1
 10
873.5
 20
491.7
 11
873.0
 21
492.7
  0
LINE
  8
0
  6
CONTINUOUS
 62
     3
 10
845.0
 20
421.0
 11
867.0
 21
421.0
  0
POINT
  8
0
  6
CONTINUOUS
 62
     3
 10
869.0
 20
441.0
  0
LINE
  8
0
  6
CONTINUOUS
 62
     3
 10
845.0
 20
421.0
 11
823.0
 21
421.0
  0
LINE
  8
0
  6
CONTINUOUS
 62
     3
 10
825.0
 20
422.0
 11
825.0
 21
498.2
  0
LINE
  8
0
  6
CONTINUOUS
 62
     3
 10
823.0
 20
421.0
 11
823.0
 21
443.0
  0
LINE
  8
0
  6
CONTINUOUS
 62
     3
 10
823.0
 20
422.0
 11
825.0
 21
422.0
  0
LINE
  8
0
  6
CONTINUOUS
 62
     3
 10
865.0
 20
422.0
 11
867.0
 21
422.0
  0
LINE
  8
0
  6
CONTINUOUS
 62
     3
 10
867.0
 20
421.0
 11
867.0
 21
443.0
  0
LINE
  8
0
  6
CONTINUOUS
 62
     3
 10
865.0
 20
422.0
 11
865.0
 21
498.2
  0
LINE
  8
0
  6
CONTINUOUS
 62
     3
 10
865.0
 20
427.0
 11
863.5
 21
427.0
  0
LINE
  8
0
  6
CONTINUOUS
 62
     3
 10
863.5
 20
427.0
 11
863.5
 21
435.0
  0
LINE
  8
0
  6
CONTINUOUS
 62
     3
 10
863.5
 20
435.0
 11
865.0
 21
435.0
  0
LINE
  8
0
  6
CONTINUOUS
 62
     3
 10
825.0
 20
427.0
 11
826.5
 21
427.0
  0
LINE
  8
0
  6
CONTINUOUS
 62
     3
 10
826.5
 20
427.0
 11
826.5
 21
435.0
  0
LINE
  8
0
  6
CONTINUOUS
 62
     3
 10
826.5
 20
435.0
 11
825.0
 21
435.0
  0
LINE
  8
0
  6
CONTINUOUS
 62
     1
 10
819.8
 20
428.0
 11
819.3
 21
428.0
  0
LINE
  8
0
  6
CONTINUOUS
 62
     1
 10
819.3
 20
428.0
 11
818.8
 21
431.0
  0
LINE
  8
0
  6
CONTINUOUS
 62
     1
 10
818.8
 20
431.0
 11
819.3
 21
434.0
  0
LINE
  8
0
  6
CONTINUOUS
 62
     1
 10
819.3
 20
434.0
 11
819.8
 21
434.0
  0
LINE
  8
0
  6
CONTINUOUS
 62
     1
 10
870.2
 20
428.0
 11
870.7
 21
428.0
  0
LINE
  8
0
  6
CONTINUOUS
 62
     1
 10
870.7
 20
428.0
 11
871.2
 21
431.0
  0
LINE
  8
0
  6
CONTINUOUS
 62
     1
 10
871.2
 20
431.0
 11
870.7
 21
434.0
  0
LINE
  8
0
  6
CONTINUOUS
 62
     1
 10
870.7
 20
434.0
 11
870.2
 21
434.0
  0
LINE
  8
0
  6
CONTINUOUS
 62
     3
 10
823.0
 20
441.0
 11
819.8
 21
441.0
  0
LINE
  8
0
  6
CONTINUOUS
 62
     3
 10
819.8
 20
431.0
 11
823.0
 21
431.0
  0
LINE
  8
0
  6
CONTINUOUS
 62
     3
 10
867.0
 20
441.0
 11
870.2
 21
441.0
  0
LINE
  8
0
  6
CONTINUOUS
 62
     3
 10
867.0
 20
431.0
 11
870.2
 21
431.0
  0
LINE
  8
0
  6
CONTINUOUS
 62
     3
 10
867.0
 20
417.8
 11
845.0
 21
417.8
  0
LINE
  8
0
  6
CONTINUOUS
 62
     3
 10
870.2
 20
441.0
 11
870.2
 21
421.0
  0
ARC
  8
0
  6
CONTINUOUS
 62
     3
 10
867.0
 20
421.0
 40
3.2
 50
270.0
 51
0.0
  0
LINE
  8
0
  6
CONTINUOUS
 62
     3
 10
823.0
 20
417.8
 11
845.0
 21
417.8
  0
LINE
  8
0
  6
CONTINUOUS
 62
     3
 10
819.8
 20
441.0
 11
819.8
 21
421.0
  0
ARC
  8
0
  6
CONTINUOUS
 62
     3
 10
823.0
 20
421.0
 40
3.2
 50
180.0
 51
270.0
  0
LINE
  8
0
  6
CONTINUOUS
 62
     1
 10
875.0
 20
418.0
 11
1014.0
 21
418.0
  0
LINE
  8
0
  6
CONTINUOUS
 62
     3
 10
260.0
 20
441.2
 11
180.0
 21
441.2
  0
LINE
  8
0
  6
CONTINUOUS
 62
     3
 10
260.0
 20
458.4
 11
260.0
 21
431.2
  0
LINE
  8
0
  6
CONTINUOUS
 62
     3
 10
180.0
 20
431.2
 11
180.0
 21
458.4
  0
LINE
  8
0
  6
CONTINUOUS
 62
     3
 10
305.0
 20
431.2
 11
260.0
 21
431.2
  0
ARC
  8
0
  6
CONTINUOUS
 62
     3
 10
305.0
 20
421.2
 40
10.0
 50
0.0
 51
90.0
  0
ARC
  8
0
  6
CONTINUOUS
 62
     3
 10
135.0
 20
421.2
 40
10.0
 50
90.0
 51
180.0
  0
LINE
  8
0
  6
CONTINUOUS
 62
     3
 10
135.0
 20
431.2
 11
180.0
 21
431.2
  0
LINE
  8
0
  6
LTYPE1
 62
     1
 10
125.0
 20
421.2
 11
315.0
 21
421.2
  0
LINE
  8
0
  6
CONTINUOUS
 62
     3
 10
220.0
 20
418.0
 11
315.0
 21
418.0
  0
LINE
  8
0
  6
CONTINUOUS
 62
     3
 10
315.0
 20
418.0
 11
315.0
 21
421.2
  0
LINE
  8
0
  6
CONTINUOUS
 62
     3
 10
125.0
 20
418.0
 11
125.0
 21
421.2
  0
LINE
  8
0
  6
CONTINUOUS
 62
     3
 10
220.0
 20
418.0
 11
125.0
 21
418.0
  0
CIRCLE
  8
0
  6
CONTINUOUS
 62
     1
 10
220.0
 20
431.2
 40
3.0
  0
CIRCLE
  8
0
  6
CONTINUOUS
 62
     1
 10
243.0
 20
431.2
 40
3.0
  0
CIRCLE
  8
0
  6
CONTINUOUS
 62
     1
 10
197.0
 20
431.2
 40
3.0
  0
LINE
  8
0
  6
LTYPE2
 62
     1
 10
220.0
 20
413.0
 11
220.0
 21
724.0
  0
ARC
  8
0
  6
CONTINUOUS
 62
     3
 10
145.0
 20
215.0
 40
4.5
 50
90.0
 51
270.0
  0
ARC
  8
0
  6
CONTINUOUS
 62
     3
 10
160.0
 20
215.0
 40
4.5
 50
270.0
 51
90.0
  0
LINE
  8
0
  6
CONTINUOUS
 62
     3
 10
145.0
 20
219.5
 11
160.0
 21
219.5
  0
LINE
  8
0
  6
CONTINUOUS
 62
     3
 10
160.0
 20
210.5
 11
145.0
 21
210.5
  0
ARC
  8
0
  6
CONTINUOUS
 62
     3
 10
280.0
 20
215.0
 40
4.5
 50
90.0
 51
270.0
  0
ARC
  8
0
  6
CONTINUOUS
 62
     3
 10
295.0
 20
215.0
 40
4.5
 50
270.0
 51
90.0
  0
LINE
  8
0
  6
CONTINUOUS
 62
     3
 10
280.0
 20
219.5
 11
295.0
 21
219.5
  0
LINE
  8
0
  6
CONTINUOUS
 62
     3
 10
295.0
 20
210.5
 11
280.0
 21
210.5
  0
LINE
  8
0
  6
LTYPE2
 62
     1
 10
220.0
 20
185.0
 11
220.0
 21
245.0
  0
LINE
  8
0
  6
CONTINUOUS
 62
     3
 10
315.0
 20
240.2
 11
125.0
 21
240.2
  0
LINE
  8
0
  6
LTYPE1
 62
     1
 10
125.0
 20
237.0
 11
315.0
 21
237.0
  0
LINE
  8
0
  6
LTYPE1
 62
     1
 10
125.0
 20
193.0
 11
315.0
 21
193.0
  0
LINE
  8
0
  6
CONTINUOUS
 62
     3
 10
315.0
 20
189.8
 11
125.0
 21
189.8
  0
LINE
  8
0
  6
CONTINUOUS
 62
     3
 10
125.0
 20
240.2
 11
125.0
 21
189.8
  0
LINE
  8
0
  6
CONTINUOUS
 62
     3
 10
315.0
 20
189.8
 11
315.0
 21
240.2
  0
LINE
  8
0
  6
CONTINUOUS
 62
     1
 10
200.0
 20
189.8
 11
200.0
 21
189.3
  0
LINE
  8
0
  6
CONTINUOUS
 62
     1
 10
200.0
 20
189.3
 11
197.0
 21
188.8
  0
LINE
  8
0
  6
CONTINUOUS
 62
     1
 10
197.0
 20
188.8
 11
194.0
 21
189.3
  0
LINE
  8
0
  6
CONTINUOUS
 62
     1
 10
194.0
 20
189.3
 11
194.0
 21
189.8
  0
LINE
  8
0
  6
CONTINUOUS
 62
     1
 10
223.0
 20
189.8
 11
223.0
 21
189.3
  0
LINE
  8
0
  6
CONTINUOUS
 62
     1
 10
223.0
 20
189.3
 11
220.0
 21
188.8
  0
LINE
  8
0
  6
CONTINUOUS
 62
     1
 10
220.0
 20
188.8
 11
217.0
 21
189.3
  0
LINE
  8
0
  6
CONTINUOUS
 62
     1
 10
217.0
 20
189.3
 11
217.0
 21
189.8
  0
LINE
  8
0
  6
CONTINUOUS
 62
     1
 10
246.0
 20
189.8
 11
246.0
 21
189.3
  0
LINE
  8
0
  6
CONTINUOUS
 62
     1
 10
246.0
 20
189.3
 11
243.0
 21
188.8
  0
LINE
  8
0
  6
CONTINUOUS
 62
     1
 10
243.0
 20
188.8
 11
240.0
 21
189.3
  0
LINE
  8
0
  6
CONTINUOUS
 62
     1
 10
240.0
 20
189.3
 11
240.0
 21
189.8
  0
LINE
  8
0
  6
CONTINUOUS
 62
     1
 10
240.0
 20
240.2
 11
240.0
 21
240.7
  0
LINE
  8
0
  6
CONTINUOUS
 62
     1
 10
240.0
 20
240.7
 11
243.0
 21
241.2
  0
LINE
  8
0
  6
CONTINUOUS
 62
     1
 10
243.0
 20
241.2
 11
246.0
 21
240.7
  0
LINE
  8
0
  6
CONTINUOUS
 62
     1
 10
246.0
 20
240.7
 11
246.0
 21
240.2
  0
LINE
  8
0
  6
CONTINUOUS
 62
     1
 10
217.0
 20
240.2
 11
217.0
 21
240.7
  0
LINE
  8
0
  6
CONTINUOUS
 62
     1
 10
217.0
 20
240.7
 11
220.0
 21
241.2
  0
LINE
  8
0
  6
CONTINUOUS
 62
     1
 10
220.0
 20
241.2
 11
223.0
 21
240.7
  0
LINE
  8
0
  6
CONTINUOUS
 62
     1
 10
223.0
 20
240.7
 11
223.0
 21
240.2
  0
LINE
  8
0
  6
CONTINUOUS
 62
     1
 10
194.0
 20
240.2
 11
194.0
 21
240.7
  0
LINE
  8
0
  6
CONTINUOUS
 62
     1
 10
194.0
 20
240.7
 11
197.0
 21
241.2
  0
LINE
  8
0
  6
CONTINUOUS
 62
     1
 10
197.0
 20
241.2
 11
200.0
 21
240.7
  0
LINE
  8
0
  6
CONTINUOUS
 62
     1
 10
200.0
 20
240.7
 11
200.0
 21
240.2
  0
LINE
  8
0
  6
LTYPE2
 62
     1
 10
230.0
 20
215.0
 11
210.0
 21
215.0
  0
LINE
  8
0
  6
LTYPE2
 62
     1
 10
170.0
 20
215.0
 11
135.0
 21
215.0
  0
LINE
  8
0
  6
LTYPE2
 62
     1
 10
305.0
 20
215.0
 11
270.0
 21
215.0
  0
LINE
  8
0
  6
CONTINUOUS
 62
     3
 10
180.0
 20
186.8
 11
180.0
 21
189.8
  0
LINE
  8
0
  6
CONTINUOUS
 62
     3
 10
180.0
 20
240.2
 11
180.0
 21
243.2
  0
LINE
  8
0
  6
CONTINUOUS
 62
     1
 10
142.000002697
 20
219.5
 11
111.0
 21
219.5
  0
LINE
  8
0
  6
CONTINUOUS
 62
     1
 10
115.0
 20
219.5
 11
113.447085729
 21
213.704445042
  0
LINE
  8
0
  6
CONTINUOUS
 62
     1
 10
115.0
 20
219.5
 11
116.552914271
 21
213.704445042
  0
LINE
  8
0
  6
CONTINUOUS
 62
     1
 10
115.0
 20
219.5
 11
115.0
 21
210.5
  0
LINE
  8
0
  6
CONTINUOUS
 62
     1
 10
115.0
 20
210.5
 11
116.552914271
 21
216.295554958
  0
LINE
  8
0
  6
CONTINUOUS
 62
     1
 10
115.0
 20
210.5
 11
113.447085729
 21
216.295554958
  0
LINE
  8
0
  6
CONTINUOUS
 62
     1
 10
142.000002697
 20
210.5
 11
111.0
 21
210.5
  0
TEXT
  8
0
  6
CONTINUOUS
 62
     1
 10
111.0
 20
211.0
 30
0.0
 40
12.0
  1
９
 50
90.0
 41
0.666666667
 51
0.0
  7
KANJI0
  0
LINE
  8
0
  6
CONTINUOUS
 62
     1
 10
120.0
 20
189.8
 11
86.0
 21
189.8
  0
LINE
  8
0
  6
CONTINUOUS
 62
     1
 10
90.0
 20
189.8
 11
91.552914271
 21
195.595554958
  0
LINE
  8
0
  6
CONTINUOUS
 62
     1
 10
90.0
 20
189.8
 11
88.447085729
 21
195.595554958
  0
LINE
  8
0
  6
CONTINUOUS
 62
     1
 10
90.0
 20
189.8
 11
90.0
 21
240.2
  0
LINE
  8
0
  6
CONTINUOUS
 62
     1
 10
90.0
 20
240.2
 11
88.447085729
 21
234.404445042
  0
LINE
  8
0
  6
CONTINUOUS
 62
     1
 10
90.0
 20
240.2
 11
91.552914271
 21
234.404445042
  0
LINE
  8
0
  6
CONTINUOUS
 62
     1
 10
120.0
 20
240.2
 11
86.0
 21
240.2
  0
TEXT
  8
0
  6
CONTINUOUS
 62
     1
 10
86.0
 20
207.0
 30
0.0
 40
12.0
  1
５０
 50
90.0
 41
0.666666667
 51
0.0
  7
KANJI0
  0
LINE
  8
0
  6
CONTINUOUS
 62
     1
 10
160.0
 20
209.0
 11
160.0
 21
264.0
  0
LINE
  8
0
  6
CONTINUOUS
 62
     1
 10
160.0
 20
260.0
 11
165.795554958
 21
258.447085729
  0
LINE
  8
0
  6
CONTINUOUS
 62
     1
 10
160.0
 20
260.0
 11
165.795554958
 21
261.552914271
  0
LINE
  8
0
  6
CONTINUOUS
 62
     1
 10
160.0
 20
260.0
 11
280.0
 21
260.0
  0
LINE
  8
0
  6
CONTINUOUS
 62
     1
 10
280.0
 20
260.0
 11
274.204445042
 21
261.552914271
  0
LINE
  8
0
  6
CONTINUOUS
 62
     1
 10
280.0
 20
260.0
 11
274.204445042
 21
258.447085729
  0
LINE
  8
0
  6
CONTINUOUS
 62
     1
 10
280.0
 20
209.0
 11
280.0
 21
264.0
  0
TEXT
  8
0
  6
CONTINUOUS
 62
     1
 10
208.0
 20
264.0
 30
0.0
 40
12.0
  1
１２０
 50
0.0
 41
0.666666667
 51
0.0
  7
KANJI0
  0
LINE
  8
0
  6
CONTINUOUS
 62
     1
 10
295.0
 20
209.0
 11
295.0
 21
284.0
  0
LINE
  8
0
  6
CONTINUOUS
 62
     1
 10
295.0
 20
280.0
 11
289.204445042
 21
281.552914271
  0
LINE
  8
0
  6
CONTINUOUS
 62
     1
 10
295.0
 20
280.0
 11
289.204445042
 21
278.447085729
  0
LINE
  8
0
  6
CONTINUOUS
 62
     1
 10
295.0
 20
280.0
 11
145.0
 21
280.0
  0
LINE
  8
0
  6
CONTINUOUS
 62
     1
 10
145.0
 20
280.0
 11
150.795554958
 21
278.447085729
  0
LINE
  8
0
  6
CONTINUOUS
 62
     1
 10
145.0
 20
280.0
 11
150.795554958
 21
281.552914271
  0
LINE
  8
0
  6
CONTINUOUS
 62
     1
 10
145.0
 20
209.0
 11
145.0
 21
284.0
  0
TEXT
  8
0
  6
CONTINUOUS
 62
     1
 10
208.0
 20
284.0
 30
0.0
 40
12.0
  1
１５０
 50
0.0
 41
0.666666667
 51
0.0
  7
KANJI0
  0
LINE
  8
0
  6
CONTINUOUS
 62
     1
 10
125.0
 20
245.0
 11
125.0
 21
304.0
  0
LINE
  8
0
  6
CONTINUOUS
 62
     1
 10
125.0
 20
300.0
 11
130.795554958
 21
298.447085729
  0
LINE
  8
0
  6
CONTINUOUS
 62
     1
 10
125.0
 20
300.0
 11
130.795554958
 21
301.552914271
  0
LINE
  8
0
  6
CONTINUOUS
 62
     1
 10
125.0
 20
300.0
 11
315.0
 21
300.0
  0
LINE
  8
0
  6
CONTINUOUS
 62
     1
 10
315.0
 20
300.0
 11
309.204445042
 21
301.552914271
  0
LINE
  8
0
  6
CONTINUOUS
 62
     1
 10
315.0
 20
300.0
 11
309.204445042
 21
298.447085729
  0
LINE
  8
0
  6
CONTINUOUS
 62
     1
 10
315.0
 20
245.0
 11
315.0
 21
304.0
  0
TEXT
  8
0
  6
CONTINUOUS
 62
     1
 10
208.0
 20
304.0
 30
0.0
 40
12.0
  1
１９０
 50
0.0
 41
0.666666667
 51
0.0
  7
KANJI0
  0
LINE
  8
0
  6
CONTINUOUS
 62
     3
 10
180.0
 20
243.2
 11
620.0
 21
243.2
  0
LINE
  8
0
  6
CONTINUOUS
 62
     3
 10
180.0
 20
186.8
 11
620.0
 21
186.8
  0
LINE
  8
0
  6
LTYPE1
 62
     1
 10
620.0
 20
240.0
 11
322.0
 21
240.0
  0
LINE
  8
0
  6
LTYPE1
 62
     1
 10
620.0
 20
190.0
 11
322.0
 21
190.0
  0
LINE
  8
0
  6
CONTINUOUS
 62
     3
 10
620.0
 20
230.0
 11
315.0
 21
230.0
  0
LINE
  8
0
  6
CONTINUOUS
 62
     3
 10
620.0
 20
200.0
 11
315.0
 21
200.0
  0
TEXT
  8
0
  6
CONTINUOUS
 62
     1
 10
900.0
 20
164.0
 30
1.6
 40
16.0
  1
ＳＰＡ－１４０Ｂ－４００
 50
0.0
 41
0.9
 51
0.0
  7
KANJI3
  0
TEXT
  8
0
  6
CONTINUOUS
 62
     1
 10
900.0
 20
46.0
 30
1.2
 40
12.0
  1
用紙　Ａ４　　尺度　　１／４
 50
0.0
 41
0.9
 51
0.0
  7
KANJI2
  0
ENDSEC
  0
EOF
