  0
SECTION
  2
HEADER
  9
$EXTMIN
 10
0.0
 20
0.0
 30
0.0
  9
$EXTMAX
 10
1188.0
 20
840.0
 30
0.0
  9
$LIMMIN
 10
0.0
 20
0.0
  9
$LIMMAX
 10
1188.0
 20
840.0
  9
$LTSCALE
 40
1.0
  9
$PDMODE
 70
     0
  0
ENDSEC
  0
SECTION
  2
TABLES
  0
TABLE
  2
LTYPE
 70
     4
  0
LTYPE
  2
CONTINUOUS
 70
    64
  3
Solid line
 72
    65
 73
     0
 40
0.0
  0
LTYPE
  2
LTYPE1
 70
    64
  3
HIDDEN
 72
    65
 73
     2
 40
24.0
 49
14.4
 49
-9.6
  0
LTYPE
  2
LTYPE2
 70
    64
  3
CENTER
 72
    65
 73
     4
 40
80.0
 49
56.0
 49
-8.0
 49
8.0
 49
-8.0
  0
LTYPE
  2
LTYPE3
 70
    64
  3
HIDDEN
 72
    65
 73
     2
 40
40.0
 49
24.0
 49
-16.0
  0
ENDTAB
  0
TABLE
  2
LAYER
 70
   128
  0
LAYER
  2
0
 70
     0
 62
     7
  6
CONTINUOUS
  0
LAYER
  2
1
 70
     0
 62
     7
  6
CONTINUOUS
  0
LAYER
  2
2
 70
     0
 62
     7
  6
CONTINUOUS
  0
LAYER
  2
3
 70
     0
 62
     7
  6
CONTINUOUS
  0
LAYER
  2
4
 70
     0
 62
     7
  6
CONTINUOUS
  0
LAYER
  2
5
 70
     0
 62
     7
  6
CONTINUOUS
  0
LAYER
  2
6
 70
     0
 62
     7
  6
CONTINUOUS
  0
LAYER
  2
7
 70
     0
 62
     7
  6
CONTINUOUS
  0
LAYER
  2
8
 70
     0
 62
     7
  6
CONTINUOUS
  0
LAYER
  2
9
 70
     0
 62
     7
  6
CONTINUOUS
  0
LAYER
  2
10
 70
     0
 62
     7
  6
CONTINUOUS
  0
LAYER
  2
11
 70
     0
 62
     7
  6
CONTINUOUS
  0
LAYER
  2
12
 70
     0
 62
     7
  6
CONTINUOUS
  0
LAYER
  2
13
 70
     0
 62
     7
  6
CONTINUOUS
  0
LAYER
  2
14
 70
     0
 62
     7
  6
CONTINUOUS
  0
LAYER
  2
15
 70
     0
 62
     7
  6
CONTINUOUS
  0
LAYER
  2
16
 70
     0
 62
     7
  6
CONTINUOUS
  0
LAYER
  2
17
 70
     0
 62
     7
  6
CONTINUOUS
  0
LAYER
  2
18
 70
     0
 62
     7
  6
CONTINUOUS
  0
LAYER
  2
19
 70
     0
 62
     7
  6
CONTINUOUS
  0
LAYER
  2
20
 70
     0
 62
     7
  6
CONTINUOUS
  0
LAYER
  2
21
 70
     0
 62
     7
  6
CONTINUOUS
  0
LAYER
  2
22
 70
     0
 62
     7
  6
CONTINUOUS
  0
LAYER
  2
23
 70
     0
 62
     7
  6
CONTINUOUS
  0
LAYER
  2
24
 70
     0
 62
     7
  6
CONTINUOUS
  0
LAYER
  2
25
 70
     0
 62
     7
  6
CONTINUOUS
  0
LAYER
  2
26
 70
     0
 62
     7
  6
CONTINUOUS
  0
LAYER
  2
27
 70
     0
 62
     7
  6
CONTINUOUS
  0
LAYER
  2
28
 70
     0
 62
     7
  6
CONTINUOUS
  0
LAYER
  2
29
 70
     0
 62
     7
  6
CONTINUOUS
  0
LAYER
  2
30
 70
     0
 62
     7
  6
CONTINUOUS
  0
LAYER
  2
31
 70
     0
 62
     7
  6
CONTINUOUS
  0
LAYER
  2
32
 70
     0
 62
     7
  6
CONTINUOUS
  0
LAYER
  2
33
 70
     0
 62
     7
  6
CONTINUOUS
  0
LAYER
  2
34
 70
     0
 62
     7
  6
CONTINUOUS
  0
LAYER
  2
35
 70
     0
 62
     7
  6
CONTINUOUS
  0
LAYER
  2
36
 70
     0
 62
     7
  6
CONTINUOUS
  0
LAYER
  2
37
 70
     0
 62
     7
  6
CONTINUOUS
  0
LAYER
  2
38
 70
     0
 62
     7
  6
CONTINUOUS
  0
LAYER
  2
39
 70
     0
 62
     7
  6
CONTINUOUS
  0
LAYER
  2
40
 70
     0
 62
     7
  6
CONTINUOUS
  0
LAYER
  2
41
 70
     0
 62
     7
  6
CONTINUOUS
  0
LAYER
  2
42
 70
     0
 62
     7
  6
CONTINUOUS
  0
LAYER
  2
43
 70
     0
 62
     7
  6
CONTINUOUS
  0
LAYER
  2
44
 70
     0
 62
     7
  6
CONTINUOUS
  0
LAYER
  2
45
 70
     0
 62
     7
  6
CONTINUOUS
  0
LAYER
  2
46
 70
     0
 62
     7
  6
CONTINUOUS
  0
LAYER
  2
47
 70
     0
 62
     7
  6
CONTINUOUS
  0
LAYER
  2
48
 70
     0
 62
     7
  6
CONTINUOUS
  0
LAYER
  2
49
 70
     0
 62
     7
  6
CONTINUOUS
  0
LAYER
  2
50
 70
     0
 62
     7
  6
CONTINUOUS
  0
LAYER
  2
51
 70
     0
 62
     7
  6
CONTINUOUS
  0
LAYER
  2
52
 70
     0
 62
     7
  6
CONTINUOUS
  0
LAYER
  2
53
 70
     0
 62
     7
  6
CONTINUOUS
  0
LAYER
  2
54
 70
     0
 62
     7
  6
CONTINUOUS
  0
LAYER
  2
55
 70
     0
 62
     7
  6
CONTINUOUS
  0
LAYER
  2
56
 70
     0
 62
     7
  6
CONTINUOUS
  0
LAYER
  2
57
 70
     0
 62
     7
  6
CONTINUOUS
  0
LAYER
  2
58
 70
     0
 62
     7
  6
CONTINUOUS
  0
LAYER
  2
59
 70
     0
 62
     7
  6
CONTINUOUS
  0
LAYER
  2
60
 70
     0
 62
     7
  6
CONTINUOUS
  0
LAYER
  2
61
 70
     0
 62
     7
  6
CONTINUOUS
  0
LAYER
  2
62
 70
     0
 62
     7
  6
CONTINUOUS
  0
LAYER
  2
63
 70
     0
 62
     7
  6
CONTINUOUS
  0
LAYER
  2
64
 70
     0
 62
     7
  6
CONTINUOUS
  0
LAYER
  2
65
 70
     0
 62
     7
  6
CONTINUOUS
  0
LAYER
  2
66
 70
     0
 62
     7
  6
CONTINUOUS
  0
LAYER
  2
67
 70
     0
 62
     7
  6
CONTINUOUS
  0
LAYER
  2
68
 70
     0
 62
     7
  6
CONTINUOUS
  0
LAYER
  2
69
 70
     0
 62
     7
  6
CONTINUOUS
  0
LAYER
  2
70
 70
     0
 62
     7
  6
CONTINUOUS
  0
LAYER
  2
71
 70
     0
 62
     7
  6
CONTINUOUS
  0
LAYER
  2
72
 70
     0
 62
     7
  6
CONTINUOUS
  0
LAYER
  2
73
 70
     0
 62
     7
  6
CONTINUOUS
  0
LAYER
  2
74
 70
     0
 62
     7
  6
CONTINUOUS
  0
LAYER
  2
75
 70
     0
 62
     7
  6
CONTINUOUS
  0
LAYER
  2
76
 70
     0
 62
     7
  6
CONTINUOUS
  0
LAYER
  2
77
 70
     0
 62
     7
  6
CONTINUOUS
  0
LAYER
  2
78
 70
     0
 62
     7
  6
CONTINUOUS
  0
LAYER
  2
79
 70
     0
 62
     7
  6
CONTINUOUS
  0
LAYER
  2
80
 70
     0
 62
     7
  6
CONTINUOUS
  0
LAYER
  2
81
 70
     0
 62
     7
  6
CONTINUOUS
  0
LAYER
  2
82
 70
     0
 62
     7
  6
CONTINUOUS
  0
LAYER
  2
83
 70
     0
 62
     7
  6
CONTINUOUS
  0
LAYER
  2
84
 70
     0
 62
     7
  6
CONTINUOUS
  0
LAYER
  2
85
 70
     0
 62
     7
  6
CONTINUOUS
  0
LAYER
  2
86
 70
     0
 62
     7
  6
CONTINUOUS
  0
LAYER
  2
87
 70
     0
 62
     7
  6
CONTINUOUS
  0
LAYER
  2
88
 70
     0
 62
     7
  6
CONTINUOUS
  0
LAYER
  2
89
 70
     0
 62
     7
  6
CONTINUOUS
  0
LAYER
  2
90
 70
     0
 62
     7
  6
CONTINUOUS
  0
LAYER
  2
91
 70
     0
 62
     7
  6
CONTINUOUS
  0
LAYER
  2
92
 70
     0
 62
     7
  6
CONTINUOUS
  0
LAYER
  2
93
 70
     0
 62
     7
  6
CONTINUOUS
  0
LAYER
  2
94
 70
     0
 62
     7
  6
CONTINUOUS
  0
LAYER
  2
95
 70
     0
 62
     7
  6
CONTINUOUS
  0
LAYER
  2
96
 70
     0
 62
     7
  6
CONTINUOUS
  0
LAYER
  2
97
 70
     0
 62
     7
  6
CONTINUOUS
  0
LAYER
  2
98
 70
     0
 62
     7
  6
CONTINUOUS
  0
LAYER
  2
99
 70
     0
 62
     7
  6
CONTINUOUS
  0
LAYER
  2
100
 70
     0
 62
     7
  6
CONTINUOUS
  0
LAYER
  2
101
 70
     0
 62
     7
  6
CONTINUOUS
  0
LAYER
  2
102
 70
     0
 62
     7
  6
CONTINUOUS
  0
LAYER
  2
103
 70
     0
 62
     7
  6
CONTINUOUS
  0
LAYER
  2
104
 70
     0
 62
     7
  6
CONTINUOUS
  0
LAYER
  2
105
 70
     0
 62
     7
  6
CONTINUOUS
  0
LAYER
  2
106
 70
     0
 62
     7
  6
CONTINUOUS
  0
LAYER
  2
107
 70
     0
 62
     7
  6
CONTINUOUS
  0
LAYER
  2
108
 70
     0
 62
     7
  6
CONTINUOUS
  0
LAYER
  2
109
 70
     0
 62
     7
  6
CONTINUOUS
  0
LAYER
  2
110
 70
     0
 62
     7
  6
CONTINUOUS
  0
LAYER
  2
111
 70
     0
 62
     7
  6
CONTINUOUS
  0
LAYER
  2
112
 70
     0
 62
     7
  6
CONTINUOUS
  0
LAYER
  2
113
 70
     0
 62
     7
  6
CONTINUOUS
  0
LAYER
  2
114
 70
     0
 62
     7
  6
CONTINUOUS
  0
LAYER
  2
115
 70
     0
 62
     7
  6
CONTINUOUS
  0
LAYER
  2
116
 70
     0
 62
     7
  6
CONTINUOUS
  0
LAYER
  2
117
 70
     0
 62
     7
  6
CONTINUOUS
  0
LAYER
  2
118
 70
     0
 62
     7
  6
CONTINUOUS
  0
LAYER
  2
119
 70
     0
 62
     7
  6
CONTINUOUS
  0
LAYER
  2
120
 70
     0
 62
     7
  6
CONTINUOUS
  0
LAYER
  2
121
 70
     0
 62
     7
  6
CONTINUOUS
  0
LAYER
  2
122
 70
     0
 62
     7
  6
CONTINUOUS
  0
LAYER
  2
123
 70
     0
 62
     7
  6
CONTINUOUS
  0
LAYER
  2
124
 70
     0
 62
     7
  6
CONTINUOUS
  0
LAYER
  2
125
 70
     0
 62
     7
  6
CONTINUOUS
  0
LAYER
  2
126
 70
     0
 62
     7
  6
CONTINUOUS
  0
LAYER
  2
127
 70
     0
 62
     7
  6
CONTINUOUS
  0
ENDTAB
  0
TABLE
  2
STYLE
 70
     5
  0
STYLE
  2
STANDARD
 70
     0
 40
0.0
 41
1.0
 50
0.0
 71
     0
 42
0.2
  3
txt
  4

  0
STYLE
  2
KANJI0
 70
     0
 40
16.0
 41
0.9
 50
0.0
 71
     0
 42
16.0
  3

  4
bigfont
  0
STYLE
  2
KANJI1
 70
     0
 40
12.0
 41
0.9
 50
0.0
 71
     0
 42
12.0
  3

  4
bigfont
  0
STYLE
  2
KANJI2
 70
     0
 40
12.0
 41
0.666666667
 50
0.0
 71
     0
 42
12.0
  3

  4
bigfont
  0
STYLE
  2
KANJI3
 70
     0
 40
7.2
 41
0.666666667
 50
0.0
 71
     0
 42
7.2
  3

  4
bigfont
  0
ENDTAB
  0
TABLE
  2
VIEW
 70
     0
  0
ENDTAB
  0
ENDSEC
  0
SECTION
  2
BLOCKS
  0
ENDSEC
  0
SECTION
  2
ENTITIES
  0
LINE
  8
0
  6
CONTINUOUS
 62
     1
 10
30.0
 20
30.0
 11
1160.0
 21
30.0
  0
LINE
  8
0
  6
CONTINUOUS
 62
     1
 10
1160.0
 20
30.0
 11
1160.0
 21
810.0
  0
LINE
  8
0
  6
CONTINUOUS
 62
     1
 10
1160.0
 20
810.0
 11
30.0
 21
810.0
  0
LINE
  8
0
  6
CONTINUOUS
 62
     1
 10
30.0
 20
810.0
 11
30.0
 21
30.0
  0
LINE
  8
0
  6
CONTINUOUS
 62
     1
 10
1160.0
 20
54.0
 11
880.0
 21
54.0
  0
LINE
  8
0
  6
CONTINUOUS
 62
     1
 10
880.0
 20
78.0
 11
1160.0
 21
78.0
  0
LINE
  8
0
  6
CONTINUOUS
 62
     1
 10
1160.0
 20
102.0
 11
880.0
 21
102.0
  0
LINE
  8
0
  6
CONTINUOUS
 62
     1
 10
880.0
 20
126.0
 11
1160.0
 21
126.0
  0
LINE
  8
0
  6
CONTINUOUS
 62
     1
 10
1160.0
 20
150.0
 11
880.0
 21
150.0
  0
LINE
  8
0
  6
CONTINUOUS
 62
     1
 10
880.0
 20
174.0
 11
1160.0
 21
174.0
  0
LINE
  8
0
  6
CONTINUOUS
 62
     1
 10
880.0
 20
174.0
 11
880.0
 21
30.0
  0
TEXT
  8
0
  6
CONTINUOUS
 62
     1
 10
900.0
 20
153.0
 30
1.6
 40
16.0
  1
ＳＰＡ－１４０－３００
 50
0.0
 41
0.9
 51
0.0
  7
KANJI0
  0
TEXT
  8
0
  6
CONTINUOUS
 62
     1
 10
900.0
 20
132.0
 30
1.2
 40
12.0
  1
スピーカ壁面取付金具
 50
0.0
 41
0.9
 51
0.0
  7
KANJI1
  0
TEXT
  8
0
  6
CONTINUOUS
 62
     1
 10
900.0
 20
108.0
 30
1.2
 40
12.0
  1
黒色半艶消し焼付け塗装
 50
0.0
 41
0.9
 51
0.0
  7
KANJI1
  0
TEXT
  8
0
  6
CONTINUOUS
 62
     1
 10
900.0
 20
84.0
 30
1.2
 40
12.0
  1
自重　　４，４ｋｇ
 50
0.0
 41
0.9
 51
0.0
  7
KANJI1
  0
TEXT
  8
0
  6
CONTINUOUS
 62
     1
 10
900.0
 20
60.0
 30
1.2
 40
12.0
  1
耐荷重　　２０ｋｇ（程度迄）
 50
0.0
 41
0.9
 51
0.0
  7
KANJI1
  0
LINE
  8
0
  6
CONTINUOUS
 62
     3
 10
570.0
 20
530.0
 11
570.0
 21
680.0
  0
LINE
  8
0
  6
CONTINUOUS
 62
     3
 10
570.0
 20
526.8
 11
570.0
 21
530.0
  0
LINE
  8
0
  6
CONTINUOUS
 62
     3
 10
570.0
 20
530.0
 11
573.2
 21
530.0
  0
LINE
  8
0
  6
CONTINUOUS
 62
     3
 10
573.2
 20
530.0
 11
573.2
 21
680.0
  0
LINE
  8
0
  6
CONTINUOUS
 62
     3
 10
573.2
 20
680.0
 11
570.0
 21
680.0
  0
LINE
  8
0
  6
CONTINUOUS
 62
     3
 10
570.0
 20
243.2
 11
570.0
 21
275.0
  0
LINE
  8
0
  6
CONTINUOUS
 62
     3
 10
570.0
 20
275.0
 11
573.2
 21
275.0
  0
LINE
  8
0
  6
CONTINUOUS
 62
     3
 10
573.2
 20
275.0
 11
573.2
 21
243.2
  0
POINT
  8
0
  6
CONTINUOUS
 62
     3
 10
570.0
 20
240.0
  0
ARC
  8
0
  6
CONTINUOUS
 62
     3
 10
570.0
 20
243.2
 40
3.2
 50
270.0
 51
0.0
  0
LINE
  8
0
  6
CONTINUOUS
 62
     3
 10
570.0
 20
186.8
 11
570.0
 21
155.0
  0
LINE
  8
0
  6
CONTINUOUS
 62
     3
 10
570.0
 20
155.0
 11
573.2
 21
155.0
  0
LINE
  8
0
  6
CONTINUOUS
 62
     3
 10
573.2
 20
155.0
 11
573.2
 21
186.8
  0
POINT
  8
0
  6
CONTINUOUS
 62
     3
 10
570.0
 20
190.0
  0
ARC
  8
0
  6
CONTINUOUS
 62
     3
 10
570.0
 20
186.8
 40
3.2
 50
0.0
 51
90.0
  0
LINE
  8
0
  6
CONTINUOUS
 62
     3
 10
570.0
 20
186.8
 11
570.0
 21
200.0
  0
ARC
  8
0
  6
CONTINUOUS
 62
     3
 10
270.0
 20
140.0
 40
4.5
 50
180.0
 51
0.0
  0
ARC
  8
0
  6
CONTINUOUS
 62
     3
 10
270.0
 20
155.0
 40
4.5
 50
0.0
 51
180.0
  0
LINE
  8
0
  6
CONTINUOUS
 62
     3
 10
265.5
 20
140.0
 11
265.5
 21
155.0
  0
LINE
  8
0
  6
CONTINUOUS
 62
     3
 10
274.5
 20
155.0
 11
274.5
 21
140.0
  0
ARC
  8
0
  6
CONTINUOUS
 62
     3
 10
270.0
 20
275.0
 40
4.5
 50
180.0
 51
0.0
  0
ARC
  8
0
  6
CONTINUOUS
 62
     3
 10
270.0
 20
290.0
 40
4.5
 50
0.0
 51
180.0
  0
LINE
  8
0
  6
CONTINUOUS
 62
     3
 10
265.5
 20
275.0
 11
265.5
 21
290.0
  0
LINE
  8
0
  6
CONTINUOUS
 62
     3
 10
274.5
 20
290.0
 11
274.5
 21
275.0
  0
CIRCLE
  8
0
  6
CONTINUOUS
 62
     1
 10
247.0
 20
251.0
 40
4.0
  0
CIRCLE
  8
0
  6
CONTINUOUS
 62
     1
 10
293.0
 20
251.0
 40
4.0
  0
CIRCLE
  8
0
  6
CONTINUOUS
 62
     1
 10
293.0
 20
178.0
 40
4.0
  0
CIRCLE
  8
0
  6
CONTINUOUS
 62
     1
 10
247.0
 20
178.0
 40
4.0
  0
LINE
  8
0
  6
CONTINUOUS
 62
     3
 10
230.0
 20
564.978466374
 11
230.0
 21
529.978466374
  0
CIRCLE
  8
0
  6
CONTINUOUS
 62
     3
 10
240.0
 20
545.0
 40
4.0
  0
CIRCLE
  8
0
  6
CONTINUOUS
 62
     1
 10
240.0
 20
545.0
 40
9.0
  0
CIRCLE
  8
0
  6
CONTINUOUS
 62
     1
 10
240.0
 20
545.0
 40
3.5
  0
CIRCLE
  8
0
  6
CONTINUOUS
 62
     1
 10
240.0
 20
545.0
 40
6.5
  0
LINE
  8
0
  6
CONTINUOUS
 62
     1
 10
246.5
 20
548.8
 11
240.0
 21
552.5
  0
LINE
  8
0
  6
CONTINUOUS
 62
     1
 10
240.0
 20
552.5
 11
233.5
 21
548.8
  0
LINE
  8
0
  6
CONTINUOUS
 62
     1
 10
233.5
 20
548.8
 11
233.5
 21
541.2
  0
LINE
  8
0
  6
CONTINUOUS
 62
     1
 10
233.5
 20
541.2
 11
240.0
 21
537.5
  0
LINE
  8
0
  6
CONTINUOUS
 62
     1
 10
240.0
 20
537.5
 11
246.5
 21
541.2
  0
LINE
  8
0
  6
CONTINUOUS
 62
     1
 10
246.5
 20
541.2
 11
246.5
 21
548.8
  0
LINE
  8
0
  6
LTYPE1
 62
     1
 10
230.0
 20
533.2
 11
570.0
 21
533.2
  0
LINE
  8
0
  6
CONTINUOUS
 62
     3
 10
230.0
 20
526.778466374
 11
570.0
 21
526.778466374
  0
LINE
  8
0
  6
CONTINUOUS
 62
     3
 10
230.0
 20
529.978466374
 11
230.0
 21
526.778466374
  0
LINE
  8
0
  6
CONTINUOUS
 62
     3
 10
314.2
 20
243.2
 11
570.0
 21
243.2
  0
LINE
  8
0
  6
LTYPE1
 62
     1
 10
570.0
 20
240.0
 11
314.2
 21
240.0
  0
LINE
  8
0
  6
CONTINUOUS
 62
     3
 10
570.0
 20
230.0
 11
314.2
 21
230.0
  0
LINE
  8
0
  6
CONTINUOUS
 62
     3
 10
570.0
 20
200.0
 11
314.2
 21
200.0
  0
LINE
  8
0
  6
LTYPE1
 62
     1
 10
570.0
 20
190.0
 11
314.2
 21
190.0
  0
LINE
  8
0
  6
CONTINUOUS
 62
     3
 10
314.2
 20
186.8
 11
570.0
 21
186.8
  0
LINE
  8
0
  6
LTYPE2
 62
     1
 10
215.0
 20
215.0
 11
580.0
 21
215.0
  0
LINE
  8
0
  6
CONTINUOUS
 62
     3
 10
570.0
 20
243.2
 11
570.0
 21
200.0
  0
LINE
  8
0
  6
LTYPE1
 62
     1
 10
375.880515116
 20
614.327460496
 11
376.905947648
 21
611.29620859
  0
LINE
  8
0
  6
LTYPE1
 62
     1
 10
376.905947648
 20
611.29620859
 11
410.060265378
 21
622.511876911
  0
LINE
  8
0
  6
LTYPE1
 62
     1
 10
410.060265378
 20
622.511876911
 11
409.034832845
 21
625.543128818
  0
LINE
  8
0
  6
LTYPE1
 62
     1
 10
251.788640186
 20
572.348816208
 11
252.814072718
 21
569.317564301
  0
LINE
  8
0
  6
LTYPE1
 62
     1
 10
252.814072718
 20
569.317564301
 11
285.968390447
 21
580.533232623
  0
LINE
  8
0
  6
LTYPE1
 62
     1
 10
285.968390447
 20
580.533232623
 11
284.942957915
 21
583.564484529
  0
LINE
  8
0
  6
LTYPE1
 62
     1
 10
570.0
 20
679.995521439
 11
230.001517106
 21
564.978519883
  0
LINE
  8
0
  6
LTYPE1
 62
     1
 10
536.04667275
 20
665.131416532
 11
569.200990479
 21
676.347084853
  0
LINE
  8
0
  6
LTYPE1
 62
     1
 10
569.200990479
 20
676.347084853
 11
568.175557947
 21
679.37833676
  0
LINE
  8
0
  6
CONTINUOUS
 62
     3
 10
570.068573282
 20
680.04071221
 11
569.04314075
 21
683.071964117
  0
LINE
  8
0
  6
CONTINUOUS
 62
     3
 10
228.976084574
 20
568.009771789
 11
569.04981681
 21
683.052229205
  0
LINE
  8
0
  6
LTYPE1
 62
     1
 10
535.021240217
 20
668.162668439
 11
536.04667275
 21
665.131416532
  0
LINE
  8
0
  6
CONTINUOUS
 62
     3
 10
230.0
 20
565.0
 11
228.974567468
 21
568.031251907
  0
LINE
  8
0
  6
CONTINUOUS
 62
     3
 10
314.2
 20
310.0
 11
225.8
 21
310.0
  0
LINE
  8
0
  6
CONTINUOUS
 62
     3
 10
225.8
 20
120.0
 11
314.2
 21
120.0
  0
LINE
  8
0
  6
LTYPE3
 62
     1
 10
229.0
 20
120.0
 11
229.0
 21
310.0
  0
LINE
  8
0
  6
CONTINUOUS
 62
     3
 10
225.8
 20
310.0
 11
225.8
 21
120.0
  0
LINE
  8
0
  6
CONTINUOUS
 62
     3
 10
314.2
 20
120.0
 11
314.2
 21
310.0
  0
LINE
  8
0
  6
LTYPE3
 62
     1
 10
311.0
 20
310.0
 11
311.0
 21
120.0
  0
LINE
  8
0
  6
CONTINUOUS
 62
     3
 10
258.0
 20
526.778466374
 11
282.0
 21
526.778466374
  0
LINE
  8
0
  6
CONTINUOUS
 62
     3
 10
294.0
 20
526.778466374
 11
294.0
 21
522.778466374
  0
LINE
  8
0
  6
CONTINUOUS
 62
     3
 10
294.0
 20
522.778466374
 11
246.0
 21
522.778466374
  0
LINE
  8
0
  6
CONTINUOUS
 62
     3
 10
246.0
 20
522.778466374
 11
246.0
 21
526.778466374
  0
LINE
  8
0
  6
CONTINUOUS
 62
     3
 10
288.8
 20
522.778466374
 11
290.8
 21
521.778466374
  0
LINE
  8
0
  6
CONTINUOUS
 62
     3
 10
290.8
 20
521.778466374
 11
290.8
 21
509.778466374
  0
LINE
  8
0
  6
CONTINUOUS
 62
     3
 10
290.8
 20
509.778466374
 11
288.8
 21
508.778466374
  0
LINE
  8
0
  6
CONTINUOUS
 62
     3
 10
288.8
 20
508.778466374
 11
251.2
 21
508.778466374
  0
LINE
  8
0
  6
CONTINUOUS
 62
     3
 10
251.2
 20
508.778466374
 11
249.2
 21
509.778466374
  0
LINE
  8
0
  6
CONTINUOUS
 62
     3
 10
249.2
 20
509.778466374
 11
249.2
 21
521.778466374
  0
LINE
  8
0
  6
CONTINUOUS
 62
     3
 10
249.2
 20
521.778466374
 11
251.2
 21
522.778466374
  0
LINE
  8
0
  6
CONTINUOUS
 62
     3
 10
282.0
 20
508.778466374
 11
282.0
 21
505.178466374
  0
LINE
  8
0
  6
CONTINUOUS
 62
     3
 10
282.0
 20
505.178466374
 11
281.0
 21
504.178466374
  0
LINE
  8
0
  6
CONTINUOUS
 62
     3
 10
259.0
 20
504.178466374
 11
258.0
 21
505.178466374
  0
LINE
  8
0
  6
CONTINUOUS
 62
     3
 10
258.0
 20
505.178466374
 11
258.0
 21
508.778466374
  0
LINE
  8
0
  6
CONTINUOUS
 62
     3
 10
225.8
 20
427.978466374
 11
229.0
 21
427.978466374
  0
LINE
  8
0
  6
CONTINUOUS
 62
     3
 10
229.0
 20
427.978466374
 11
229.0
 21
421.178466374
  0
LINE
  8
0
  6
CONTINUOUS
 62
     3
 10
229.0
 20
421.178466374
 11
311.0
 21
421.178466374
  0
LINE
  8
0
  6
CONTINUOUS
 62
     3
 10
311.0
 20
421.178466374
 11
311.0
 21
427.978466374
  0
LINE
  8
0
  6
CONTINUOUS
 62
     3
 10
311.0
 20
427.978466374
 11
314.2
 21
427.978466374
  0
LINE
  8
0
  6
CONTINUOUS
 62
     3
 10
314.2
 20
427.978466374
 11
314.2
 21
420.978466374
  0
ARC
  8
0
  6
CONTINUOUS
 62
     3
 10
311.2
 20
420.978466374
 40
3.0
 50
270.0
 51
0.0
  0
LINE
  8
0
  6
CONTINUOUS
 62
     3
 10
311.2
 20
417.978466374
 11
228.8
 21
417.978466374
  0
ARC
  8
0
  6
CONTINUOUS
 62
     3
 10
228.8
 20
420.978466374
 40
3.0
 50
180.0
 51
270.0
  0
LINE
  8
0
  6
CONTINUOUS
 62
     3
 10
225.8
 20
420.978466374
 11
225.8
 21
427.978466374
  0
LINE
  8
0
  6
CONTINUOUS
 62
     3
 10
310.0
 20
421.178466374
 11
310.0
 21
423.178466374
  0
LINE
  8
0
  6
CONTINUOUS
 62
     3
 10
310.0
 20
423.178466374
 11
230.0
 21
423.178466374
  0
LINE
  8
0
  6
CONTINUOUS
 62
     3
 10
230.0
 20
423.178466374
 11
230.0
 21
421.178466374
  0
LINE
  8
0
  6
CONTINUOUS
 62
     3
 10
230.0
 20
423.178466374
 11
230.0
 21
458.178466374
  0
LINE
  8
0
  6
CONTINUOUS
 62
     3
 10
310.0
 20
458.178466374
 11
310.0
 21
423.178466374
  0
ARC
  8
0
  6
CONTINUOUS
 62
     3
 10
270.0
 20
458.178466374
 40
40.0
 50
0.0
 51
180.0
  0
CIRCLE
  8
0
  6
CONTINUOUS
 62
     3
 10
270.0
 20
488.278466374
 40
4.0
  0
CIRCLE
  8
0
  6
CONTINUOUS
 62
     3
 10
270.0
 20
458.278466374
 40
4.0
  0
ARC
  8
0
  6
CONTINUOUS
 62
     3
 10
300.0
 20
458.178466374
 40
4.5
 50
270.0
 51
0.0
  0
ARC
  8
0
  6
CONTINUOUS
 62
     3
 10
300.0
 20
458.178466374
 40
4.5
 50
180.0
 51
270.0
  0
ARC
  8
0
  6
CONTINUOUS
 62
     3
 10
270.0
 20
458.178466374
 40
25.5
 50
0.0
 51
74.1
  0
ARC
  8
0
  6
CONTINUOUS
 62
     3
 10
270.0
 20
458.178466374
 40
34.5
 50
0.0
 51
75.9
  0
LINE
  8
0
  6
CONTINUOUS
 62
     3
 10
253.0
 20
501.178466374
 11
287.0
 21
501.178466374
  0
LINE
  8
0
  6
CONTINUOUS
 62
     3
 10
287.0
 20
501.178466374
 11
287.0
 21
494.378466374
  0
LINE
  8
0
  6
CONTINUOUS
 62
     3
 10
253.0
 20
494.378466374
 11
253.0
 21
501.178466374
  0
LINE
  8
0
  6
CONTINUOUS
 62
     3
 10
287.5
 20
423.178466374
 11
287.5
 21
424.178466374
  0
ARC
  8
0
  6
CONTINUOUS
 62
     3
 10
288.5
 20
424.178466374
 40
1.0
 50
90.0
 51
180.0
  0
LINE
  8
0
  6
CONTINUOUS
 62
     3
 10
288.5
 20
425.178466374
 11
297.5
 21
425.178466374
  0
ARC
  8
0
  6
CONTINUOUS
 62
     3
 10
297.5
 20
424.178466374
 40
1.0
 50
0.0
 51
90.0
  0
LINE
  8
0
  6
CONTINUOUS
 62
     3
 10
298.5
 20
424.178466374
 11
298.5
 21
423.178466374
  0
LINE
  8
0
  6
CONTINUOUS
 62
     3
 10
241.5
 20
423.178466374
 11
241.5
 21
424.178466374
  0
ARC
  8
0
  6
CONTINUOUS
 62
     3
 10
242.5
 20
424.178466374
 40
1.0
 50
90.0
 51
180.0
  0
LINE
  8
0
  6
CONTINUOUS
 62
     3
 10
242.5
 20
425.178466374
 11
251.5
 21
425.178466374
  0
ARC
  8
0
  6
CONTINUOUS
 62
     3
 10
251.5
 20
424.178466374
 40
1.0
 50
0.0
 51
90.0
  0
LINE
  8
0
  6
CONTINUOUS
 62
     3
 10
252.5
 20
424.178466374
 11
252.5
 21
423.178466374
  0
CIRCLE
  8
0
  6
CONTINUOUS
 62
     1
 10
270.0
 20
488.278466374
 40
3.5
  0
CIRCLE
  8
0
  6
CONTINUOUS
 62
     1
 10
270.0
 20
488.278466374
 40
6.5
  0
CIRCLE
  8
0
  6
CONTINUOUS
 62
     1
 10
270.0
 20
458.278466374
 40
3.5
  0
CIRCLE
  8
0
  6
CONTINUOUS
 62
     1
 10
270.0
 20
458.278466374
 40
6.5
  0
ARC
  8
0
  6
CONTINUOUS
 62
     1
 10
270.0
 20
488.178466374
 40
13.0
 50
327.3
 51
8.9
  0
ARC
  8
0
  6
CONTINUOUS
 62
     1
 10
270.0
 20
488.178466374
 40
13.0
 50
42.8
 51
137.2
  0
LINE
  8
0
  6
CONTINUOUS
 62
     1
 10
256.0
 20
522.778466374
 11
258.0
 21
521.778466374
  0
LINE
  8
0
  6
CONTINUOUS
 62
     1
 10
258.0
 20
521.778466374
 11
258.0
 21
509.778466374
  0
LINE
  8
0
  6
CONTINUOUS
 62
     1
 10
258.0
 20
509.778466374
 11
256.0
 21
508.778466374
  0
LINE
  8
0
  6
CONTINUOUS
 62
     1
 10
260.0
 20
508.778466374
 11
258.0
 21
509.778466374
  0
LINE
  8
0
  6
CONTINUOUS
 62
     1
 10
280.0
 20
508.778466374
 11
282.0
 21
509.778466374
  0
LINE
  8
0
  6
CONTINUOUS
 62
     1
 10
282.0
 20
509.778466374
 11
284.0
 21
508.778466374
  0
LINE
  8
0
  6
CONTINUOUS
 62
     1
 10
282.0
 20
509.778466374
 11
282.0
 21
521.778466374
  0
LINE
  8
0
  6
CONTINUOUS
 62
     1
 10
282.0
 20
521.778466374
 11
284.0
 21
522.778466374
  0
LINE
  8
0
  6
CONTINUOUS
 62
     1
 10
280.0
 20
522.778466374
 11
282.0
 21
521.778466374
  0
LINE
  8
0
  6
CONTINUOUS
 62
     1
 10
260.0
 20
522.778466374
 11
258.0
 21
521.778466374
  0
LINE
  8
0
  6
CONTINUOUS
 62
     3
 10
281.0
 20
501.178466374
 11
281.0
 21
504.178466374
  0
LINE
  8
0
  6
CONTINUOUS
 62
     3
 10
259.0
 20
504.178466374
 11
259.0
 21
501.178466374
  0
LINE
  8
0
  6
CONTINUOUS
 62
     1
 10
259.0
 20
508.778466374
 11
259.0
 21
504.178466374
  0
LINE
  8
0
  6
CONTINUOUS
 62
     1
 10
281.0
 20
504.178466374
 11
281.0
 21
508.778466374
  0
LINE
  8
0
  6
CONTINUOUS
 62
     1
 10
258.0
 20
505.178466374
 11
282.0
 21
505.178466374
  0
LINE
  8
0
  6
CONTINUOUS
 62
     1
 10
281.0
 20
504.178466374
 11
259.0
 21
504.178466374
  0
CIRCLE
  8
0
  6
CONTINUOUS
 62
     3
 10
270.0
 20
488.278466374
 40
9.0
  0
LINE
  8
0
  6
CONTINUOUS
 62
     3
 10
277.5
 20
488.278466374
 11
273.8
 21
494.778466374
  0
LINE
  8
0
  6
CONTINUOUS
 62
     3
 10
273.8
 20
494.778466374
 11
266.2
 21
494.778466374
  0
LINE
  8
0
  6
CONTINUOUS
 62
     3
 10
273.8
 20
481.778466374
 11
277.5
 21
488.278466374
  0
LINE
  8
0
  6
CONTINUOUS
 62
     3
 10
266.2
 20
481.778466374
 11
273.8
 21
481.778466374
  0
LINE
  8
0
  6
CONTINUOUS
 62
     3
 10
266.2
 20
494.778466374
 11
262.5
 21
488.278466374
  0
LINE
  8
0
  6
CONTINUOUS
 62
     3
 10
262.5
 20
488.278466374
 11
266.2
 21
481.778466374
  0
LINE
  8
0
  6
CONTINUOUS
 62
     3
 10
287.0
 20
488.128466374
 11
287.0
 21
477.178466374
  0
CIRCLE
  8
0
  6
CONTINUOUS
 62
     3
 10
270.0
 20
458.278466374
 40
9.0
  0
LINE
  8
0
  6
CONTINUOUS
 62
     3
 10
277.5
 20
458.278466374
 11
273.8
 21
464.778466374
  0
LINE
  8
0
  6
CONTINUOUS
 62
     3
 10
273.8
 20
464.778466374
 11
266.2
 21
464.778466374
  0
LINE
  8
0
  6
CONTINUOUS
 62
     3
 10
273.8
 20
451.778466374
 11
277.5
 21
458.278466374
  0
LINE
  8
0
  6
CONTINUOUS
 62
     3
 10
266.2
 20
451.778466374
 11
273.8
 21
451.778466374
  0
LINE
  8
0
  6
CONTINUOUS
 62
     3
 10
262.5
 20
458.278466374
 11
266.2
 21
451.778466374
  0
LINE
  8
0
  6
CONTINUOUS
 62
     3
 10
266.2
 20
464.778466374
 11
262.5
 21
458.278466374
  0
LINE
  8
0
  6
LTYPE2
 62
     1
 10
270.0
 20
265.0
 11
270.0
 21
300.0
  0
LINE
  8
0
  6
LTYPE2
 62
     1
 10
270.0
 20
130.0
 11
270.0
 21
165.0
  0
LINE
  8
0
  6
CONTINUOUS
 62
     1
 10
570.0
 20
685.0
 11
570.0
 21
754.0
  0
LINE
  8
0
  6
CONTINUOUS
 62
     1
 10
570.0
 20
750.0
 11
566.136296695
 21
751.03527618
  0
LINE
  8
0
  6
CONTINUOUS
 62
     1
 10
570.0
 20
750.0
 11
566.136296695
 21
748.96472382
  0
LINE
  8
0
  6
CONTINUOUS
 62
     1
 10
570.0
 20
750.0
 11
230.0
 21
750.0
  0
LINE
  8
0
  6
CONTINUOUS
 62
     1
 10
230.0
 20
750.0
 11
233.863703305
 21
748.96472382
  0
LINE
  8
0
  6
CONTINUOUS
 62
     1
 10
230.0
 20
750.0
 11
233.863703305
 21
751.03527618
  0
LINE
  8
0
  6
CONTINUOUS
 62
     1
 10
230.0
 20
575.0
 11
230.0
 21
754.0
  0
TEXT
  8
0
  6
CONTINUOUS
 62
     1
 10
383.2
 20
754.0
 30
0.0
 40
12.0
  1
３４０
 50
0.0
 41
0.666666667
 51
0.0
  7
KANJI2
  0
TEXT
  8
0
  6
CONTINUOUS
 62
     1
 10
407.2
 20
754.0
 30
0.0
 40
7.2
  1
±３
 50
0.0
 41
0.666666667
 51
0.0
  7
KANJI3
  0
LINE
  8
0
  6
CONTINUOUS
 62
     1
 10
230.0
 20
720.0
 11
233.863703305
 21
718.96472382
  0
LINE
  8
0
  6
CONTINUOUS
 62
     1
 10
230.0
 20
720.0
 11
233.863703305
 21
721.03527618
  0
LINE
  8
0
  6
CONTINUOUS
 62
     1
 10
230.0
 20
720.0
 11
270.0
 21
720.0
  0
LINE
  8
0
  6
CONTINUOUS
 62
     1
 10
270.0
 20
720.0
 11
266.136296695
 21
721.03527618
  0
LINE
  8
0
  6
CONTINUOUS
 62
     1
 10
270.0
 20
720.0
 11
266.136296695
 21
718.96472382
  0
TEXT
  8
0
  6
CONTINUOUS
 62
     1
 10
242.0
 20
724.0
 30
0.0
 40
12.0
  1
４０
 50
0.0
 41
0.666666667
 51
0.0
  7
KANJI2
  0
LINE
  8
0
  6
CONTINUOUS
 62
     1
 10
270.0
 20
720.0
 11
273.863703305
 21
718.96472382
  0
LINE
  8
0
  6
CONTINUOUS
 62
     1
 10
270.0
 20
720.0
 11
273.863703305
 21
721.03527618
  0
LINE
  8
0
  6
CONTINUOUS
 62
     1
 10
270.0
 20
720.0
 11
570.0
 21
720.0
  0
LINE
  8
0
  6
CONTINUOUS
 62
     1
 10
570.0
 20
720.0
 11
566.136296695
 21
721.03527618
  0
LINE
  8
0
  6
CONTINUOUS
 62
     1
 10
570.0
 20
720.0
 11
566.136296695
 21
718.96472382
  0
TEXT
  8
0
  6
CONTINUOUS
 62
     1
 10
403.2
 20
724.0
 30
0.0
 40
12.0
  1
３００
 50
0.0
 41
0.666666667
 51
0.0
  7
KANJI2
  0
TEXT
  8
0
  6
CONTINUOUS
 62
     1
 10
427.2
 20
724.0
 30
0.0
 40
7.2
  1
±３
 50
0.0
 41
0.666666667
 51
0.0
  7
KANJI3
  0
LINE
  8
0
  6
LTYPE2
 62
     1
 10
270.0
 20
448.0
 11
270.0
 21
724.0
  0
ARC
  8
0
  6
CONTINUOUS
 62
     1
 10
270.0
 20
458.0
 40
60.0
 50
0.0
 51
90.0
  0
LINE
  8
0
  6
CONTINUOUS
 62
     1
 10
330.0
 20
458.0
 11
331.03527618
 21
461.863703305
  0
LINE
  8
0
  6
CONTINUOUS
 62
     1
 10
330.0
 20
458.0
 11
328.96472382
 21
461.863703305
  0
LINE
  8
0
  6
CONTINUOUS
 62
     1
 10
270.0
 20
518.0
 11
273.863703305
 21
516.96472382
  0
LINE
  8
0
  6
CONTINUOUS
 62
     1
 10
270.0
 20
518.0
 11
273.863703305
 21
519.03527618
  0
TEXT
  8
0
  6
CONTINUOUS
 62
     1
 10
306.769552622
 20
511.74011537
 30
0.0
 40
12.0
  1
９０゜
 50
315.0
 41
0.666666667
 51
0.0
  7
KANJI2
  0
LINE
  8
0
  6
CONTINUOUS
 62
     1
 10
260.0
 20
458.0
 11
334.0
 21
458.0
  0
LINE
  8
0
  6
CONTINUOUS
 62
     1
 10
225.8
 20
315.0
 11
225.8
 21
379.0
  0
LINE
  8
0
  6
CONTINUOUS
 62
     1
 10
225.8
 20
375.0
 11
229.663703305
 21
373.96472382
  0
LINE
  8
0
  6
CONTINUOUS
 62
     1
 10
225.8
 20
375.0
 11
229.663703305
 21
376.03527618
  0
LINE
  8
0
  6
CONTINUOUS
 62
     1
 10
225.8
 20
375.0
 11
314.2
 21
375.0
  0
LINE
  8
0
  6
CONTINUOUS
 62
     1
 10
314.2
 20
375.0
 11
310.336296695
 21
376.03527618
  0
LINE
  8
0
  6
CONTINUOUS
 62
     1
 10
314.2
 20
375.0
 11
310.336296695
 21
373.96472382
  0
LINE
  8
0
  6
CONTINUOUS
 62
     1
 10
314.2
 20
315.0
 11
314.2
 21
379.0
  0
TEXT
  8
0
  6
CONTINUOUS
 62
     1
 10
257.2
 20
379.0
 30
0.0
 40
12.0
  1
８８
 50
0.0
 41
0.666666667
 51
0.0
  7
KANJI2
  0
TEXT
  8
0
  6
CONTINUOUS
 62
     1
 10
273.2
 20
379.0
 30
0.0
 40
7.2
  1
±１
 50
0.0
 41
0.666666667
 51
0.0
  7
KANJI3
  0
LINE
  8
0
  6
CONTINUOUS
 62
     1
 10
265.5
 20
295.000005395
 11
265.5
 21
349.0
  0
LINE
  8
0
  6
CONTINUOUS
 62
     1
 10
265.5
 20
345.0
 11
269.363703305
 21
343.96472382
  0
LINE
  8
0
  6
CONTINUOUS
 62
     1
 10
265.5
 20
345.0
 11
269.363703305
 21
346.03527618
  0
LINE
  8
0
  6
CONTINUOUS
 62
     1
 10
265.5
 20
345.0
 11
274.5
 21
345.0
  0
LINE
  8
0
  6
CONTINUOUS
 62
     1
 10
274.5
 20
345.0
 11
270.636296695
 21
346.03527618
  0
LINE
  8
0
  6
CONTINUOUS
 62
     1
 10
274.5
 20
345.0
 11
270.636296695
 21
343.96472382
  0
LINE
  8
0
  6
CONTINUOUS
 62
     1
 10
274.5
 20
295.000005395
 11
274.5
 21
349.0
  0
TEXT
  8
0
  6
CONTINUOUS
 62
     1
 10
266.0
 20
349.0
 30
0.0
 40
12.0
  1
９
 50
0.0
 41
0.666666667
 51
0.0
  7
KANJI2
  0
LINE
  8
0
  6
CONTINUOUS
 62
     1
 10
275.0
 20
275.0
 11
191.0
 21
275.0
  0
LINE
  8
0
  6
CONTINUOUS
 62
     1
 10
195.0
 20
275.0
 11
193.96472382
 21
271.136296695
  0
LINE
  8
0
  6
CONTINUOUS
 62
     1
 10
195.0
 20
275.0
 11
196.03527618
 21
271.136296695
  0
LINE
  8
0
  6
CONTINUOUS
 62
     1
 10
195.0
 20
275.0
 11
195.0
 21
155.0
  0
LINE
  8
0
  6
CONTINUOUS
 62
     1
 10
195.0
 20
155.0
 11
196.03527618
 21
158.863703305
  0
LINE
  8
0
  6
CONTINUOUS
 62
     1
 10
195.0
 20
155.0
 11
193.96472382
 21
158.863703305
  0
LINE
  8
0
  6
CONTINUOUS
 62
     1
 10
275.0
 20
155.0
 11
191.0
 21
155.0
  0
TEXT
  8
0
  6
CONTINUOUS
 62
     1
 10
191.0
 20
203.0
 30
0.0
 40
12.0
  1
１２０
 50
90.0
 41
0.666666667
 51
0.0
  7
KANJI2
  0
LINE
  8
0
  6
CONTINUOUS
 62
     1
 10
275.0
 20
140.0
 11
161.0
 21
140.0
  0
LINE
  8
0
  6
CONTINUOUS
 62
     1
 10
165.0
 20
140.0
 11
166.03527618
 21
143.863703305
  0
LINE
  8
0
  6
CONTINUOUS
 62
     1
 10
165.0
 20
140.0
 11
163.96472382
 21
143.863703305
  0
LINE
  8
0
  6
CONTINUOUS
 62
     1
 10
165.0
 20
140.0
 11
165.0
 21
290.0
  0
LINE
  8
0
  6
CONTINUOUS
 62
     1
 10
165.0
 20
290.0
 11
163.96472382
 21
286.136296695
  0
LINE
  8
0
  6
CONTINUOUS
 62
     1
 10
165.0
 20
290.0
 11
166.03527618
 21
286.136296695
  0
LINE
  8
0
  6
CONTINUOUS
 62
     1
 10
275.0
 20
290.0
 11
161.0
 21
290.0
  0
TEXT
  8
0
  6
CONTINUOUS
 62
     1
 10
161.0
 20
203.0
 30
0.0
 40
12.0
  1
１５０
 50
90.0
 41
0.666666667
 51
0.0
  7
KANJI2
  0
LINE
  8
0
  6
CONTINUOUS
 62
     1
 10
570.0
 20
278.0
 11
570.0
 21
304.0
  0
LINE
  8
0
  6
CONTINUOUS
 62
     1
 10
570.0
 20
300.0
 11
566.136296695
 21
301.03527618
  0
LINE
  8
0
  6
CONTINUOUS
 62
     1
 10
570.0
 20
300.0
 11
566.136296695
 21
298.96472382
  0
LINE
  8
0
  6
CONTINUOUS
 62
     1
 10
538.0
 20
300.0
 11
581.2
 21
300.0
  0
LINE
  8
0
  6
CONTINUOUS
 62
     1
 10
573.2
 20
300.0
 11
577.063703305
 21
298.96472382
  0
LINE
  8
0
  6
CONTINUOUS
 62
     1
 10
573.2
 20
300.0
 11
577.063703305
 21
301.03527618
  0
LINE
  8
0
  6
CONTINUOUS
 62
     1
 10
573.2
 20
278.0
 11
573.2
 21
304.0
  0
TEXT
  8
0
  6
CONTINUOUS
 62
     1
 10
538.0
 20
304.0
 30
0.0
 40
12.0
  1
３．２
 50
0.0
 41
0.666666667
 51
0.0
  7
KANJI2
  0
LINE
  8
0
  6
CONTINUOUS
 62
     3
 10
880.0
 20
530.0
 11
870.0
 21
530.0
  0
LINE
  8
0
  6
CONTINUOUS
 62
     3
 10
870.0
 20
530.0
 11
870.0
 21
680.0
  0
LINE
  8
0
  6
CONTINUOUS
 62
     3
 10
870.0
 20
680.0
 11
880.0
 21
680.0
  0
LINE
  8
0
  6
CONTINUOUS
 62
     3
 10
880.0
 20
680.0
 11
880.0
 21
683.2
  0
LINE
  8
0
  6
CONTINUOUS
 62
     3
 10
880.0
 20
526.8
 11
880.0
 21
530.0
  0
ARC
  8
0
  6
CONTINUOUS
 62
     3
 10
870.0
 20
530.0
 40
3.2
 50
180.0
 51
270.0
  0
LINE
  8
0
  6
CONTINUOUS
 62
     3
 10
880.0
 20
683.2
 11
870.0
 21
683.2
  0
ARC
  8
0
  6
CONTINUOUS
 62
     3
 10
870.0
 20
680.0
 40
3.2
 50
90.0
 51
180.0
  0
LINE
  8
0
  6
CONTINUOUS
 62
     3
 10
845.0
 20
530.0
 11
870.0
 21
530.0
  0
ARC
  8
0
  6
CONTINUOUS
 62
     3
 10
845.0
 20
540.0
 40
10.0
 50
180.0
 51
270.0
  0
LINE
  8
0
  6
CONTINUOUS
 62
     3
 10
870.0
 20
680.0
 11
845.0
 21
680.0
  0
LINE
  8
0
  6
CONTINUOUS
 62
     3
 10
835.0
 20
670.0
 11
835.0
 21
540.0
  0
ARC
  8
0
  6
CONTINUOUS
 62
     3
 10
845.0
 20
670.0
 40
10.0
 50
90.0
 51
180.0
  0
LINE
  8
0
  6
LTYPE1
 62
     1
 10
866.8
 20
680.0
 11
866.8
 21
530.0
  0
LINE
  8
0
  6
CONTINUOUS
 62
     3
 10
910.0
 20
530.0
 11
920.0
 21
530.0
  0
LINE
  8
0
  6
CONTINUOUS
 62
     3
 10
920.0
 20
530.0
 11
920.0
 21
680.0
  0
LINE
  8
0
  6
CONTINUOUS
 62
     3
 10
920.0
 20
680.0
 11
910.0
 21
680.0
  0
LINE
  8
0
  6
CONTINUOUS
 62
     3
 10
910.0
 20
680.0
 11
910.0
 21
683.2
  0
LINE
  8
0
  6
CONTINUOUS
 62
     3
 10
910.0
 20
526.8
 11
910.0
 21
530.0
  0
LINE
  8
0
  6
CONTINUOUS
 62
     3
 10
920.0
 20
526.8
 11
910.0
 21
526.8
  0
ARC
  8
0
  6
CONTINUOUS
 62
     3
 10
920.0
 20
530.0
 40
3.2
 50
270.0
 51
0.0
  0
LINE
  8
0
  6
CONTINUOUS
 62
     3
 10
910.0
 20
683.2
 11
920.0
 21
683.2
  0
ARC
  8
0
  6
CONTINUOUS
 62
     3
 10
920.0
 20
680.0
 40
3.2
 50
0.0
 51
90.0
  0
LINE
  8
0
  6
CONTINUOUS
 62
     3
 10
945.0
 20
530.0
 11
920.0
 21
530.0
  0
ARC
  8
0
  6
CONTINUOUS
 62
     3
 10
945.0
 20
540.0
 40
10.0
 50
270.0
 51
0.0
  0
LINE
  8
0
  6
CONTINUOUS
 62
     3
 10
920.0
 20
680.0
 11
945.0
 21
680.0
  0
LINE
  8
0
  6
CONTINUOUS
 62
     3
 10
955.0
 20
670.0
 11
955.0
 21
540.0
  0
ARC
  8
0
  6
CONTINUOUS
 62
     3
 10
945.0
 20
670.0
 40
10.0
 50
0.0
 51
90.0
  0
LINE
  8
0
  6
LTYPE1
 62
     1
 10
923.2
 20
680.0
 11
923.2
 21
530.0
  0
LINE
  8
0
  6
CONTINUOUS
 62
     3
 10
880.0
 20
530.0
 11
910.0
 21
530.0
  0
LINE
  8
0
  6
CONTINUOUS
 62
     3
 10
870.0
 20
564.978466374
 11
880.0
 21
564.978466374
  0
LINE
  8
0
  6
CONTINUOUS
 62
     3
 10
871.0
 20
679.978466374
 11
871.0
 21
667.878466374
  0
LINE
  8
0
  6
CONTINUOUS
 62
     3
 10
871.0
 20
667.878466374
 11
919.0
 21
667.878466374
  0
LINE
  8
0
  6
CONTINUOUS
 62
     3
 10
919.0
 20
667.878466374
 11
919.0
 21
679.878466374
  0
LINE
  8
0
  6
CONTINUOUS
 62
     3
 10
880.0
 20
680.0
 11
910.0
 21
680.0
  0
LINE
  8
0
  6
CONTINUOUS
 62
     1
 10
919.0
 20
676.778466374
 11
871.0
 21
676.778466374
  0
LINE
  8
0
  6
CONTINUOUS
 62
     1
 10
871.0
 20
642.8
 11
919.0
 21
642.8
  0
LINE
  8
0
  6
CONTINUOUS
 62
     3
 10
895.0
 20
646.0
 11
871.0
 21
646.0
  0
LINE
  8
0
  6
CONTINUOUS
 62
     3
 10
871.0
 20
646.0
 11
871.0
 21
634.0
  0
LINE
  8
0
  6
CONTINUOUS
 62
     3
 10
871.0
 20
634.0
 11
919.0
 21
634.0
  0
LINE
  8
0
  6
CONTINUOUS
 62
     3
 10
919.0
 20
634.0
 11
919.0
 21
646.0
  0
LINE
  8
0
  6
CONTINUOUS
 62
     3
 10
919.0
 20
646.0
 11
895.0
 21
646.0
  0
LINE
  8
0
  6
CONTINUOUS
 62
     3
 10
880.0
 20
646.0
 11
880.0
 21
667.8
  0
LINE
  8
0
  6
CONTINUOUS
 62
     1
 10
871.0
 20
609.7
 11
919.0
 21
609.7
  0
LINE
  8
0
  6
CONTINUOUS
 62
     3
 10
895.0
 20
612.9
 11
871.0
 21
612.9
  0
LINE
  8
0
  6
CONTINUOUS
 62
     3
 10
871.0
 20
612.9
 11
871.0
 21
600.9
  0
LINE
  8
0
  6
CONTINUOUS
 62
     3
 10
871.0
 20
600.9
 11
919.0
 21
600.9
  0
LINE
  8
0
  6
CONTINUOUS
 62
     3
 10
919.0
 20
600.9
 11
919.0
 21
612.9
  0
LINE
  8
0
  6
CONTINUOUS
 62
     3
 10
919.0
 20
612.9
 11
895.0
 21
612.9
  0
LINE
  8
0
  6
CONTINUOUS
 62
     1
 10
871.0
 20
576.5
 11
919.0
 21
576.5
  0
LINE
  8
0
  6
CONTINUOUS
 62
     3
 10
895.0
 20
579.7
 11
871.0
 21
579.7
  0
LINE
  8
0
  6
CONTINUOUS
 62
     3
 10
871.0
 20
579.7
 11
871.0
 21
567.7
  0
LINE
  8
0
  6
CONTINUOUS
 62
     3
 10
871.0
 20
567.7
 11
919.0
 21
567.7
  0
LINE
  8
0
  6
CONTINUOUS
 62
     3
 10
919.0
 20
567.7
 11
919.0
 21
579.7
  0
LINE
  8
0
  6
CONTINUOUS
 62
     3
 10
919.0
 20
579.7
 11
895.0
 21
579.7
  0
LINE
  8
0
  6
CONTINUOUS
 62
     3
 10
880.0
 20
612.9
 11
880.0
 21
634.0
  0
LINE
  8
0
  6
CONTINUOUS
 62
     3
 10
880.0
 20
579.7
 11
880.0
 21
600.9
  0
LINE
  8
0
  6
CONTINUOUS
 62
     3
 10
880.0
 20
564.978466374
 11
880.0
 21
567.7
  0
LINE
  8
0
  6
CONTINUOUS
 62
     3
 10
920.0
 20
564.978466374
 11
910.0
 21
564.978466374
  0
LINE
  8
0
  6
CONTINUOUS
 62
     3
 10
910.0
 20
564.978466374
 11
910.0
 21
567.7
  0
LINE
  8
0
  6
CONTINUOUS
 62
     3
 10
910.0
 20
579.7
 11
910.0
 21
600.9
  0
LINE
  8
0
  6
CONTINUOUS
 62
     3
 10
910.0
 20
612.9
 11
910.0
 21
634.0
  0
LINE
  8
0
  6
CONTINUOUS
 62
     3
 10
910.0
 20
646.0
 11
910.0
 21
667.8
  0
LINE
  8
0
  6
CONTINUOUS
 62
     3
 10
870.0
 20
526.8
 11
910.0
 21
526.8
  0
LINE
  8
0
  6
CONTINUOUS
 62
     3
 10
920.2
 20
526.8
 11
869.8
 21
526.8
  0
LINE
  8
0
  6
CONTINUOUS
 62
     3
 10
919.0
 20
526.8
 11
919.0
 21
522.8
  0
LINE
  8
0
  6
CONTINUOUS
 62
     3
 10
919.0
 20
522.8
 11
871.0
 21
522.8
  0
LINE
  8
0
  6
CONTINUOUS
 62
     3
 10
871.0
 20
522.8
 11
871.0
 21
526.8
  0
LINE
  8
0
  6
CONTINUOUS
 62
     3
 10
913.8
 20
522.8
 11
915.8
 21
521.8
  0
LINE
  8
0
  6
CONTINUOUS
 62
     3
 10
915.8
 20
521.8
 11
915.8
 21
509.8
  0
LINE
  8
0
  6
CONTINUOUS
 62
     3
 10
915.8
 20
509.8
 11
913.8
 21
508.8
  0
LINE
  8
0
  6
CONTINUOUS
 62
     3
 10
913.8
 20
508.8
 11
876.2
 21
508.8
  0
LINE
  8
0
  6
CONTINUOUS
 62
     3
 10
876.2
 20
508.8
 11
874.2
 21
509.8
  0
LINE
  8
0
  6
CONTINUOUS
 62
     3
 10
874.2
 20
509.8
 11
874.2
 21
521.8
  0
LINE
  8
0
  6
CONTINUOUS
 62
     3
 10
874.2
 20
521.8
 11
876.2
 21
522.8
  0
LINE
  8
0
  6
CONTINUOUS
 62
     3
 10
875.0
 20
428.0
 11
875.0
 21
498.2
  0
LINE
  8
0
  6
CONTINUOUS
 62
     3
 10
875.0
 20
498.2
 11
873.0
 21
498.2
  0
LINE
  8
0
  6
CONTINUOUS
 62
     3
 10
873.0
 20
498.2
 11
873.0
 21
428.0
  0
LINE
  8
0
  6
CONTINUOUS
 62
     3
 10
915.0
 20
428.0
 11
915.0
 21
498.2
  0
LINE
  8
0
  6
CONTINUOUS
 62
     3
 10
915.0
 20
498.2
 11
917.0
 21
498.2
  0
LINE
  8
0
  6
CONTINUOUS
 62
     3
 10
917.0
 20
498.2
 11
917.0
 21
428.0
  0
LINE
  8
0
  6
CONTINUOUS
 62
     3
 10
912.0
 20
445.2
 11
911.0
 21
444.2
  0
LINE
  8
0
  6
CONTINUOUS
 62
     3
 10
911.0
 20
444.2
 11
879.0
 21
444.2
  0
LINE
  8
0
  6
CONTINUOUS
 62
     3
 10
879.0
 20
444.2
 11
878.0
 21
445.2
  0
LINE
  8
0
  6
CONTINUOUS
 62
     3
 10
878.0
 20
475.2
 11
878.0
 21
471.2
  0
LINE
  8
0
  6
CONTINUOUS
 62
     3
 10
878.0
 20
501.2
 11
912.0
 21
501.2
  0
LINE
  8
0
  6
CONTINUOUS
 62
     3
 10
912.0
 20
475.2
 11
912.0
 21
471.2
  0
LINE
  8
0
  6
CONTINUOUS
 62
     3
 10
878.0
 20
445.2
 11
875.0
 21
445.2
  0
LINE
  8
0
  6
CONTINUOUS
 62
     3
 10
875.0
 20
471.2
 11
878.0
 21
471.2
  0
LINE
  8
0
  6
CONTINUOUS
 62
     3
 10
878.0
 20
475.2
 11
875.0
 21
475.2
  0
LINE
  8
0
  6
CONTINUOUS
 62
     3
 10
875.0
 20
498.2
 11
875.0
 21
501.2
  0
LINE
  8
0
  6
CONTINUOUS
 62
     3
 10
875.0
 20
501.2
 11
878.0
 21
501.2
  0
LINE
  8
0
  6
CONTINUOUS
 62
     3
 10
912.0
 20
501.2
 11
915.0
 21
501.2
  0
LINE
  8
0
  6
CONTINUOUS
 62
     3
 10
915.0
 20
501.2
 11
915.0
 21
498.2
  0
LINE
  8
0
  6
CONTINUOUS
 62
     3
 10
915.0
 20
475.2
 11
912.0
 21
475.2
  0
LINE
  8
0
  6
CONTINUOUS
 62
     3
 10
912.0
 20
471.2
 11
915.0
 21
471.2
  0
LINE
  8
0
  6
CONTINUOUS
 62
     3
 10
915.0
 20
445.2
 11
912.0
 21
445.2
  0
LINE
  8
0
  6
CONTINUOUS
 62
     3
 10
907.0
 20
508.8
 11
907.0
 21
505.2
  0
LINE
  8
0
  6
CONTINUOUS
 62
     3
 10
907.0
 20
505.2
 11
906.0
 21
504.2
  0
LINE
  8
0
  6
CONTINUOUS
 62
     3
 10
884.0
 20
504.2
 11
883.0
 21
505.2
  0
LINE
  8
0
  6
CONTINUOUS
 62
     3
 10
883.0
 20
505.2
 11
883.0
 21
508.8
  0
LINE
  8
0
  6
CONTINUOUS
 62
     3
 10
917.0
 20
497.2
 11
918.0
 21
497.2
  0
LINE
  8
0
  6
CONTINUOUS
 62
     3
 10
918.0
 20
497.2
 11
918.0
 21
479.2
  0
LINE
  8
0
  6
CONTINUOUS
 62
     3
 10
918.0
 20
479.2
 11
917.0
 21
479.2
  0
LINE
  8
0
  6
CONTINUOUS
 62
     3
 10
917.0
 20
467.2
 11
918.0
 21
467.2
  0
LINE
  8
0
  6
CONTINUOUS
 62
     3
 10
918.0
 20
467.2
 11
918.0
 21
449.2
  0
LINE
  8
0
  6
CONTINUOUS
 62
     3
 10
918.0
 20
449.2
 11
917.0
 21
449.2
  0
LINE
  8
0
  6
CONTINUOUS
 62
     3
 10
873.0
 20
449.2
 11
872.0
 21
449.2
  0
LINE
  8
0
  6
CONTINUOUS
 62
     3
 10
872.0
 20
449.2
 11
872.0
 21
467.2
  0
LINE
  8
0
  6
CONTINUOUS
 62
     3
 10
872.0
 20
467.2
 11
873.0
 21
467.2
  0
LINE
  8
0
  6
CONTINUOUS
 62
     3
 10
873.0
 20
479.2
 11
872.0
 21
479.2
  0
LINE
  8
0
  6
CONTINUOUS
 62
     3
 10
872.0
 20
479.2
 11
872.0
 21
497.2
  0
LINE
  8
0
  6
CONTINUOUS
 62
     3
 10
872.0
 20
497.2
 11
873.0
 21
497.2
  0
LINE
  8
0
  6
CONTINUOUS
 62
     3
 10
918.0
 20
495.7
 11
923.0
 21
495.7
  0
LINE
  8
0
  6
CONTINUOUS
 62
     3
 10
923.0
 20
495.7
 11
923.5
 21
495.2
  0
LINE
  8
0
  6
CONTINUOUS
 62
     3
 10
923.5
 20
495.2
 11
923.5
 21
481.2
  0
LINE
  8
0
  6
CONTINUOUS
 62
     3
 10
923.5
 20
481.2
 11
923.0
 21
480.7
  0
LINE
  8
0
  6
CONTINUOUS
 62
     3
 10
923.0
 20
480.7
 11
918.0
 21
480.7
  0
LINE
  8
0
  6
CONTINUOUS
 62
     3
 10
918.0
 20
465.7
 11
923.0
 21
465.7
  0
LINE
  8
0
  6
CONTINUOUS
 62
     3
 10
923.0
 20
465.7
 11
923.5
 21
465.2
  0
LINE
  8
0
  6
CONTINUOUS
 62
     3
 10
923.5
 20
465.2
 11
923.5
 21
451.2
  0
LINE
  8
0
  6
CONTINUOUS
 62
     3
 10
923.5
 20
451.2
 11
923.0
 21
450.7
  0
LINE
  8
0
  6
CONTINUOUS
 62
     3
 10
923.0
 20
450.7
 11
918.0
 21
450.7
  0
LINE
  8
0
  6
CONTINUOUS
 62
     3
 10
872.0
 20
495.7
 11
867.0
 21
495.7
  0
LINE
  8
0
  6
CONTINUOUS
 62
     3
 10
867.0
 20
495.7
 11
866.5
 21
495.2
  0
LINE
  8
0
  6
CONTINUOUS
 62
     3
 10
866.5
 20
481.2
 11
867.0
 21
480.7
  0
LINE
  8
0
  6
CONTINUOUS
 62
     3
 10
867.0
 20
480.7
 11
872.0
 21
480.7
  0
LINE
  8
0
  6
CONTINUOUS
 62
     3
 10
866.5
 20
495.2
 11
864.5
 21
494.7
  0
LINE
  8
0
  6
CONTINUOUS
 62
     3
 10
864.5
 20
494.7
 11
864.5
 21
481.7
  0
LINE
  8
0
  6
CONTINUOUS
 62
     3
 10
864.5
 20
481.7
 11
866.5
 21
481.2
  0
LINE
  8
0
  6
CONTINUOUS
 62
     3
 10
872.0
 20
465.7
 11
867.0
 21
465.7
  0
LINE
  8
0
  6
CONTINUOUS
 62
     3
 10
867.0
 20
465.7
 11
866.5
 21
465.2
  0
LINE
  8
0
  6
CONTINUOUS
 62
     3
 10
866.5
 20
451.2
 11
867.0
 21
450.7
  0
LINE
  8
0
  6
CONTINUOUS
 62
     3
 10
867.0
 20
450.7
 11
872.0
 21
450.7
  0
LINE
  8
0
  6
CONTINUOUS
 62
     3
 10
866.5
 20
465.2
 11
864.5
 21
464.7
  0
LINE
  8
0
  6
CONTINUOUS
 62
     3
 10
864.5
 20
464.7
 11
864.5
 21
451.7
  0
LINE
  8
0
  6
CONTINUOUS
 62
     3
 10
864.5
 20
451.7
 11
866.5
 21
451.2
  0
LINE
  8
0
  6
CONTINUOUS
 62
     3
 10
858.5
 20
492.2
 11
864.5
 21
492.2
  0
LINE
  8
0
  6
CONTINUOUS
 62
     3
 10
858.5
 20
492.2
 11
858.0
 21
491.7
  0
LINE
  8
0
  6
CONTINUOUS
 62
     3
 10
858.0
 20
491.7
 11
858.0
 21
484.7
  0
LINE
  8
0
  6
CONTINUOUS
 62
     3
 10
858.0
 20
484.7
 11
858.5
 21
484.2
  0
LINE
  8
0
  6
CONTINUOUS
 62
     3
 10
858.5
 20
484.2
 11
864.5
 21
484.2
  0
LINE
  8
0
  6
CONTINUOUS
 62
     3
 10
858.5
 20
462.2
 11
864.5
 21
462.2
  0
LINE
  8
0
  6
CONTINUOUS
 62
     3
 10
858.5
 20
462.2
 11
858.0
 21
461.7
  0
LINE
  8
0
  6
CONTINUOUS
 62
     3
 10
858.0
 20
461.7
 11
858.0
 21
454.7
  0
LINE
  8
0
  6
CONTINUOUS
 62
     3
 10
858.0
 20
454.7
 11
858.5
 21
454.2
  0
LINE
  8
0
  6
CONTINUOUS
 62
     3
 10
858.5
 20
454.2
 11
864.5
 21
454.2
  0
LINE
  8
0
  6
CONTINUOUS
 62
     1
 10
858.0
 20
491.7
 11
864.5
 21
491.7
  0
LINE
  8
0
  6
CONTINUOUS
 62
     1
 10
858.5
 20
492.2
 11
858.5
 21
484.2
  0
LINE
  8
0
  6
CONTINUOUS
 62
     1
 10
858.0
 20
484.7
 11
864.5
 21
484.7
  0
LINE
  8
0
  6
CONTINUOUS
 62
     1
 10
864.5
 20
461.7
 11
858.0
 21
461.7
  0
LINE
  8
0
  6
CONTINUOUS
 62
     1
 10
858.5
 20
462.2
 11
858.5
 21
454.2
  0
LINE
  8
0
  6
CONTINUOUS
 62
     1
 10
858.0
 20
454.7
 11
864.5
 21
454.7
  0
LINE
  8
0
  6
CONTINUOUS
 62
     1
 10
883.0
 20
505.2
 11
907.0
 21
505.2
  0
LINE
  8
0
  6
CONTINUOUS
 62
     1
 10
905.0
 20
508.8
 11
907.0
 21
509.8
  0
LINE
  8
0
  6
CONTINUOUS
 62
     1
 10
907.0
 20
509.8
 11
909.0
 21
508.8
  0
LINE
  8
0
  6
CONTINUOUS
 62
     1
 10
907.0
 20
509.8
 11
907.0
 21
521.8
  0
LINE
  8
0
  6
CONTINUOUS
 62
     1
 10
907.0
 20
521.8
 11
909.0
 21
522.8
  0
LINE
  8
0
  6
CONTINUOUS
 62
     1
 10
905.0
 20
522.8
 11
907.0
 21
521.8
  0
LINE
  8
0
  6
CONTINUOUS
 62
     1
 10
881.0
 20
522.8
 11
883.0
 21
521.8
  0
LINE
  8
0
  6
CONTINUOUS
 62
     1
 10
883.0
 20
521.8
 11
883.0
 21
509.8
  0
LINE
  8
0
  6
CONTINUOUS
 62
     1
 10
883.0
 20
509.8
 11
881.0
 21
508.8
  0
LINE
  8
0
  6
CONTINUOUS
 62
     1
 10
885.0
 20
508.8
 11
883.0
 21
509.8
  0
LINE
  8
0
  6
CONTINUOUS
 62
     1
 10
885.0
 20
522.8
 11
883.0
 21
521.8
  0
LINE
  8
0
  6
CONTINUOUS
 62
     3
 10
906.0
 20
501.2
 11
906.0
 21
504.2
  0
LINE
  8
0
  6
CONTINUOUS
 62
     3
 10
884.0
 20
504.2
 11
884.0
 21
501.2
  0
LINE
  8
0
  6
CONTINUOUS
 62
     1
 10
884.0
 20
508.8
 11
884.0
 21
504.2
  0
LINE
  8
0
  6
CONTINUOUS
 62
     1
 10
906.0
 20
504.2
 11
906.0
 21
508.8
  0
LINE
  8
0
  6
CONTINUOUS
 62
     1
 10
906.0
 20
504.2
 11
884.0
 21
504.2
  0
ARC
  8
0
  6
CONTINUOUS
 62
     1
 10
918.6
 20
488.2
 40
14.6
 50
116.8
 51
243.2
  0
ARC
  8
0
  6
CONTINUOUS
 62
     1
 10
871.4
 20
458.2
 40
14.6
 50
296.8
 51
63.2
  0
ARC
  8
0
  6
CONTINUOUS
 62
     1
 10
871.4
 20
488.2
 40
14.6
 50
296.8
 51
63.2
  0
ARC
  8
0
  6
CONTINUOUS
 62
     1
 10
918.6
 20
458.2
 40
14.6
 50
116.8
 51
243.2
  0
LINE
  8
0
  6
CONTINUOUS
 62
     1
 10
866.5
 20
465.2
 11
866.5
 21
451.2
  0
LINE
  8
0
  6
CONTINUOUS
 62
     1
 10
872.0
 20
453.7
 11
867.0
 21
453.7
  0
LINE
  8
0
  6
CONTINUOUS
 62
     1
 10
867.0
 20
453.7
 11
866.5
 21
452.7
  0
LINE
  8
0
  6
CONTINUOUS
 62
     1
 10
866.5
 20
454.7
 11
867.0
 21
453.7
  0
LINE
  8
0
  6
CONTINUOUS
 62
     1
 10
872.0
 20
462.7
 11
867.0
 21
462.7
  0
LINE
  8
0
  6
CONTINUOUS
 62
     1
 10
867.0
 20
462.7
 11
866.5
 21
461.7
  0
LINE
  8
0
  6
CONTINUOUS
 62
     1
 10
866.5
 20
463.7
 11
867.0
 21
462.7
  0
LINE
  8
0
  6
CONTINUOUS
 62
     1
 10
866.5
 20
495.2
 11
866.5
 21
481.2
  0
LINE
  8
0
  6
CONTINUOUS
 62
     1
 10
872.0
 20
483.7
 11
867.0
 21
483.7
  0
LINE
  8
0
  6
CONTINUOUS
 62
     1
 10
867.0
 20
483.7
 11
866.5
 21
482.7
  0
LINE
  8
0
  6
CONTINUOUS
 62
     1
 10
866.5
 20
484.7
 11
867.0
 21
483.7
  0
LINE
  8
0
  6
CONTINUOUS
 62
     1
 10
872.0
 20
492.7
 11
867.0
 21
492.7
  0
LINE
  8
0
  6
CONTINUOUS
 62
     1
 10
867.0
 20
492.7
 11
866.5
 21
491.7
  0
LINE
  8
0
  6
CONTINUOUS
 62
     1
 10
866.5
 20
493.7
 11
867.0
 21
492.7
  0
LINE
  8
0
  6
CONTINUOUS
 62
     1
 10
912.0
 20
445.2
 11
878.0
 21
445.2
  0
LINE
  8
0
  6
CONTINUOUS
 62
     1
 10
918.0
 20
453.7
 11
923.0
 21
453.7
  0
LINE
  8
0
  6
CONTINUOUS
 62
     1
 10
923.0
 20
453.7
 11
923.5
 21
452.7
  0
LINE
  8
0
  6
CONTINUOUS
 62
     1
 10
923.5
 20
454.7
 11
923.0
 21
453.7
  0
LINE
  8
0
  6
CONTINUOUS
 62
     1
 10
918.0
 20
462.7
 11
923.0
 21
462.7
  0
LINE
  8
0
  6
CONTINUOUS
 62
     1
 10
923.0
 20
462.7
 11
923.5
 21
463.7
  0
LINE
  8
0
  6
CONTINUOUS
 62
     1
 10
923.5
 20
461.7
 11
923.0
 21
462.7
  0
LINE
  8
0
  6
CONTINUOUS
 62
     1
 10
918.0
 20
483.7
 11
923.0
 21
483.7
  0
LINE
  8
0
  6
CONTINUOUS
 62
     1
 10
923.0
 20
483.7
 11
923.5
 21
482.7
  0
LINE
  8
0
  6
CONTINUOUS
 62
     1
 10
923.5
 20
484.7
 11
923.0
 21
483.7
  0
LINE
  8
0
  6
CONTINUOUS
 62
     1
 10
918.0
 20
492.7
 11
923.0
 21
492.7
  0
LINE
  8
0
  6
CONTINUOUS
 62
     1
 10
923.0
 20
492.7
 11
923.5
 21
493.7
  0
LINE
  8
0
  6
CONTINUOUS
 62
     1
 10
923.5
 20
491.7
 11
923.0
 21
492.7
  0
LINE
  8
0
  6
CONTINUOUS
 62
     3
 10
990.0
 20
418.0
 11
800.0
 21
418.0
  0
ARC
  8
0
  6
CONTINUOUS
 62
     3
 10
805.0
 20
423.0
 40
5.0
 50
90.0
 51
180.0
  0
LINE
  8
0
  6
CONTINUOUS
 62
     3
 10
800.0
 20
423.0
 11
800.0
 21
418.0
  0
ARC
  8
0
  6
CONTINUOUS
 62
     3
 10
985.0
 20
423.0
 40
5.0
 50
0.0
 51
90.0
  0
LINE
  8
0
  6
CONTINUOUS
 62
     3
 10
990.0
 20
423.0
 11
990.0
 21
418.0
  0
LINE
  8
0
  6
CONTINUOUS
 62
     3
 10
805.0
 20
428.0
 11
985.0
 21
428.0
  0
LINE
  8
0
  6
CONTINUOUS
 62
     3
 10
913.8
 20
530.0
 11
876.2
 21
530.0
  0
LINE
  8
0
  6
CONTINUOUS
 62
     1
 10
940.0
 20
598.0
 11
940.0
 21
612.0
  0
LINE
  8
0
  6
CONTINUOUS
 62
     1
 10
850.0
 20
612.0
 11
850.0
 21
598.0
  0
LINE
  8
0
  6
CONTINUOUS
 62
     1
 10
857.0
 20
605.0
 11
843.0
 21
605.0
  0
LINE
  8
0
  6
CONTINUOUS
 62
     1
 10
843.0
 20
545.0
 11
857.0
 21
545.0
  0
LINE
  8
0
  6
CONTINUOUS
 62
     1
 10
850.0
 20
552.0
 11
850.0
 21
538.0
  0
LINE
  8
0
  6
CONTINUOUS
 62
     1
 10
940.0
 20
538.0
 11
940.0
 21
552.0
  0
LINE
  8
0
  6
CONTINUOUS
 62
     1
 10
843.0
 20
665.0
 11
857.0
 21
665.0
  0
CIRCLE
  8
0
  6
CONTINUOUS
 62
     3
 10
850.0
 20
665.0
 40
5.5
  0
CIRCLE
  8
0
  6
CONTINUOUS
 62
     3
 10
850.0
 20
605.0
 40
5.5
  0
CIRCLE
  8
0
  6
CONTINUOUS
 62
     3
 10
850.0
 20
545.0
 40
5.5
  0
CIRCLE
  8
0
  6
CONTINUOUS
 62
     3
 10
940.0
 20
545.0
 40
5.5
  0
CIRCLE
  8
0
  6
CONTINUOUS
 62
     3
 10
940.0
 20
605.0
 40
5.5
  0
CIRCLE
  8
0
  6
CONTINUOUS
 62
     3
 10
940.0
 20
665.0
 40
5.5
  0
LINE
  8
0
  6
CONTINUOUS
 62
     3
 10
913.8
 20
547.2
 11
915.8
 21
546.2
  0
LINE
  8
0
  6
CONTINUOUS
 62
     3
 10
915.8
 20
546.2
 11
915.8
 21
534.2
  0
LINE
  8
0
  6
CONTINUOUS
 62
     3
 10
915.8
 20
534.2
 11
913.8
 21
533.2
  0
LINE
  8
0
  6
CONTINUOUS
 62
     3
 10
876.2
 20
533.2
 11
874.2
 21
534.2
  0
LINE
  8
0
  6
CONTINUOUS
 62
     3
 10
874.2
 20
534.2
 11
874.2
 21
546.2
  0
LINE
  8
0
  6
CONTINUOUS
 62
     3
 10
874.2
 20
546.2
 11
876.2
 21
547.2
  0
LINE
  8
0
  6
CONTINUOUS
 62
     1
 10
905.0
 20
533.2
 11
907.0
 21
534.2
  0
LINE
  8
0
  6
CONTINUOUS
 62
     1
 10
907.0
 20
534.2
 11
909.0
 21
533.2
  0
LINE
  8
0
  6
CONTINUOUS
 62
     1
 10
907.0
 20
534.2
 11
907.0
 21
546.2
  0
LINE
  8
0
  6
CONTINUOUS
 62
     1
 10
907.0
 20
546.2
 11
909.0
 21
547.2
  0
LINE
  8
0
  6
CONTINUOUS
 62
     1
 10
905.0
 20
547.2
 11
907.0
 21
546.2
  0
LINE
  8
0
  6
CONTINUOUS
 62
     1
 10
881.0
 20
547.2
 11
883.0
 21
546.2
  0
LINE
  8
0
  6
CONTINUOUS
 62
     1
 10
883.0
 20
546.2
 11
883.0
 21
534.2
  0
LINE
  8
0
  6
CONTINUOUS
 62
     1
 10
883.0
 20
534.2
 11
881.0
 21
533.2
  0
LINE
  8
0
  6
CONTINUOUS
 62
     1
 10
885.0
 20
533.2
 11
883.0
 21
534.2
  0
LINE
  8
0
  6
CONTINUOUS
 62
     1
 10
885.0
 20
547.2
 11
883.0
 21
546.2
  0
LINE
  8
0
  6
CONTINUOUS
 62
     3
 10
913.8
 20
547.2
 11
876.2
 21
547.2
  0
LINE
  8
0
  6
CONTINUOUS
 62
     3
 10
871.0
 20
530.0
 11
871.0
 21
533.2
  0
LINE
  8
0
  6
CONTINUOUS
 62
     3
 10
871.0
 20
533.2
 11
919.0
 21
533.2
  0
LINE
  8
0
  6
CONTINUOUS
 62
     3
 10
919.0
 20
533.2
 11
919.0
 21
530.0
  0
LINE
  8
0
  6
CONTINUOUS
 62
     3
 10
883.0
 20
547.2
 11
884.0
 21
548.2
  0
LINE
  8
0
  6
CONTINUOUS
 62
     3
 10
884.0
 20
548.2
 11
906.0
 21
548.2
  0
LINE
  8
0
  6
CONTINUOUS
 62
     3
 10
906.0
 20
548.2
 11
907.0
 21
547.2
  0
LINE
  8
0
  6
CONTINUOUS
 62
     1
 10
850.0
 20
655.0
 11
850.0
 21
724.0
  0
LINE
  8
0
  6
CONTINUOUS
 62
     1
 10
850.0
 20
720.0
 11
853.863703305
 21
718.96472382
  0
LINE
  8
0
  6
CONTINUOUS
 62
     1
 10
850.0
 20
720.0
 11
853.863703305
 21
721.03527618
  0
LINE
  8
0
  6
CONTINUOUS
 62
     1
 10
850.0
 20
720.0
 11
940.0
 21
720.0
  0
LINE
  8
0
  6
CONTINUOUS
 62
     1
 10
940.0
 20
720.0
 11
936.136296695
 21
721.03527618
  0
LINE
  8
0
  6
CONTINUOUS
 62
     1
 10
940.0
 20
720.0
 11
936.136296695
 21
718.96472382
  0
LINE
  8
0
  6
CONTINUOUS
 62
     1
 10
940.0
 20
655.0
 11
940.0
 21
724.0
  0
TEXT
  8
0
  6
CONTINUOUS
 62
     1
 10
882.2
 20
724.0
 30
0.0
 40
12.0
  1
９０
 50
0.0
 41
0.666666667
 51
0.0
  7
KANJI2
  0
TEXT
  8
0
  6
CONTINUOUS
 62
     1
 10
898.2
 20
724.0
 30
0.0
 40
7.2
  1
±１
 50
0.0
 41
0.666666667
 51
0.0
  7
KANJI3
  0
LINE
  8
0
  6
CONTINUOUS
 62
     1
 10
835.0
 20
680.0
 11
835.0
 21
754.0
  0
LINE
  8
0
  6
CONTINUOUS
 62
     1
 10
835.0
 20
750.0
 11
838.863703305
 21
748.96472382
  0
LINE
  8
0
  6
CONTINUOUS
 62
     1
 10
835.0
 20
750.0
 11
838.863703305
 21
751.03527618
  0
LINE
  8
0
  6
CONTINUOUS
 62
     1
 10
835.0
 20
750.0
 11
955.0
 21
750.0
  0
LINE
  8
0
  6
CONTINUOUS
 62
     1
 10
955.0
 20
750.0
 11
951.136296695
 21
751.03527618
  0
LINE
  8
0
  6
CONTINUOUS
 62
     1
 10
955.0
 20
750.0
 11
951.136296695
 21
748.96472382
  0
LINE
  8
0
  6
CONTINUOUS
 62
     1
 10
955.0
 20
680.0
 11
955.0
 21
754.0
  0
TEXT
  8
0
  6
CONTINUOUS
 62
     1
 10
878.2
 20
754.0
 30
0.0
 40
12.0
  1
１２０
 50
0.0
 41
0.666666667
 51
0.0
  7
KANJI2
  0
TEXT
  8
0
  6
CONTINUOUS
 62
     1
 10
902.2
 20
754.0
 30
0.0
 40
7.2
  1
±２
 50
0.0
 41
0.666666667
 51
0.0
  7
KANJI3
  0
LINE
  8
0
  6
CONTINUOUS
 62
     1
 10
930.0
 20
665.0
 11
1009.0
 21
665.0
  0
LINE
  8
0
  6
CONTINUOUS
 62
     1
 10
1005.0
 20
665.0
 11
1003.96472382
 21
661.136296695
  0
LINE
  8
0
  6
CONTINUOUS
 62
     1
 10
1005.0
 20
665.0
 11
1006.03527618
 21
661.136296695
  0
LINE
  8
0
  6
CONTINUOUS
 62
     1
 10
1005.0
 20
665.0
 11
1005.0
 21
605.0
  0
LINE
  8
0
  6
CONTINUOUS
 62
     1
 10
1005.0
 20
605.0
 11
1006.03527618
 21
608.863703305
  0
LINE
  8
0
  6
CONTINUOUS
 62
     1
 10
1005.0
 20
605.0
 11
1003.96472382
 21
608.863703305
  0
LINE
  8
0
  6
CONTINUOUS
 62
     1
 10
930.0
 20
605.0
 11
1009.0
 21
605.0
  0
TEXT
  8
0
  6
CONTINUOUS
 62
     1
 10
1001.0
 20
627.0
 30
0.0
 40
12.0
  1
６０
 50
90.0
 41
0.666666667
 51
0.0
  7
KANJI2
  0
LINE
  8
0
  6
CONTINUOUS
 62
     1
 10
1005.0
 20
605.0
 11
1003.96472382
 21
601.136296695
  0
LINE
  8
0
  6
CONTINUOUS
 62
     1
 10
1005.0
 20
605.0
 11
1006.03527618
 21
601.136296695
  0
LINE
  8
0
  6
CONTINUOUS
 62
     1
 10
1005.0
 20
605.0
 11
1005.0
 21
545.0
  0
LINE
  8
0
  6
CONTINUOUS
 62
     1
 10
1005.0
 20
545.0
 11
1006.03527618
 21
548.863703305
  0
LINE
  8
0
  6
CONTINUOUS
 62
     1
 10
1005.0
 20
545.0
 11
1003.96472382
 21
548.863703305
  0
LINE
  8
0
  6
CONTINUOUS
 62
     1
 10
930.0
 20
545.0
 11
1009.0
 21
545.0
  0
TEXT
  8
0
  6
CONTINUOUS
 62
     1
 10
1001.0
 20
567.0
 30
0.0
 40
12.0
  1
６０
 50
90.0
 41
0.666666667
 51
0.0
  7
KANJI2
  0
LINE
  8
0
  6
CONTINUOUS
 62
     1
 10
955.0
 20
530.0
 11
1039.0
 21
530.0
  0
LINE
  8
0
  6
CONTINUOUS
 62
     1
 10
1035.0
 20
530.0
 11
1036.03527618
 21
533.863703305
  0
LINE
  8
0
  6
CONTINUOUS
 62
     1
 10
1035.0
 20
530.0
 11
1033.96472382
 21
533.863703305
  0
LINE
  8
0
  6
CONTINUOUS
 62
     1
 10
1035.0
 20
530.0
 11
1035.0
 21
680.0
  0
LINE
  8
0
  6
CONTINUOUS
 62
     1
 10
1035.0
 20
680.0
 11
1033.96472382
 21
676.136296695
  0
LINE
  8
0
  6
CONTINUOUS
 62
     1
 10
1035.0
 20
680.0
 11
1036.03527618
 21
676.136296695
  0
LINE
  8
0
  6
CONTINUOUS
 62
     1
 10
955.0
 20
680.0
 11
1039.0
 21
680.0
  0
TEXT
  8
0
  6
CONTINUOUS
 62
     1
 10
1031.0
 20
588.2
 30
0.0
 40
12.0
  1
１５０
 50
90.0
 41
0.666666667
 51
0.0
  7
KANJI2
  0
TEXT
  8
0
  6
CONTINUOUS
 62
     1
 10
1031.0
 20
612.2
 30
0.0
 40
7.2
  1
±１
 50
90.0
 41
0.666666667
 51
0.0
  7
KANJI3
  0
LINE
  8
0
  6
CONTINUOUS
 62
     1
 10
1035.0
 20
680.0
 11
1069.0
 21
680.0
  0
LINE
  8
0
  6
CONTINUOUS
 62
     1
 10
1065.0
 20
680.0
 11
1063.96472382
 21
676.136296695
  0
LINE
  8
0
  6
CONTINUOUS
 62
     1
 10
1065.0
 20
680.0
 11
1066.03527618
 21
676.136296695
  0
LINE
  8
0
  6
CONTINUOUS
 62
     1
 10
1065.0
 20
680.0
 11
1065.0
 21
418.0
  0
LINE
  8
0
  6
CONTINUOUS
 62
     1
 10
1065.0
 20
418.0
 11
1066.03527618
 21
421.863703305
  0
LINE
  8
0
  6
CONTINUOUS
 62
     1
 10
1065.0
 20
418.0
 11
1063.96472382
 21
421.863703305
  0
LINE
  8
0
  6
CONTINUOUS
 62
     1
 10
995.0
 20
418.0
 11
1069.0
 21
418.0
  0
TEXT
  8
0
  6
CONTINUOUS
 62
     1
 10
1061.0
 20
532.2
 30
0.0
 40
12.0
  1
２６２
 50
90.0
 41
0.666666667
 51
0.0
  7
KANJI2
  0
TEXT
  8
0
  6
CONTINUOUS
 62
     1
 10
1061.0
 20
556.2
 30
0.0
 40
7.2
  1
±５
 50
90.0
 41
0.666666667
 51
0.0
  7
KANJI3
  0
LINE
  8
0
  6
CONTINUOUS
 62
     1
 10
800.0
 20
413.0
 11
800.0
 21
374.0
  0
LINE
  8
0
  6
CONTINUOUS
 62
     1
 10
800.0
 20
378.0
 11
803.863703305
 21
376.96472382
  0
LINE
  8
0
  6
CONTINUOUS
 62
     1
 10
800.0
 20
378.0
 11
803.863703305
 21
379.03527618
  0
LINE
  8
0
  6
CONTINUOUS
 62
     1
 10
800.0
 20
378.0
 11
990.0
 21
378.0
  0
LINE
  8
0
  6
CONTINUOUS
 62
     1
 10
990.0
 20
378.0
 11
986.136296695
 21
379.03527618
  0
LINE
  8
0
  6
CONTINUOUS
 62
     1
 10
990.0
 20
378.0
 11
986.136296695
 21
376.96472382
  0
LINE
  8
0
  6
CONTINUOUS
 62
     1
 10
990.0
 20
413.0
 11
990.0
 21
374.0
  0
TEXT
  8
0
  6
CONTINUOUS
 62
     1
 10
878.2
 20
382.0
 30
0.0
 40
12.0
  1
１９０
 50
0.0
 41
0.666666667
 51
0.0
  7
KANJI2
  0
TEXT
  8
0
  6
CONTINUOUS
 62
     1
 10
902.2
 20
382.0
 30
0.0
 40
7.2
  1
±１
 50
0.0
 41
0.666666667
 51
0.0
  7
KANJI3
  0
LINE
  8
0
  6
CONTINUOUS
 62
     1
 10
845.0
 20
600.0
 11
841.535898385
 21
598.0
  0
LINE
  8
0
  6
CONTINUOUS
 62
     1
 10
845.0
 20
600.0
 11
843.0
 21
596.535898385
  0
LINE
  8
0
  6
CONTINUOUS
 62
     1
 10
845.0
 20
600.0
 11
821.0
 21
576.0
  0
LINE
  8
0
  6
CONTINUOUS
 62
     1
 10
821.0
 20
576.0
 11
762.2
 21
576.0
  0
TEXT
  8
0
  6
CONTINUOUS
 62
     1
 10
762.2
 20
580.0
 30
1.2
 40
12.0
  1
６－φ１１
 50
0.0
 41
0.9
 51
0.0
  7
KANJI1
  0
LINE
  8
0
  6
CONTINUOUS
 62
     1
 10
873.0
 20
514.0
 11
869.002449825
 21
514.139973576
  0
LINE
  8
0
  6
CONTINUOUS
 62
     1
 10
873.0
 20
514.0
 11
869.468033208
 21
512.122445585
  0
LINE
  8
0
  6
CONTINUOUS
 62
     1
 10
873.0
 20
514.0
 11
808.0
 21
499.0
  0
LINE
  8
0
  6
CONTINUOUS
 62
     1
 10
808.0
 20
499.0
 11
677.2
 21
499.0
  0
TEXT
  8
0
  6
CONTINUOUS
 62
     1
 10
677.2
 20
503.0
 30
1.2
 40
12.0
  1
Ｍ２４ナット（第３種）
 50
0.0
 41
0.9
 51
0.0
  7
KANJI1
  0
LINE
  8
0
  6
CONTINUOUS
 62
     1
 10
863.0
 20
479.0
 11
859.007186132
 21
478.760338956
  0
LINE
  8
0
  6
CONTINUOUS
 62
     1
 10
863.0
 20
479.0
 11
859.66195228
 21
476.796040514
  0
LINE
  8
0
  6
CONTINUOUS
 62
     1
 10
863.0
 20
479.0
 11
803.0
 21
459.0
  0
LINE
  8
0
  6
CONTINUOUS
 62
     1
 10
803.0
 20
459.0
 11
635.6
 21
459.0
  0
TEXT
  8
0
  6
CONTINUOUS
 62
     1
 10
635.6
 20
463.0
 30
1.2
 40
12.0
  1
Ｍ８ナット（ナイロンロックリンク゛付）
 50
0.0
 41
0.9
 51
0.0
  7
KANJI1
  0
TEXT
  8
0
  6
CONTINUOUS
 62
     1
 10
900.0
 20
36.0
 30
1.2
 40
12.0
  1
用紙　Ａ４　　尺度　　１／４
 50
0.0
 41
0.9
 51
0.0
  7
KANJI1
  0
ENDSEC
  0
EOF
