  0
SECTION
  2
HEADER
  9
$ACADVER
  1
AC1015
  9
$ACADMAINTVER
 70
     6
  9
$DWGCODEPAGE
  3
ANSI_932
  9
$INSBASE
 10
0.0
 20
0.0
 30
0.0
  9
$EXTMIN
 10
0.0
 20
0.0
 30
0.0
  9
$EXTMAX
 10
891.0
 20
630.0
 30
0.0
  9
$LIMMIN
 10
0.0
 20
0.0
  9
$LIMMAX
 10
891.0
 20
630.0
  9
$ORTHOMODE
 70
     0
  9
$REGENMODE
 70
     1
  9
$FILLMODE
 70
     1
  9
$QTEXTMODE
 70
     0
  9
$MIRRTEXT
 70
     1
  9
$LTSCALE
 40
3.0
  9
$ATTMODE
 70
     1
  9
$TEXTSIZE
 40
2.5
  9
$TRACEWID
 40
1.0
  9
$TEXTSTYLE
  7
Standard
  9
$CLAYER
  8
0
  9
$CELTYPE
  6
ByLayer
  9
$CECOLOR
 62
   256
  9
$CELTSCALE
 40
1.0
  9
$DISPSILH
 70
     0
  9
$DIMSCALE
 40
1.0
  9
$DIMASZ
 40
2.5
  9
$DIMEXO
 40
0.625
  9
$DIMDLI
 40
3.75
  9
$DIMRND
 40
0.0
  9
$DIMDLE
 40
0.0
  9
$DIMEXE
 40
1.25
  9
$DIMTP
 40
0.0
  9
$DIMTM
 40
0.0
  9
$DIMTXT
 40
2.5
  9
$DIMCEN
 40
2.5
  9
$DIMTSZ
 40
0.0
  9
$DIMTOL
 70
     0
  9
$DIMLIM
 70
     0
  9
$DIMTIH
 70
     0
  9
$DIMTOH
 70
     0
  9
$DIMSE1
 70
     0
  9
$DIMSE2
 70
     0
  9
$DIMTAD
 70
     1
  9
$DIMZIN
 70
     8
  9
$DIMBLK
  1

  9
$DIMASO
 70
     1
  9
$DIMSHO
 70
     1
  9
$DIMPOST
  1

  9
$DIMAPOST
  1

  9
$DIMALT
 70
     0
  9
$DIMALTD
 70
     3
  9
$DIMALTF
 40
0.03937007874016
  9
$DIMLFAC
 40
1.0
  9
$DIMTOFL
 70
     1
  9
$DIMTVP
 40
0.0
  9
$DIMTIX
 70
     0
  9
$DIMSOXD
 70
     0
  9
$DIMSAH
 70
     0
  9
$DIMBLK1
  1

  9
$DIMBLK2
  1

  9
$DIMSTYLE
  2
ISO-25
  9
$DIMCLRD
 70
     0
  9
$DIMCLRE
 70
     0
  9
$DIMCLRT
 70
     0
  9
$DIMTFAC
 40
1.0
  9
$DIMGAP
 40
0.625
  9
$DIMJUST
 70
     0
  9
$DIMSD1
 70
     0
  9
$DIMSD2
 70
     0
  9
$DIMTOLJ
 70
     0
  9
$DIMTZIN
 70
     8
  9
$DIMALTZ
 70
     0
  9
$DIMALTTZ
 70
     0
  9
$DIMUPT
 70
     0
  9
$DIMDEC
 70
     2
  9
$DIMTDEC
 70
     2
  9
$DIMALTU
 70
     2
  9
$DIMALTTD
 70
     3
  9
$DIMTXSTY
  7
Standard
  9
$DIMAUNIT
 70
     0
  9
$DIMADEC
 70
     0
  9
$DIMALTRND
 40
0.0
  9
$DIMAZIN
 70
     0
  9
$DIMDSEP
 70
    46
  9
$DIMATFIT
 70
     3
  9
$DIMFRAC
 70
     0
  9
$DIMLDRBLK
  1

  9
$DIMLUNIT
 70
     2
  9
$DIMLWD
 70
    -2
  9
$DIMLWE
 70
    -2
  9
$DIMTMOVE
 70
     0
  9
$LUNITS
 70
     2
  9
$LUPREC
 70
     4
  9
$SKETCHINC
 40
1.0
  9
$FILLETRAD
 40
10.0
  9
$AUNITS
 70
     0
  9
$AUPREC
 70
     0
  9
$MENU
  1
.
  9
$ELEVATION
 40
0.0
  9
$PELEVATION
 40
0.0
  9
$THICKNESS
 40
0.0
  9
$LIMCHECK
 70
     0
  9
$CHAMFERA
 40
10.0
  9
$CHAMFERB
 40
10.0
  9
$CHAMFERC
 40
20.0
  9
$CHAMFERD
 40
0.0
  9
$SKPOLY
 70
     0
  9
$TDCREATE
 40
2456786.000000
  9
$TDUCREATE
 40
0.000000000
  9
$TDUPDATE
 40
2456786.000000
  9
$TDUUPDATE
 40
2456786.000000
  9
$TDINDWG
 40
0.0
  9
$TDUSRTIMER
 40
0.0
  9
$USRTIMER
 70
     1
  9
$ANGBASE
 50
0.0
  9
$ANGDIR
 70
     0
  9
$PDMODE
 70
     0
  9
$PDSIZE
 40
0.0
  9
$PLINEWID
 40
0.0
  9
$SPLFRAME
 70
     0
  9
$SPLINETYPE
 70
     6
  9
$SPLINESEGS
 70
     8
  9
$HANDSEED
  5
030F
  9
$SURFTAB1
 70
     6
  9
$SURFTAB2
 70
     6
  9
$SURFTYPE
 70
     6
  9
$SURFU
 70
     6
  9
$SURFV
 70
     6
  9
$UCSBASE
  2

  9
$UCSNAME
  2

  9
$UCSORG
 10
0.0
 20
0.0
 30
0.0
  9
$UCSXDIR
 10
1.0
 20
0.0
 30
0.0
  9
$UCSYDIR
 10
0.0
 20
1.0
 30
0.0
  9
$UCSORTHOREF
  2

  9
$UCSORTHOVIEW
 70
     0
  9
$UCSORGTOP
 10
0.0
 20
0.0
 30
0.0
  9
$UCSORGBOTTOM
 10
0.0
 20
0.0
 30
0.0
  9
$UCSORGLEFT
 10
0.0
 20
0.0
 30
0.0
  9
$UCSORGRIGHT
 10
0.0
 20
0.0
 30
0.0
  9
$UCSORGFRONT
 10
0.0
 20
0.0
 30
0.0
  9
$UCSORGBACK
 10
0.0
 20
0.0
 30
0.0
  9
$PUCSBASE
  2

  9
$PUCSNAME
  2

  9
$PUCSORG
 10
0.0
 20
0.0
 30
0.0
  9
$PUCSXDIR
 10
1.0
 20
0.0
 30
0.0
  9
$PUCSYDIR
 10
0.0
 20
1.0
 30
0.0
  9
$PUCSORTHOREF
  2

  9
$PUCSORTHOVIEW
 70
     0
  9
$PUCSORGTOP
 10
0.0
 20
0.0
 30
0.0
  9
$PUCSORGBOTTOM
 10
0.0
 20
0.0
 30
0.0
  9
$PUCSORGLEFT
 10
0.0
 20
0.0
 30
0.0
  9
$PUCSORGRIGHT
 10
0.0
 20
0.0
 30
0.0
  9
$PUCSORGFRONT
 10
0.0
 20
0.0
 30
0.0
  9
$PUCSORGBACK
 10
0.0
 20
0.0
 30
0.0
  9
$USERI1
 70
     0
  9
$USERI2
 70
     0
  9
$USERI3
 70
     0
  9
$USERI4
 70
     0
  9
$USERI5
 70
     0
  9
$USERR1
 40
0.0
  9
$USERR2
 40
0.0
  9
$USERR3
 40
0.0
  9
$USERR4
 40
0.0
  9
$USERR5
 40
0.0
  9
$WORLDVIEW
 70
     1
  9
$SHADEDGE
 70
     3
  9
$SHADEDIF
 70
    70
  9
$TILEMODE
 70
     1
  9
$MAXACTVP
 70
    64
  9
$PINSBASE
 10
0.0
 20
0.0
 30
0.0
  9
$PLIMCHECK
 70
     0
  9
$PEXTMIN
 10
1.000000E+20
 20
1.000000E+20
 30
1.000000E+20
  9
$PEXTMAX
 10
-1.000000E+20
 20
-1.000000E+20
 30
-1.000000E+20
  9
$PLIMMIN
 10
0.0
 20
0.0
  9
$PLIMMAX
 10
0.0
 20
0.0
  9
$UNITMODE
 70
     0
  9
$VISRETAIN
 70
     0
  9
$PLINEGEN
 70
     0
  9
$PSLTSCALE
 70
     1
  9
$TREEDEPTH
 70
  3020
  9
$CMLSTYLE
  2
STANDARD
  9
$CMLJUST
 70
     0
  9
$CMLSCALE
 40
20.0
  9
$PROXYGRAPHICS
 70
     1
  9
$MEASUREMENT
 70
     1
  9
$CELWEIGHT
370
    -1
  9
$ENDCAPS
280
     0
  9
$JOINSTYLE
280
     0
  9
$LWDISPLAY
290
     0
  9
$INSUNITS
 70
     4
  9
$HYPERLINKBASE
  1

  9
$STYLESHEET
  1

  9
$XEDIT
290
     1
  9
$CEPSNTYPE
380
     0
  9
$PSTYLEMODE
290
     1
  9
$FINGERPRINTGUID
  2
{6343FBFD-E418-B270-019E-CB6C7C20AFC3}
  9
$VERSIONGUID
  2
{7DB95B63-B00D-D6CA-3499-3200F564E2F9}
  9
$EXTNAMES
290
     1
  9
$PSVPSCALE
 40
0.0
  0
ENDSEC
  0
SECTION
  2
CLASSES
  0
ENDSEC
  0
SECTION
  2
TABLES
  0
TABLE
  2
VPORT
  5
8
330
0
100
AcDbSymbolTable
 70
     3
  0
VPORT
  5
29
330
8
100
AcDbSymbolTableRecord
100
AcDbViewportTableRecord
  2
*Active
 70
     0
 10
0.0
 20
0.0
 11
1.0
 21
1.0
 12
445.5
 22
315.0
 13
0.0
 23
0.0
 14
10.0
 24
10.0
 15
0.0
 25
0.0
 16
0.0
 26
0.0
 36
1.0
 17
0.0
 27
0.0
 37
0.0
 40
630.0
 41
1.414285714
 42
50.0
 43
0.0
 44
0.0
 50
0.0
 51
0.0
 71
     0
 72
  1000
 73
     1
 74
     3
 75
     0
 76
     0
 77
     0
 78
     0
281
     0
 65
     0
110
0.0
120
0.0
130
0.0
111
1.0
121
0.0
131
0.0
112
0.0
122
1.0
132
0.0
 79
     0
146
0.0
  0
ENDTAB
  0
TABLE
  2
LTYPE
  5
5
330
0
100
AcDbSymbolTable
 70
     5
  0
LTYPE
  5
14
330
5
100
AcDbSymbolTableRecord
100
AcDbLinetypeTableRecord
  2
ByBlock
 70
     0
  3

 72
    65
 73
     0
 40
0.0
  0
LTYPE
  5
15
330
5
100
AcDbSymbolTableRecord
100
AcDbLinetypeTableRecord
  2
ByLayer
 70
     0
  3

 72
    65
 73
     0
 40
0.0
  0
LTYPE
  5
16
330
5
100
AcDbSymbolTableRecord
100
AcDbLinetypeTableRecord
  2
Continuous
 70
     0
  3
Solid line
 72
    65
 73
     0
 40
0.0
  0
LTYPE
  5
2BB
330
5
100
AcDbSymbolTableRecord
100
AcDbLinetypeTableRecord
  2
LTYPE1
 70
     0
  3
HIDDEN
 72
    65
 73
     2
 40
2.0
 49
1.2
 74
     0
 49
-0.8
 74
     0
  0
LTYPE
  5
303
330
5
100
AcDbSymbolTableRecord
100
AcDbLinetypeTableRecord
  2
LTYPE2
 70
     0
  3
CENTER
 72
    65
 73
     4
 40
12.0
 49
8.4
 74
     0
 49
-1.2
 74
     0
 49
1.2
 74
     0
 49
-1.2
 74
     0
  0
ENDTAB
  0
TABLE
  2
LAYER
  5
2
330
0
100
AcDbSymbolTable
 70
   128
  0
LAYER
  5
10
330
2
100
AcDbSymbolTableRecord
100
AcDbLayerTableRecord
  2
0
 70
     0
 62
     7
  6
Continuous
290
     1
370
    -3
390
F
  0
LAYER
  5
2A
330
2
100
AcDbSymbolTableRecord
100
AcDbLayerTableRecord
  2
1
 70
     0
 62
     7
  6
Continuous
290
     1
370
    -3
390
F
  0
LAYER
  5
2B
330
2
100
AcDbSymbolTableRecord
100
AcDbLayerTableRecord
  2
2
 70
     0
 62
     7
  6
Continuous
290
     1
370
    -3
390
F
  0
LAYER
  5
2C
330
2
100
AcDbSymbolTableRecord
100
AcDbLayerTableRecord
  2
3
 70
     0
 62
     7
  6
Continuous
290
     1
370
    -3
390
F
  0
LAYER
  5
2D
330
2
100
AcDbSymbolTableRecord
100
AcDbLayerTableRecord
  2
4
 70
     0
 62
     7
  6
Continuous
290
     1
370
    -3
390
F
  0
LAYER
  5
2E
330
2
100
AcDbSymbolTableRecord
100
AcDbLayerTableRecord
  2
5
 70
     0
 62
     7
  6
Continuous
290
     1
370
    -3
390
F
  0
LAYER
  5
2F
330
2
100
AcDbSymbolTableRecord
100
AcDbLayerTableRecord
  2
6
 70
     0
 62
     7
  6
Continuous
290
     1
370
    -3
390
F
  0
LAYER
  5
30
330
2
100
AcDbSymbolTableRecord
100
AcDbLayerTableRecord
  2
7
 70
     0
 62
     7
  6
Continuous
290
     1
370
    -3
390
F
  0
LAYER
  5
31
330
2
100
AcDbSymbolTableRecord
100
AcDbLayerTableRecord
  2
8
 70
     0
 62
     7
  6
Continuous
290
     1
370
    -3
390
F
  0
LAYER
  5
32
330
2
100
AcDbSymbolTableRecord
100
AcDbLayerTableRecord
  2
9
 70
     0
 62
     7
  6
Continuous
290
     1
370
    -3
390
F
  0
LAYER
  5
33
330
2
100
AcDbSymbolTableRecord
100
AcDbLayerTableRecord
  2
10
 70
     0
 62
     7
  6
Continuous
290
     1
370
    -3
390
F
  0
LAYER
  5
34
330
2
100
AcDbSymbolTableRecord
100
AcDbLayerTableRecord
  2
11
 70
     0
 62
     7
  6
Continuous
290
     1
370
    -3
390
F
  0
LAYER
  5
35
330
2
100
AcDbSymbolTableRecord
100
AcDbLayerTableRecord
  2
12
 70
     0
 62
     7
  6
Continuous
290
     1
370
    -3
390
F
  0
LAYER
  5
36
330
2
100
AcDbSymbolTableRecord
100
AcDbLayerTableRecord
  2
13
 70
     0
 62
     7
  6
Continuous
290
     1
370
    -3
390
F
  0
LAYER
  5
37
330
2
100
AcDbSymbolTableRecord
100
AcDbLayerTableRecord
  2
14
 70
     0
 62
     7
  6
Continuous
290
     1
370
    -3
390
F
  0
LAYER
  5
38
330
2
100
AcDbSymbolTableRecord
100
AcDbLayerTableRecord
  2
15
 70
     0
 62
     7
  6
Continuous
290
     1
370
    -3
390
F
  0
LAYER
  5
39
330
2
100
AcDbSymbolTableRecord
100
AcDbLayerTableRecord
  2
16
 70
     0
 62
     7
  6
Continuous
290
     1
370
    -3
390
F
  0
LAYER
  5
3A
330
2
100
AcDbSymbolTableRecord
100
AcDbLayerTableRecord
  2
17
 70
     0
 62
     7
  6
Continuous
290
     1
370
    -3
390
F
  0
LAYER
  5
3B
330
2
100
AcDbSymbolTableRecord
100
AcDbLayerTableRecord
  2
18
 70
     0
 62
     7
  6
Continuous
290
     1
370
    -3
390
F
  0
LAYER
  5
3C
330
2
100
AcDbSymbolTableRecord
100
AcDbLayerTableRecord
  2
19
 70
     0
 62
     7
  6
Continuous
290
     1
370
    -3
390
F
  0
LAYER
  5
3D
330
2
100
AcDbSymbolTableRecord
100
AcDbLayerTableRecord
  2
20
 70
     0
 62
     7
  6
Continuous
290
     1
370
    -3
390
F
  0
LAYER
  5
3E
330
2
100
AcDbSymbolTableRecord
100
AcDbLayerTableRecord
  2
21
 70
     0
 62
     7
  6
Continuous
290
     1
370
    -3
390
F
  0
LAYER
  5
3F
330
2
100
AcDbSymbolTableRecord
100
AcDbLayerTableRecord
  2
22
 70
     0
 62
     7
  6
Continuous
290
     1
370
    -3
390
F
  0
LAYER
  5
40
330
2
100
AcDbSymbolTableRecord
100
AcDbLayerTableRecord
  2
23
 70
     0
 62
     7
  6
Continuous
290
     1
370
    -3
390
F
  0
LAYER
  5
41
330
2
100
AcDbSymbolTableRecord
100
AcDbLayerTableRecord
  2
24
 70
     0
 62
     7
  6
Continuous
290
     1
370
    -3
390
F
  0
LAYER
  5
42
330
2
100
AcDbSymbolTableRecord
100
AcDbLayerTableRecord
  2
25
 70
     0
 62
     7
  6
Continuous
290
     1
370
    -3
390
F
  0
LAYER
  5
43
330
2
100
AcDbSymbolTableRecord
100
AcDbLayerTableRecord
  2
26
 70
     0
 62
     7
  6
Continuous
290
     1
370
    -3
390
F
  0
LAYER
  5
44
330
2
100
AcDbSymbolTableRecord
100
AcDbLayerTableRecord
  2
27
 70
     0
 62
     7
  6
Continuous
290
     1
370
    -3
390
F
  0
LAYER
  5
45
330
2
100
AcDbSymbolTableRecord
100
AcDbLayerTableRecord
  2
28
 70
     0
 62
     7
  6
Continuous
290
     1
370
    -3
390
F
  0
LAYER
  5
46
330
2
100
AcDbSymbolTableRecord
100
AcDbLayerTableRecord
  2
29
 70
     0
 62
     7
  6
Continuous
290
     1
370
    -3
390
F
  0
LAYER
  5
47
330
2
100
AcDbSymbolTableRecord
100
AcDbLayerTableRecord
  2
30
 70
     0
 62
     7
  6
Continuous
290
     1
370
    -3
390
F
  0
LAYER
  5
48
330
2
100
AcDbSymbolTableRecord
100
AcDbLayerTableRecord
  2
31
 70
     0
 62
     7
  6
Continuous
290
     1
370
    -3
390
F
  0
LAYER
  5
49
330
2
100
AcDbSymbolTableRecord
100
AcDbLayerTableRecord
  2
32
 70
     0
 62
     7
  6
Continuous
290
     1
370
    -3
390
F
  0
LAYER
  5
4A
330
2
100
AcDbSymbolTableRecord
100
AcDbLayerTableRecord
  2
33
 70
     0
 62
     7
  6
Continuous
290
     1
370
    -3
390
F
  0
LAYER
  5
4B
330
2
100
AcDbSymbolTableRecord
100
AcDbLayerTableRecord
  2
34
 70
     0
 62
     7
  6
Continuous
290
     1
370
    -3
390
F
  0
LAYER
  5
4C
330
2
100
AcDbSymbolTableRecord
100
AcDbLayerTableRecord
  2
35
 70
     0
 62
     7
  6
Continuous
290
     1
370
    -3
390
F
  0
LAYER
  5
4D
330
2
100
AcDbSymbolTableRecord
100
AcDbLayerTableRecord
  2
36
 70
     0
 62
     7
  6
Continuous
290
     1
370
    -3
390
F
  0
LAYER
  5
4E
330
2
100
AcDbSymbolTableRecord
100
AcDbLayerTableRecord
  2
37
 70
     0
 62
     7
  6
Continuous
290
     1
370
    -3
390
F
  0
LAYER
  5
4F
330
2
100
AcDbSymbolTableRecord
100
AcDbLayerTableRecord
  2
38
 70
     0
 62
     7
  6
Continuous
290
     1
370
    -3
390
F
  0
LAYER
  5
50
330
2
100
AcDbSymbolTableRecord
100
AcDbLayerTableRecord
  2
39
 70
     0
 62
     7
  6
Continuous
290
     1
370
    -3
390
F
  0
LAYER
  5
51
330
2
100
AcDbSymbolTableRecord
100
AcDbLayerTableRecord
  2
40
 70
     0
 62
     7
  6
Continuous
290
     1
370
    -3
390
F
  0
LAYER
  5
52
330
2
100
AcDbSymbolTableRecord
100
AcDbLayerTableRecord
  2
41
 70
     0
 62
     7
  6
Continuous
290
     1
370
    -3
390
F
  0
LAYER
  5
53
330
2
100
AcDbSymbolTableRecord
100
AcDbLayerTableRecord
  2
42
 70
     0
 62
     7
  6
Continuous
290
     1
370
    -3
390
F
  0
LAYER
  5
54
330
2
100
AcDbSymbolTableRecord
100
AcDbLayerTableRecord
  2
43
 70
     0
 62
     7
  6
Continuous
290
     1
370
    -3
390
F
  0
LAYER
  5
55
330
2
100
AcDbSymbolTableRecord
100
AcDbLayerTableRecord
  2
44
 70
     0
 62
     7
  6
Continuous
290
     1
370
    -3
390
F
  0
LAYER
  5
56
330
2
100
AcDbSymbolTableRecord
100
AcDbLayerTableRecord
  2
45
 70
     0
 62
     7
  6
Continuous
290
     1
370
    -3
390
F
  0
LAYER
  5
57
330
2
100
AcDbSymbolTableRecord
100
AcDbLayerTableRecord
  2
46
 70
     0
 62
     7
  6
Continuous
290
     1
370
    -3
390
F
  0
LAYER
  5
58
330
2
100
AcDbSymbolTableRecord
100
AcDbLayerTableRecord
  2
47
 70
     0
 62
     7
  6
Continuous
290
     1
370
    -3
390
F
  0
LAYER
  5
59
330
2
100
AcDbSymbolTableRecord
100
AcDbLayerTableRecord
  2
48
 70
     0
 62
     7
  6
Continuous
290
     1
370
    -3
390
F
  0
LAYER
  5
5A
330
2
100
AcDbSymbolTableRecord
100
AcDbLayerTableRecord
  2
49
 70
     0
 62
     7
  6
Continuous
290
     1
370
    -3
390
F
  0
LAYER
  5
5B
330
2
100
AcDbSymbolTableRecord
100
AcDbLayerTableRecord
  2
50
 70
     0
 62
     7
  6
Continuous
290
     1
370
    -3
390
F
  0
LAYER
  5
5C
330
2
100
AcDbSymbolTableRecord
100
AcDbLayerTableRecord
  2
51
 70
     0
 62
     7
  6
Continuous
290
     1
370
    -3
390
F
  0
LAYER
  5
5D
330
2
100
AcDbSymbolTableRecord
100
AcDbLayerTableRecord
  2
52
 70
     0
 62
     7
  6
Continuous
290
     1
370
    -3
390
F
  0
LAYER
  5
5E
330
2
100
AcDbSymbolTableRecord
100
AcDbLayerTableRecord
  2
53
 70
     0
 62
     7
  6
Continuous
290
     1
370
    -3
390
F
  0
LAYER
  5
5F
330
2
100
AcDbSymbolTableRecord
100
AcDbLayerTableRecord
  2
54
 70
     0
 62
     7
  6
Continuous
290
     1
370
    -3
390
F
  0
LAYER
  5
60
330
2
100
AcDbSymbolTableRecord
100
AcDbLayerTableRecord
  2
55
 70
     0
 62
     7
  6
Continuous
290
     1
370
    -3
390
F
  0
LAYER
  5
61
330
2
100
AcDbSymbolTableRecord
100
AcDbLayerTableRecord
  2
56
 70
     0
 62
     7
  6
Continuous
290
     1
370
    -3
390
F
  0
LAYER
  5
62
330
2
100
AcDbSymbolTableRecord
100
AcDbLayerTableRecord
  2
57
 70
     0
 62
     7
  6
Continuous
290
     1
370
    -3
390
F
  0
LAYER
  5
63
330
2
100
AcDbSymbolTableRecord
100
AcDbLayerTableRecord
  2
58
 70
     0
 62
     7
  6
Continuous
290
     1
370
    -3
390
F
  0
LAYER
  5
64
330
2
100
AcDbSymbolTableRecord
100
AcDbLayerTableRecord
  2
59
 70
     0
 62
     7
  6
Continuous
290
     1
370
    -3
390
F
  0
LAYER
  5
65
330
2
100
AcDbSymbolTableRecord
100
AcDbLayerTableRecord
  2
60
 70
     0
 62
     7
  6
Continuous
290
     1
370
    -3
390
F
  0
LAYER
  5
66
330
2
100
AcDbSymbolTableRecord
100
AcDbLayerTableRecord
  2
61
 70
     0
 62
     7
  6
Continuous
290
     1
370
    -3
390
F
  0
LAYER
  5
67
330
2
100
AcDbSymbolTableRecord
100
AcDbLayerTableRecord
  2
62
 70
     0
 62
     7
  6
Continuous
290
     1
370
    -3
390
F
  0
LAYER
  5
68
330
2
100
AcDbSymbolTableRecord
100
AcDbLayerTableRecord
  2
63
 70
     0
 62
     7
  6
Continuous
290
     1
370
    -3
390
F
  0
LAYER
  5
69
330
2
100
AcDbSymbolTableRecord
100
AcDbLayerTableRecord
  2
64
 70
     0
 62
     7
  6
Continuous
290
     1
370
    -3
390
F
  0
LAYER
  5
6A
330
2
100
AcDbSymbolTableRecord
100
AcDbLayerTableRecord
  2
65
 70
     0
 62
     7
  6
Continuous
290
     1
370
    -3
390
F
  0
LAYER
  5
6B
330
2
100
AcDbSymbolTableRecord
100
AcDbLayerTableRecord
  2
66
 70
     0
 62
     7
  6
Continuous
290
     1
370
    -3
390
F
  0
LAYER
  5
6C
330
2
100
AcDbSymbolTableRecord
100
AcDbLayerTableRecord
  2
67
 70
     0
 62
     7
  6
Continuous
290
     1
370
    -3
390
F
  0
LAYER
  5
6D
330
2
100
AcDbSymbolTableRecord
100
AcDbLayerTableRecord
  2
68
 70
     0
 62
     7
  6
Continuous
290
     1
370
    -3
390
F
  0
LAYER
  5
6E
330
2
100
AcDbSymbolTableRecord
100
AcDbLayerTableRecord
  2
69
 70
     0
 62
     7
  6
Continuous
290
     1
370
    -3
390
F
  0
LAYER
  5
6F
330
2
100
AcDbSymbolTableRecord
100
AcDbLayerTableRecord
  2
70
 70
     0
 62
     7
  6
Continuous
290
     1
370
    -3
390
F
  0
LAYER
  5
70
330
2
100
AcDbSymbolTableRecord
100
AcDbLayerTableRecord
  2
71
 70
     0
 62
     7
  6
Continuous
290
     1
370
    -3
390
F
  0
LAYER
  5
71
330
2
100
AcDbSymbolTableRecord
100
AcDbLayerTableRecord
  2
72
 70
     0
 62
     7
  6
Continuous
290
     1
370
    -3
390
F
  0
LAYER
  5
72
330
2
100
AcDbSymbolTableRecord
100
AcDbLayerTableRecord
  2
73
 70
     0
 62
     7
  6
Continuous
290
     1
370
    -3
390
F
  0
LAYER
  5
73
330
2
100
AcDbSymbolTableRecord
100
AcDbLayerTableRecord
  2
74
 70
     0
 62
     7
  6
Continuous
290
     1
370
    -3
390
F
  0
LAYER
  5
74
330
2
100
AcDbSymbolTableRecord
100
AcDbLayerTableRecord
  2
75
 70
     0
 62
     7
  6
Continuous
290
     1
370
    -3
390
F
  0
LAYER
  5
75
330
2
100
AcDbSymbolTableRecord
100
AcDbLayerTableRecord
  2
76
 70
     0
 62
     7
  6
Continuous
290
     1
370
    -3
390
F
  0
LAYER
  5
76
330
2
100
AcDbSymbolTableRecord
100
AcDbLayerTableRecord
  2
77
 70
     0
 62
     7
  6
Continuous
290
     1
370
    -3
390
F
  0
LAYER
  5
77
330
2
100
AcDbSymbolTableRecord
100
AcDbLayerTableRecord
  2
78
 70
     0
 62
     7
  6
Continuous
290
     1
370
    -3
390
F
  0
LAYER
  5
78
330
2
100
AcDbSymbolTableRecord
100
AcDbLayerTableRecord
  2
79
 70
     0
 62
     7
  6
Continuous
290
     1
370
    -3
390
F
  0
LAYER
  5
79
330
2
100
AcDbSymbolTableRecord
100
AcDbLayerTableRecord
  2
80
 70
     0
 62
     7
  6
Continuous
290
     1
370
    -3
390
F
  0
LAYER
  5
7A
330
2
100
AcDbSymbolTableRecord
100
AcDbLayerTableRecord
  2
81
 70
     0
 62
     7
  6
Continuous
290
     1
370
    -3
390
F
  0
LAYER
  5
7B
330
2
100
AcDbSymbolTableRecord
100
AcDbLayerTableRecord
  2
82
 70
     0
 62
     7
  6
Continuous
290
     1
370
    -3
390
F
  0
LAYER
  5
7C
330
2
100
AcDbSymbolTableRecord
100
AcDbLayerTableRecord
  2
83
 70
     0
 62
     7
  6
Continuous
290
     1
370
    -3
390
F
  0
LAYER
  5
7D
330
2
100
AcDbSymbolTableRecord
100
AcDbLayerTableRecord
  2
84
 70
     0
 62
     7
  6
Continuous
290
     1
370
    -3
390
F
  0
LAYER
  5
7E
330
2
100
AcDbSymbolTableRecord
100
AcDbLayerTableRecord
  2
85
 70
     0
 62
     7
  6
Continuous
290
     1
370
    -3
390
F
  0
LAYER
  5
7F
330
2
100
AcDbSymbolTableRecord
100
AcDbLayerTableRecord
  2
86
 70
     0
 62
     7
  6
Continuous
290
     1
370
    -3
390
F
  0
LAYER
  5
80
330
2
100
AcDbSymbolTableRecord
100
AcDbLayerTableRecord
  2
87
 70
     0
 62
     7
  6
Continuous
290
     1
370
    -3
390
F
  0
LAYER
  5
81
330
2
100
AcDbSymbolTableRecord
100
AcDbLayerTableRecord
  2
88
 70
     0
 62
     7
  6
Continuous
290
     1
370
    -3
390
F
  0
LAYER
  5
82
330
2
100
AcDbSymbolTableRecord
100
AcDbLayerTableRecord
  2
89
 70
     0
 62
     7
  6
Continuous
290
     1
370
    -3
390
F
  0
LAYER
  5
83
330
2
100
AcDbSymbolTableRecord
100
AcDbLayerTableRecord
  2
90
 70
     0
 62
     7
  6
Continuous
290
     1
370
    -3
390
F
  0
LAYER
  5
84
330
2
100
AcDbSymbolTableRecord
100
AcDbLayerTableRecord
  2
91
 70
     0
 62
     7
  6
Continuous
290
     1
370
    -3
390
F
  0
LAYER
  5
85
330
2
100
AcDbSymbolTableRecord
100
AcDbLayerTableRecord
  2
92
 70
     0
 62
     7
  6
Continuous
290
     1
370
    -3
390
F
  0
LAYER
  5
86
330
2
100
AcDbSymbolTableRecord
100
AcDbLayerTableRecord
  2
93
 70
     0
 62
     7
  6
Continuous
290
     1
370
    -3
390
F
  0
LAYER
  5
87
330
2
100
AcDbSymbolTableRecord
100
AcDbLayerTableRecord
  2
94
 70
     0
 62
     7
  6
Continuous
290
     1
370
    -3
390
F
  0
LAYER
  5
88
330
2
100
AcDbSymbolTableRecord
100
AcDbLayerTableRecord
  2
95
 70
     0
 62
     7
  6
Continuous
290
     1
370
    -3
390
F
  0
LAYER
  5
89
330
2
100
AcDbSymbolTableRecord
100
AcDbLayerTableRecord
  2
96
 70
     0
 62
     7
  6
Continuous
290
     1
370
    -3
390
F
  0
LAYER
  5
8A
330
2
100
AcDbSymbolTableRecord
100
AcDbLayerTableRecord
  2
97
 70
     0
 62
     7
  6
Continuous
290
     1
370
    -3
390
F
  0
LAYER
  5
8B
330
2
100
AcDbSymbolTableRecord
100
AcDbLayerTableRecord
  2
98
 70
     0
 62
     7
  6
Continuous
290
     1
370
    -3
390
F
  0
LAYER
  5
8C
330
2
100
AcDbSymbolTableRecord
100
AcDbLayerTableRecord
  2
99
 70
     0
 62
     7
  6
Continuous
290
     1
370
    -3
390
F
  0
LAYER
  5
8D
330
2
100
AcDbSymbolTableRecord
100
AcDbLayerTableRecord
  2
100
 70
     0
 62
     7
  6
Continuous
290
     1
370
    -3
390
F
  0
LAYER
  5
8E
330
2
100
AcDbSymbolTableRecord
100
AcDbLayerTableRecord
  2
101
 70
     0
 62
     7
  6
Continuous
290
     1
370
    -3
390
F
  0
LAYER
  5
8F
330
2
100
AcDbSymbolTableRecord
100
AcDbLayerTableRecord
  2
102
 70
     0
 62
     7
  6
Continuous
290
     1
370
    -3
390
F
  0
LAYER
  5
90
330
2
100
AcDbSymbolTableRecord
100
AcDbLayerTableRecord
  2
103
 70
     0
 62
     7
  6
Continuous
290
     1
370
    -3
390
F
  0
LAYER
  5
91
330
2
100
AcDbSymbolTableRecord
100
AcDbLayerTableRecord
  2
104
 70
     0
 62
     7
  6
Continuous
290
     1
370
    -3
390
F
  0
LAYER
  5
92
330
2
100
AcDbSymbolTableRecord
100
AcDbLayerTableRecord
  2
105
 70
     0
 62
     7
  6
Continuous
290
     1
370
    -3
390
F
  0
LAYER
  5
93
330
2
100
AcDbSymbolTableRecord
100
AcDbLayerTableRecord
  2
106
 70
     0
 62
     7
  6
Continuous
290
     1
370
    -3
390
F
  0
LAYER
  5
94
330
2
100
AcDbSymbolTableRecord
100
AcDbLayerTableRecord
  2
107
 70
     0
 62
     7
  6
Continuous
290
     1
370
    -3
390
F
  0
LAYER
  5
95
330
2
100
AcDbSymbolTableRecord
100
AcDbLayerTableRecord
  2
108
 70
     0
 62
     7
  6
Continuous
290
     1
370
    -3
390
F
  0
LAYER
  5
96
330
2
100
AcDbSymbolTableRecord
100
AcDbLayerTableRecord
  2
109
 70
     0
 62
     7
  6
Continuous
290
     1
370
    -3
390
F
  0
LAYER
  5
97
330
2
100
AcDbSymbolTableRecord
100
AcDbLayerTableRecord
  2
110
 70
     0
 62
     7
  6
Continuous
290
     1
370
    -3
390
F
  0
LAYER
  5
98
330
2
100
AcDbSymbolTableRecord
100
AcDbLayerTableRecord
  2
111
 70
     0
 62
     7
  6
Continuous
290
     1
370
    -3
390
F
  0
LAYER
  5
99
330
2
100
AcDbSymbolTableRecord
100
AcDbLayerTableRecord
  2
112
 70
     0
 62
     7
  6
Continuous
290
     1
370
    -3
390
F
  0
LAYER
  5
9A
330
2
100
AcDbSymbolTableRecord
100
AcDbLayerTableRecord
  2
113
 70
     0
 62
     7
  6
Continuous
290
     1
370
    -3
390
F
  0
LAYER
  5
9B
330
2
100
AcDbSymbolTableRecord
100
AcDbLayerTableRecord
  2
114
 70
     0
 62
     7
  6
Continuous
290
     1
370
    -3
390
F
  0
LAYER
  5
9C
330
2
100
AcDbSymbolTableRecord
100
AcDbLayerTableRecord
  2
115
 70
     0
 62
     7
  6
Continuous
290
     1
370
    -3
390
F
  0
LAYER
  5
9D
330
2
100
AcDbSymbolTableRecord
100
AcDbLayerTableRecord
  2
116
 70
     0
 62
     7
  6
Continuous
290
     1
370
    -3
390
F
  0
LAYER
  5
9E
330
2
100
AcDbSymbolTableRecord
100
AcDbLayerTableRecord
  2
117
 70
     0
 62
     7
  6
Continuous
290
     1
370
    -3
390
F
  0
LAYER
  5
9F
330
2
100
AcDbSymbolTableRecord
100
AcDbLayerTableRecord
  2
118
 70
     0
 62
     7
  6
Continuous
290
     1
370
    -3
390
F
  0
LAYER
  5
A0
330
2
100
AcDbSymbolTableRecord
100
AcDbLayerTableRecord
  2
119
 70
     0
 62
     7
  6
Continuous
290
     1
370
    -3
390
F
  0
LAYER
  5
A1
330
2
100
AcDbSymbolTableRecord
100
AcDbLayerTableRecord
  2
120
 70
     0
 62
     7
  6
Continuous
290
     1
370
    -3
390
F
  0
LAYER
  5
A2
330
2
100
AcDbSymbolTableRecord
100
AcDbLayerTableRecord
  2
121
 70
     0
 62
     7
  6
Continuous
290
     1
370
    -3
390
F
  0
LAYER
  5
A3
330
2
100
AcDbSymbolTableRecord
100
AcDbLayerTableRecord
  2
122
 70
     0
 62
     7
  6
Continuous
290
     1
370
    -3
390
F
  0
LAYER
  5
A4
330
2
100
AcDbSymbolTableRecord
100
AcDbLayerTableRecord
  2
123
 70
     0
 62
     7
  6
Continuous
290
     1
370
    -3
390
F
  0
LAYER
  5
A5
330
2
100
AcDbSymbolTableRecord
100
AcDbLayerTableRecord
  2
124
 70
     0
 62
     7
  6
Continuous
290
     1
370
    -3
390
F
  0
LAYER
  5
A6
330
2
100
AcDbSymbolTableRecord
100
AcDbLayerTableRecord
  2
125
 70
     0
 62
     7
  6
Continuous
290
     1
370
    -3
390
F
  0
LAYER
  5
A7
330
2
100
AcDbSymbolTableRecord
100
AcDbLayerTableRecord
  2
126
 70
     0
 62
     7
  6
Continuous
290
     1
370
    -3
390
F
  0
LAYER
  5
A8
330
2
100
AcDbSymbolTableRecord
100
AcDbLayerTableRecord
  2
127
 70
     0
 62
     7
  6
Continuous
290
     1
370
    -3
390
F
  0
ENDTAB
  0
TABLE
  2
STYLE
  5
3
330
0
100
AcDbSymbolTable
 70
     6
  0
STYLE
  5
11
330
3
100
AcDbSymbolTableRecord
100
AcDbTextStyleTableRecord
  2
Standard
 70
     0
 40
0.0
 41
1.0
 50
0.0
 71
     0
 42
2.5
  3
txt.shx
  4
extfont.shx
  0
STYLE
  5
B5
330
3
100
AcDbSymbolTableRecord
100
AcDbTextStyleTableRecord
  2
KANJI0
 70
     0
 40
9.0
 41
0.9
 50
0.0
 71
     0
 42
9.0
  3
txt.shx
  4
extfont.shx
  0
STYLE
  5
DD
330
3
100
AcDbSymbolTableRecord
100
AcDbTextStyleTableRecord
  2
KANJI1
 70
     0
 40
6.0
 41
0.666666667
 50
0.0
 71
     0
 42
6.0
  3
txt.shx
  4
extfont.shx
  0
STYLE
  5
EF
330
3
100
AcDbSymbolTableRecord
100
AcDbTextStyleTableRecord
  2
KANJI2
 70
     0
 40
3.6
 41
0.666666667
 50
0.0
 71
     0
 42
3.6
  3
txt.shx
  4
extfont.shx
  0
STYLE
  5
F5
330
3
100
AcDbSymbolTableRecord
100
AcDbTextStyleTableRecord
  2
KANJI3
 70
     0
 40
6.0
 41
0.9
 50
0.0
 71
     0
 42
6.0
  3
txt.shx
  4
extfont.shx
  0
STYLE
  5
2B4
330
3
100
AcDbSymbolTableRecord
100
AcDbTextStyleTableRecord
  2
KANJI4
 70
     0
 40
12.0
 41
0.9
 50
0.0
 71
     0
 42
12.0
  3
txt.shx
  4
extfont.shx
  0
ENDTAB
  0
TABLE
  2
VIEW
  5
6
330
0
100
AcDbSymbolTable
 70
     0
  0
ENDTAB
  0
TABLE
  2
UCS
  5
7
330
0
100
AcDbSymbolTable
 70
     0
  0
ENDTAB
  0
TABLE
  2
APPID
  5
9
330
0
100
AcDbSymbolTable
 70
     1
  0
APPID
  5
12
330
9
100
AcDbSymbolTableRecord
100
AcDbRegAppTableRecord
  2
ACAD
 70
     0
  0
ENDTAB
  0
TABLE
  2
DIMSTYLE
  5
A
330
0
100
AcDbSymbolTable
 70
     1
100
AcDbDimStyleTable
 71
     0
  0
DIMSTYLE
105
27
330
A
100
AcDbSymbolTableRecord
100
AcDbDimStyleTableRecord
  2
ISO-25
 70
    64
  3

  4

 40
1.0
 41
2.5
 42
0.625
 43
3.75
 44
1.25
 45
0.0
 46
0.0
 47
0.0
 48
0.0
 71
     0
 72
     0
 73
     0
 74
     0
 75
     0
 76
     0
 77
     1
 78
     8
 79
     0
140
2.5
141
2.5
142
0.0
143
0.039370079
144
1.0
145
0.0
146
1.0
147
0.625
148
0.0
170
     0
171
     3
172
     1
173
     0
174
     0
175
     0
176
     0
177
     0
178
     0
179
     0
270
     2
271
     2
272
     2
273
     2
274
     3
275
     0
276
     0
277
     2
278
    46
279
     0
280
     0
281
     0
282
     0
283
     1
284
     8
285
     0
286
     0
288
     0
289
     3
340
11
341
0
342
0
343
0
344
0
371
    -2
372
    -2
  0
ENDTAB
  0
TABLE
  2
BLOCK_RECORD
  5
1
330
0
100
AcDbSymbolTable
 70
     3
  0
BLOCK_RECORD
  5
1F
330
1
100
AcDbSymbolTableRecord
100
AcDbBlockTableRecord
  2
*Model_Space
340
22
  0
BLOCK_RECORD
  5
1B
330
1
100
AcDbSymbolTableRecord
100
AcDbBlockTableRecord
  2
*Paper_Space
340
1E
  0
BLOCK_RECORD
  5
23
330
1
100
AcDbSymbolTableRecord
100
AcDbBlockTableRecord
  2
*Paper_Space0
340
26
  0
ENDTAB
  0
ENDSEC
  0
SECTION
  2
BLOCKS
  0
BLOCK
  5
1C
330
1B
100
AcDbEntity
 67
     1
  8
0
100
AcDbBlockBegin
  2
*Paper_Space
 70
     0
 10
0.0
 20
0.0
 30
0.0
  3
*Paper_Space
  1

  0
ENDBLK
  5
1D
330
1B
100
AcDbEntity
  8
0
100
AcDbBlockEnd
  0
BLOCK
  5
20
330
1F
100
AcDbEntity
  8
0
100
AcDbBlockBegin
  2
*Model_Space
 70
     0
 10
0.0
 20
0.0
 30
0.0
  3
*Model_Space
  1

  0
ENDBLK
  5
21
330
1F
100
AcDbEntity
  8
0
100
AcDbBlockEnd
  0
BLOCK
  5
24
330
23
100
AcDbEntity
 67
     1
  8
0
100
AcDbBlockBegin
  2
*Paper_Space0
 70
     0
 10
0.0
 20
0.0
 30
0.0
  3
*Paper_Space0
  1

  0
ENDBLK
  5
25
330
23
100
AcDbEntity
  8
0
100
AcDbBlockEnd
  0
ENDSEC
  0
SECTION
  2
ENTITIES
  0
LINE
  5
A9
330
1F
100
AcDbEntity
  8
1
  6
Continuous
 62
     1
100
AcDbLine
 10
33.0
 20
30.0
 30
0.0
 11
858.0
 21
30.0
 31
0.0
  0
LINE
  5
AA
330
1F
100
AcDbEntity
  8
1
  6
Continuous
 62
     1
100
AcDbLine
 10
858.0
 20
30.0
 30
0.0
 11
858.0
 21
600.0
 31
0.0
  0
LINE
  5
AB
330
1F
100
AcDbEntity
  8
1
  6
Continuous
 62
     1
100
AcDbLine
 10
858.0
 20
600.0
 30
0.0
 11
33.0
 21
600.0
 31
0.0
  0
LINE
  5
AC
330
1F
100
AcDbEntity
  8
1
  6
Continuous
 62
     1
100
AcDbLine
 10
33.0
 20
600.0
 30
0.0
 11
33.0
 21
30.0
 31
0.0
  0
LINE
  5
AD
330
1F
100
AcDbEntity
  8
1
  6
Continuous
 62
     1
100
AcDbLine
 10
648.0
 20
48.0
 30
0.0
 11
858.0
 21
48.0
 31
0.0
  0
LINE
  5
AE
330
1F
100
AcDbEntity
  8
1
  6
Continuous
 62
     1
100
AcDbLine
 10
858.0
 20
66.0
 30
0.0
 11
648.0
 21
66.0
 31
0.0
  0
LINE
  5
AF
330
1F
100
AcDbEntity
  8
1
  6
Continuous
 62
     1
100
AcDbLine
 10
648.0
 20
84.0
 30
0.0
 11
858.0
 21
84.0
 31
0.0
  0
LINE
  5
B0
330
1F
100
AcDbEntity
  8
1
  6
Continuous
 62
     1
100
AcDbLine
 10
858.0
 20
102.0
 30
0.0
 11
648.0
 21
102.0
 31
0.0
  0
LINE
  5
B1
330
1F
100
AcDbEntity
  8
1
  6
Continuous
 62
     1
100
AcDbLine
 10
648.0
 20
120.0
 30
0.0
 11
858.0
 21
120.0
 31
0.0
  0
LINE
  5
B2
330
1F
100
AcDbEntity
  8
1
  6
Continuous
 62
     1
100
AcDbLine
 10
858.0
 20
138.0
 30
0.0
 11
648.0
 21
138.0
 31
0.0
  0
LINE
  5
B3
330
1F
100
AcDbEntity
  8
1
  6
Continuous
 62
     1
100
AcDbLine
 10
648.0
 20
138.0
 30
0.0
 11
648.0
 21
30.0
 31
0.0
  0
MTEXT
  5
B4
330
1F
100
AcDbEntity
  8
1
  6
Continuous
 62
     1
100
AcDbMText
 10
655.5
 20
88.5
 30
0.0
 40
9.0
 41
196.2
 71
     7
 72
     1
  1
\T1.111;\W0.900;黒色半艶消し焼付け塗装
  7
KANJI0
 73
     1
 44
1.0
  0
MTEXT
  5
B6
330
1F
100
AcDbEntity
  8
1
  6
Continuous
 62
     1
100
AcDbMText
 10
655.5
 20
106.5
 30
0.0
 40
9.0
 41
286.2
 71
     7
 72
     1
  1
\T1.111;\W0.900;スピーカ天井吊下げ・壁掛兼用金具
  7
KANJI0
 73
     1
 44
1.0
  0
MTEXT
  5
B7
330
1F
100
AcDbEntity
  8
1
  6
Continuous
 62
     1
100
AcDbMText
 10
655.5
 20
52.5
 30
0.0
 40
9.0
 41
232.2
 71
     7
 72
     1
  1
\T1.111;\W0.900;耐荷重　　８ｋｇ（程度迄）
  7
KANJI0
 73
     1
 44
1.0
  0
MTEXT
  5
B8
330
1F
100
AcDbEntity
  8
1
  6
Continuous
 62
     1
100
AcDbMText
 10
655.5
 20
34.5
 30
0.0
 40
9.0
 41
250.2
 71
     7
 72
     1
  1
\T1.111;\W0.900;用紙　Ａ４　　尺度　　１／３
  7
KANJI0
 73
     1
 44
1.0
  0
CIRCLE
  5
B9
330
1F
100
AcDbEntity
  8
0
  6
Continuous
 62
     1
100
AcDbCircle
 10
658.0
 20
466.0
 30
0.0
 40
6.0
  0
CIRCLE
  5
BA
330
1F
100
AcDbEntity
  8
0
  6
Continuous
 62
     1
100
AcDbCircle
 10
666.0
 20
466.0
 30
0.0
 40
1.0
  0
CIRCLE
  5
BB
330
1F
100
AcDbEntity
  8
0
  6
Continuous
 62
     1
100
AcDbCircle
 10
658.0
 20
474.0
 30
0.0
 40
1.0
  0
CIRCLE
  5
BC
330
1F
100
AcDbEntity
  8
0
  6
Continuous
 62
     1
100
AcDbCircle
 10
650.0
 20
466.0
 30
0.0
 40
1.0
  0
CIRCLE
  5
BD
330
1F
100
AcDbEntity
  8
0
  6
Continuous
 62
     1
100
AcDbCircle
 10
658.0
 20
458.0
 30
0.0
 40
1.0
  0
CIRCLE
  5
BE
330
1F
100
AcDbEntity
  8
0
  6
Continuous
 62
     3
100
AcDbCircle
 10
658.0
 20
466.0
 30
0.0
 40
51.0
  0
CIRCLE
  5
BF
330
1F
100
AcDbEntity
  8
0
  6
Continuous
 62
     3
100
AcDbCircle
 10
658.0
 20
466.0
 30
0.0
 40
19.0
  0
CIRCLE
  5
C0
330
1F
100
AcDbEntity
  8
0
  6
Continuous
 62
     3
100
AcDbCircle
 10
618.0
 20
466.0
 30
0.0
 40
3.1
  0
CIRCLE
  5
C1
330
1F
100
AcDbEntity
  8
0
  6
Continuous
 62
     3
100
AcDbCircle
 10
658.0
 20
426.0
 30
0.0
 40
3.1
  0
CIRCLE
  5
C2
330
1F
100
AcDbEntity
  8
0
  6
Continuous
 62
     3
100
AcDbCircle
 10
698.0
 20
466.0
 30
0.0
 40
3.1
  0
CIRCLE
  5
C3
330
1F
100
AcDbEntity
  8
0
  6
Continuous
 62
     3
100
AcDbCircle
 10
658.0
 20
506.0
 30
0.0
 40
3.1
  0
CIRCLE
  5
C4
330
1F
100
AcDbEntity
  8
0
  6
Continuous
 62
     3
100
AcDbCircle
 10
629.715728753
 20
494.284271247
 30
0.0
 40
5.0
  0
CIRCLE
  5
C5
330
1F
100
AcDbEntity
  8
0
  6
Continuous
 62
     3
100
AcDbCircle
 10
629.715728753
 20
437.715728753
 30
0.0
 40
5.0
  0
CIRCLE
  5
C6
330
1F
100
AcDbEntity
  8
0
  6
Continuous
 62
     3
100
AcDbCircle
 10
686.284271247
 20
437.715728753
 30
0.0
 40
5.0
  0
CIRCLE
  5
C7
330
1F
100
AcDbEntity
  8
0
  6
Continuous
 62
     3
100
AcDbCircle
 10
686.284271247
 20
494.284271247
 30
0.0
 40
5.0
  0
CIRCLE
  5
C8
330
1F
100
AcDbEntity
  8
0
  6
Continuous
 62
     1
100
AcDbCircle
 10
658.0
 20
466.0
 30
0.0
 40
30.0
  0
LINE
  5
C9
330
1F
100
AcDbEntity
  8
0
  6
Continuous
 62
     1
100
AcDbLine
 10
681.334523779
 20
489.334523779
 30
0.0
 11
691.234018716
 21
499.234018716
 31
0.0
  0
LINE
  5
CA
330
1F
100
AcDbEntity
  8
0
  6
Continuous
 62
     1
100
AcDbLine
 10
691.234018716
 20
489.334523779
 30
0.0
 11
681.334523779
 21
499.234018716
 31
0.0
  0
LINE
  5
CB
330
1F
100
AcDbEntity
  8
0
  6
Continuous
 62
     1
100
AcDbLine
 10
634.665476221
 20
489.334523779
 30
0.0
 11
624.765981284
 21
499.234018716
 31
0.0
  0
LINE
  5
CC
330
1F
100
AcDbEntity
  8
0
  6
Continuous
 62
     1
100
AcDbLine
 10
634.665476221
 20
499.234018716
 30
0.0
 11
624.765981284
 21
489.334523779
 31
0.0
  0
LINE
  5
CD
330
1F
100
AcDbEntity
  8
0
  6
Continuous
 62
     1
100
AcDbLine
 10
634.665476221
 20
442.665476221
 30
0.0
 11
624.765981284
 21
432.765981284
 31
0.0
  0
LINE
  5
CE
330
1F
100
AcDbEntity
  8
0
  6
Continuous
 62
     1
100
AcDbLine
 10
624.765981284
 20
442.665476221
 30
0.0
 11
634.665476221
 21
432.765981284
 31
0.0
  0
LINE
  5
CF
330
1F
100
AcDbEntity
  8
0
  6
Continuous
 62
     1
100
AcDbLine
 10
681.334523779
 20
442.665476221
 30
0.0
 11
691.234018716
 21
432.765981284
 31
0.0
  0
LINE
  5
D0
330
1F
100
AcDbEntity
  8
0
  6
Continuous
 62
     1
100
AcDbLine
 10
681.334523779
 20
432.765981284
 30
0.0
 11
691.234018716
 21
442.665476221
 31
0.0
  0
LINE
  5
D1
330
1F
100
AcDbEntity
  8
0
  6
Continuous
 62
     1
100
AcDbLine
 10
653.0
 20
506.0
 30
0.0
 11
663.0
 21
506.0
 31
0.0
  0
LINE
  5
D2
330
1F
100
AcDbEntity
  8
0
  6
Continuous
 62
     1
100
AcDbLine
 10
618.0
 20
461.0
 30
0.0
 11
618.0
 21
471.0
 31
0.0
  0
LINE
  5
D3
330
1F
100
AcDbEntity
  8
0
  6
Continuous
 62
     1
100
AcDbLine
 10
698.0
 20
471.0
 30
0.0
 11
698.0
 21
461.0
 31
0.0
  0
LINE
  5
D4
330
1F
100
AcDbEntity
  8
0
  6
Continuous
 62
     1
100
AcDbLine
 10
663.0
 20
426.0
 30
0.0
 11
653.0
 21
426.0
 31
0.0
  0
LINE
  5
D5
330
1F
100
AcDbEntity
  8
0
  6
Continuous
 62
     1
100
AcDbLine
 10
658.0
 20
506.0
 30
0.0
 11
740.0
 21
506.0
 31
0.0
  0
LINE
  5
D6
330
1F
100
AcDbEntity
  8
0
  6
Continuous
 62
     1
100
AcDbLine
 10
738.0
 20
506.0
 30
0.0
 11
737.48236191
 21
504.068148347
 31
0.0
  0
LINE
  5
D7
330
1F
100
AcDbEntity
  8
0
  6
Continuous
 62
     1
100
AcDbLine
 10
738.0
 20
506.0
 30
0.0
 11
738.51763809
 21
504.068148347
 31
0.0
  0
LINE
  5
D8
330
1F
100
AcDbEntity
  8
0
  6
Continuous
 62
     1
100
AcDbLine
 10
738.0
 20
506.0
 30
0.0
 11
738.0
 21
426.0
 31
0.0
  0
LINE
  5
D9
330
1F
100
AcDbEntity
  8
0
  6
Continuous
 62
     1
100
AcDbLine
 10
738.0
 20
426.0
 30
0.0
 11
738.51763809
 21
427.931851653
 31
0.0
  0
LINE
  5
DA
330
1F
100
AcDbEntity
  8
0
  6
Continuous
 62
     1
100
AcDbLine
 10
738.0
 20
426.0
 30
0.0
 11
737.48236191
 21
427.931851653
 31
0.0
  0
LINE
  5
DB
330
1F
100
AcDbEntity
  8
0
  6
Continuous
 62
     1
100
AcDbLine
 10
658.0
 20
426.0
 30
0.0
 11
740.0
 21
426.0
 31
0.0
  0
MTEXT
  5
DC
330
1F
100
AcDbEntity
  8
0
  6
Continuous
 62
     1
100
AcDbMText
 10
736.0
 20
462.0
 30
0.0
 40
6.0
 41
16.000000008
 71
     7
 72
     1
  1
\W0.667;８０
  7
KANJI1
 11
0.0
 21
1.0
 31
0.0
 73
     1
 44
1.0
  0
LINE
  5
DE
330
1F
100
AcDbEntity
  8
0
  6
Continuous
 62
     1
100
AcDbLine
 10
629.715728753
 20
437.715728753
 30
0.0
 11
571.732972695
 21
495.69848481
 31
0.0
  0
LINE
  5
DF
330
1F
100
AcDbEntity
  8
0
  6
Continuous
 62
     1
100
AcDbLine
 10
573.147186258
 20
494.284271247
 30
0.0
 11
574.879237065
 21
495.284271247
 31
0.0
  0
LINE
  5
E0
330
1F
100
AcDbEntity
  8
0
  6
Continuous
 62
     1
100
AcDbLine
 10
573.147186258
 20
494.284271247
 30
0.0
 11
574.147186258
 21
496.016322055
 31
0.0
  0
LINE
  5
E1
330
1F
100
AcDbEntity
  8
0
  6
Continuous
 62
     1
100
AcDbLine
 10
573.147186258
 20
494.284271247
 30
0.0
 11
629.715728753
 21
550.852813742
 31
0.0
  0
LINE
  5
E2
330
1F
100
AcDbEntity
  8
0
  6
Continuous
 62
     1
100
AcDbLine
 10
629.715728753
 20
550.852813742
 30
0.0
 11
627.983677945
 21
549.852813742
 31
0.0
  0
LINE
  5
E3
330
1F
100
AcDbEntity
  8
0
  6
Continuous
 62
     1
100
AcDbLine
 10
629.715728753
 20
550.852813742
 30
0.0
 11
628.715728753
 21
549.120762935
 31
0.0
  0
LINE
  5
E4
330
1F
100
AcDbEntity
  8
0
  6
Continuous
 62
     1
100
AcDbLine
 10
686.284271247
 20
494.284271247
 30
0.0
 11
628.30151519
 21
552.267027305
 31
0.0
  0
MTEXT
  5
E5
330
1F
100
AcDbEntity
  8
0
  6
Continuous
 62
     1
100
AcDbMText
 10
597.188816818
 20
521.154328933
 30
0.0
 40
6.0
 41
16.000000008
 71
     7
 72
     1
  1
\W0.667;８０
  7
KANJI1
 11
0.707106781
 21
0.707106781
 31
0.0
 73
     1
 44
1.0
  0
LINE
  5
E6
330
1F
100
AcDbEntity
  8
0
  6
Continuous
 62
     1
100
AcDbLine
 10
607.0
 20
466.0
 30
0.0
 11
607.0
 21
384.0
 31
0.0
  0
LINE
  5
E7
330
1F
100
AcDbEntity
  8
0
  6
Continuous
 62
     1
100
AcDbLine
 10
607.0
 20
386.0
 30
0.0
 11
608.931851653
 21
385.48236191
 31
0.0
  0
LINE
  5
E8
330
1F
100
AcDbEntity
  8
0
  6
Continuous
 62
     1
100
AcDbLine
 10
607.0
 20
386.0
 30
0.0
 11
608.931851653
 21
386.51763809
 31
0.0
  0
LINE
  5
E9
330
1F
100
AcDbEntity
  8
0
  6
Continuous
 62
     1
100
AcDbLine
 10
607.0
 20
386.0
 30
0.0
 11
709.0
 21
386.0
 31
0.0
  0
LINE
  5
EA
330
1F
100
AcDbEntity
  8
0
  6
Continuous
 62
     1
100
AcDbLine
 10
709.0
 20
386.0
 30
0.0
 11
707.068148347
 21
386.51763809
 31
0.0
  0
LINE
  5
EB
330
1F
100
AcDbEntity
  8
0
  6
Continuous
 62
     1
100
AcDbLine
 10
709.0
 20
386.0
 30
0.0
 11
707.068148347
 21
385.48236191
 31
0.0
  0
LINE
  5
EC
330
1F
100
AcDbEntity
  8
0
  6
Continuous
 62
     1
100
AcDbLine
 10
709.0
 20
466.0
 30
0.0
 11
709.0
 21
384.0
 31
0.0
  0
MTEXT
  5
ED
330
1F
100
AcDbEntity
  8
0
  6
Continuous
 62
     1
100
AcDbMText
 10
645.2
 20
388.0
 30
0.0
 40
6.0
 41
32.000000016
 71
     7
 72
     1
  1
\W0.667;φ１０２
  7
KANJI1
 73
     1
 44
1.0
  0
MTEXT
  5
EE
330
1F
100
AcDbEntity
  8
0
  6
Continuous
 62
     1
100
AcDbMText
 10
661.2
 20
388.0
 30
0.0
 40
3.6
 41
19.20000001
 71
     7
 72
     1
  1
\W0.667;±１．０
  7
KANJI2
 73
     1
 44
1.0
  0
LINE
  5
F0
330
1F
100
AcDbEntity
  8
0
  6
Continuous
 62
     1
100
AcDbLine
 10
615.0
 20
463.0
 30
0.0
 11
613.267949192
 21
462.0
 31
0.0
  0
LINE
  5
F1
330
1F
100
AcDbEntity
  8
0
  6
Continuous
 62
     1
100
AcDbLine
 10
615.0
 20
463.0
 30
0.0
 11
614.0
 21
461.267949192
 31
0.0
  0
LINE
  5
F2
330
1F
100
AcDbEntity
  8
0
  6
Continuous
 62
     1
100
AcDbLine
 10
615.0
 20
463.0
 30
0.0
 11
590.0
 21
438.0
 31
0.0
  0
LINE
  5
F3
330
1F
100
AcDbEntity
  8
0
  6
Continuous
 62
     1
100
AcDbLine
 10
590.0
 20
438.0
 30
0.0
 11
554.6
 21
438.0
 31
0.0
  0
MTEXT
  5
F4
330
1F
100
AcDbEntity
  8
0
  6
Continuous
 62
     1
100
AcDbMText
 10
554.6
 20
440.0
 30
0.0
 40
6.0
 41
70.8
 71
     7
 72
     1
  1
\T1.111;\W0.900;４－φ６．２
  7
KANJI3
 73
     1
 44
1.0
  0
LINE
  5
F6
330
1F
100
AcDbEntity
  8
0
  6
Continuous
 62
     1
100
AcDbLine
 10
689.819805153
 20
497.819805153
 30
0.0
 11
691.551855961
 21
498.819805153
 31
0.0
  0
LINE
  5
F7
330
1F
100
AcDbEntity
  8
0
  6
Continuous
 62
     1
100
AcDbLine
 10
689.819805153
 20
497.819805153
 30
0.0
 11
690.819805153
 21
499.551855961
 31
0.0
  0
LINE
  5
F8
330
1F
100
AcDbEntity
  8
0
  6
Continuous
 62
     1
100
AcDbLine
 10
689.819805153
 20
497.819805153
 30
0.0
 11
718.819805153
 21
526.819805153
 31
0.0
  0
LINE
  5
F9
330
1F
100
AcDbEntity
  8
0
  6
Continuous
 62
     1
100
AcDbLine
 10
718.819805153
 20
526.819805153
 30
0.0
 11
748.219805153
 21
526.819805153
 31
0.0
  0
MTEXT
  5
FA
330
1F
100
AcDbEntity
  8
0
  6
Continuous
 62
     1
100
AcDbMText
 10
718.819805153
 20
528.819805153
 30
0.0
 40
6.0
 41
58.8
 71
     7
 72
     1
  1
\T1.111;\W0.900;４－φ１０
  7
KANJI3
 73
     1
 44
1.0
  0
LINE
  5
FB
330
1F
100
AcDbEntity
  8
0
  6
Continuous
 62
     3
100
AcDbLine
 10
338.0
 20
452.0
 30
0.0
 11
338.0
 21
480.0
 31
0.0
  0
LINE
  5
FC
330
1F
100
AcDbEntity
  8
0
  6
Continuous
 62
     3
100
AcDbLine
 10
338.0
 20
480.0
 30
0.0
 11
328.0
 21
480.0
 31
0.0
  0
LINE
  5
FD
330
1F
100
AcDbEntity
  8
0
  6
Continuous
 62
     3
100
AcDbLine
 10
268.0
 20
464.0
 30
0.0
 11
278.0
 21
464.0
 31
0.0
  0
LINE
  5
FE
330
1F
100
AcDbEntity
  8
0
  6
Continuous
 62
     3
100
AcDbLine
 10
328.0
 20
480.0
 30
0.0
 11
315.0
 21
469.5
 31
0.0
  0
LINE
  5
FF
330
1F
100
AcDbEntity
  8
0
  6
Continuous
 62
     3
100
AcDbLine
 10
315.0
 20
469.5
 30
0.0
 11
308.0
 21
469.5
 31
0.0
  0
LINE
  5
100
330
1F
100
AcDbEntity
  8
0
  6
Continuous
 62
     3
100
AcDbLine
 10
278.0
 20
464.0
 30
0.0
 11
291.0
 21
474.5
 31
0.0
  0
LINE
  5
101
330
1F
100
AcDbEntity
  8
0
  6
Continuous
 62
     3
100
AcDbLine
 10
291.0
 20
474.5
 30
0.0
 11
298.0
 21
474.5
 31
0.0
  0
LINE
  5
102
330
1F
100
AcDbEntity
  8
0
  6
Continuous
 62
     3
100
AcDbLine
 10
268.0
 20
492.0
 30
0.0
 11
331.0
 21
492.0
 31
0.0
  0
ARC
  5
103
330
1F
100
AcDbEntity
  8
0
  6
Continuous
 62
     3
100
AcDbCircle
 10
331.0
 20
490.0
 30
0.0
 40
2.0
100
AcDbArc
 50
0.0
 51
90.0
  0
LINE
  5
104
330
1F
100
AcDbEntity
  8
0
  6
Continuous
 62
     3
100
AcDbLine
 10
333.0
 20
490.0
 30
0.0
 11
333.0
 21
480.0
 31
0.0
  0
LINE
  5
105
330
1F
100
AcDbEntity
  8
0
  6
Continuous
 62
     3
100
AcDbLine
 10
338.0
 20
452.0
 30
0.0
 11
275.0
 21
452.0
 31
0.0
  0
ARC
  5
106
330
1F
100
AcDbEntity
  8
0
  6
Continuous
 62
     3
100
AcDbCircle
 10
275.0
 20
454.0
 30
0.0
 40
2.0
100
AcDbArc
 50
180.0
 51
270.0
  0
LINE
  5
107
330
1F
100
AcDbEntity
  8
0
  6
Continuous
 62
     3
100
AcDbLine
 10
273.0
 20
454.0
 30
0.0
 11
273.0
 21
464.0
 31
0.0
  0
LINE
  5
108
330
1F
100
AcDbEntity
  8
0
  6
Continuous
 62
     3
100
AcDbLine
 10
356.0
 20
454.8
 30
0.0
 11
350.0
 21
454.8
 31
0.0
  0
ARC
  5
109
330
1F
100
AcDbEntity
  8
0
  6
Continuous
 62
     3
100
AcDbCircle
 10
357.0
 20
454.3
 30
0.0
 40
1.0
100
AcDbArc
 50
180.0
 51
270.0
  0
ARC
  5
10A
330
1F
100
AcDbEntity
  8
0
  6
Continuous
 62
     3
100
AcDbCircle
 10
349.0
 20
454.3
 30
0.0
 40
1.0
100
AcDbArc
 50
270.0
 51
0.0
  0
LINE
  5
10B
330
1F
100
AcDbEntity
  8
0
  6
Continuous
 62
     3
100
AcDbLine
 10
349.0
 20
453.3
 30
0.0
 11
338.0
 21
453.3
 31
0.0
  0
LINE
  5
10C
330
1F
100
AcDbEntity
  8
0
  6
Continuous
 62
     3
100
AcDbLine
 10
355.0
 20
454.8
 30
0.0
 11
355.0
 21
454.3
 31
0.0
  0
LINE
  5
10D
330
1F
100
AcDbEntity
  8
0
  6
Continuous
 62
     3
100
AcDbLine
 10
355.0
 20
454.3
 30
0.0
 11
354.5
 21
453.8
 31
0.0
  0
LINE
  5
10E
330
1F
100
AcDbEntity
  8
0
  6
Continuous
 62
     3
100
AcDbLine
 10
354.5
 20
453.8
 30
0.0
 11
351.5
 21
453.8
 31
0.0
  0
LINE
  5
10F
330
1F
100
AcDbEntity
  8
0
  6
Continuous
 62
     3
100
AcDbLine
 10
351.5
 20
453.8
 30
0.0
 11
351.0
 21
454.3
 31
0.0
  0
LINE
  5
110
330
1F
100
AcDbEntity
  8
0
  6
Continuous
 62
     3
100
AcDbLine
 10
351.0
 20
454.3
 30
0.0
 11
351.0
 21
454.8
 31
0.0
  0
LINE
  5
111
330
1F
100
AcDbEntity
  8
0
  6
Continuous
 62
     3
100
AcDbLine
 10
350.0
 20
477.2
 30
0.0
 11
356.0
 21
477.2
 31
0.0
  0
POINT
  5
112
330
1F
100
AcDbEntity
  8
0
  6
Continuous
 62
     3
100
AcDbPoint
 10
356.0
 20
477.7
 30
0.0
  0
ARC
  5
113
330
1F
100
AcDbEntity
  8
0
  6
Continuous
 62
     3
100
AcDbCircle
 10
357.0
 20
477.7
 30
0.0
 40
1.0
100
AcDbArc
 50
90.0
 51
180.0
  0
LINE
  5
114
330
1F
100
AcDbEntity
  8
0
  6
Continuous
 62
     3
100
AcDbLine
 10
338.0
 20
478.7
 30
0.0
 11
349.0
 21
478.7
 31
0.0
  0
ARC
  5
115
330
1F
100
AcDbEntity
  8
0
  6
Continuous
 62
     3
100
AcDbCircle
 10
349.0
 20
477.7
 30
0.0
 40
1.0
100
AcDbArc
 50
0.0
 51
90.0
  0
POINT
  5
116
330
1F
100
AcDbEntity
  8
0
  6
Continuous
 62
     3
100
AcDbPoint
 10
350.0
 20
477.7
 30
0.0
  0
LINE
  5
117
330
1F
100
AcDbEntity
  8
0
  6
Continuous
 62
     3
100
AcDbLine
 10
268.0
 20
465.3
 30
0.0
 11
268.0
 21
490.7
 31
0.0
  0
LINE
  5
118
330
1F
100
AcDbEntity
  8
0
  6
Continuous
 62
     3
100
AcDbLine
 10
268.0
 20
465.3
 30
0.0
 11
268.0
 21
464.0
 31
0.0
  0
LINE
  5
119
330
1F
100
AcDbEntity
  8
0
  6
Continuous
 62
     3
100
AcDbLine
 10
268.0
 20
464.0
 30
0.0
 11
265.0
 21
463.0
 31
0.0
  0
LINE
  5
11A
330
1F
100
AcDbEntity
  8
0
  6
Continuous
 62
     3
100
AcDbLine
 10
265.0
 20
463.0
 30
0.0
 11
260.0
 21
463.0
 31
0.0
  0
LINE
  5
11B
330
1F
100
AcDbEntity
  8
0
  6
Continuous
 62
     3
100
AcDbLine
 10
260.0
 20
463.0
 30
0.0
 11
260.0
 21
459.0
 31
0.0
  0
LINE
  5
11C
330
1F
100
AcDbEntity
  8
0
  6
Continuous
 62
     3
100
AcDbLine
 10
260.0
 20
459.0
 30
0.0
 11
246.0
 21
459.0
 31
0.0
  0
LINE
  5
11D
330
1F
100
AcDbEntity
  8
0
  6
Continuous
 62
     3
100
AcDbLine
 10
246.0
 20
459.0
 30
0.0
 11
246.0
 21
463.0
 31
0.0
  0
LINE
  5
11E
330
1F
100
AcDbEntity
  8
0
  6
Continuous
 62
     3
100
AcDbLine
 10
246.0
 20
463.0
 30
0.0
 11
218.0
 21
463.0
 31
0.0
  0
LINE
  5
11F
330
1F
100
AcDbEntity
  8
0
  6
Continuous
 62
     3
100
AcDbLine
 10
246.0
 20
493.0
 30
0.0
 11
218.0
 21
493.0
 31
0.0
  0
LINE
  5
120
330
1F
100
AcDbEntity
  8
0
  6
Continuous
 62
     3
100
AcDbLine
 10
246.0
 20
497.0
 30
0.0
 11
246.0
 21
493.0
 31
0.0
  0
LINE
  5
121
330
1F
100
AcDbEntity
  8
0
  6
Continuous
 62
     3
100
AcDbLine
 10
260.0
 20
497.0
 30
0.0
 11
246.0
 21
497.0
 31
0.0
  0
LINE
  5
122
330
1F
100
AcDbEntity
  8
0
  6
Continuous
 62
     3
100
AcDbLine
 10
260.0
 20
493.0
 30
0.0
 11
260.0
 21
497.0
 31
0.0
  0
LINE
  5
123
330
1F
100
AcDbEntity
  8
0
  6
Continuous
 62
     3
100
AcDbLine
 10
265.0
 20
493.0
 30
0.0
 11
260.0
 21
493.0
 31
0.0
  0
LINE
  5
124
330
1F
100
AcDbEntity
  8
0
  6
Continuous
 62
     3
100
AcDbLine
 10
268.0
 20
492.0
 30
0.0
 11
265.0
 21
493.0
 31
0.0
  0
LINE
  5
125
330
1F
100
AcDbEntity
  8
0
  6
Continuous
 62
     3
100
AcDbLine
 10
268.0
 20
490.7
 30
0.0
 11
268.0
 21
492.0
 31
0.0
  0
LINE
  5
126
330
1F
100
AcDbEntity
  8
0
  6
Continuous
 62
     3
100
AcDbLine
 10
246.0
 20
463.0
 30
0.0
 11
246.0
 21
493.0
 31
0.0
  0
LINE
  5
127
330
1F
100
AcDbEntity
  8
0
  6
Continuous
 62
     3
100
AcDbLine
 10
260.0
 20
493.0
 30
0.0
 11
260.0
 21
463.0
 31
0.0
  0
LINE
  5
128
330
1F
100
AcDbEntity
  8
0
  6
Continuous
 62
     3
100
AcDbLine
 10
268.0
 20
464.0
 30
0.0
 11
268.0
 21
492.0
 31
0.0
  0
POINT
  5
129
330
1F
100
AcDbEntity
  8
0
  6
Continuous
 62
     1
100
AcDbPoint
 10
295.0
 20
492.0
 30
0.0
  0
LINE
  5
12A
330
1F
100
AcDbEntity
  8
0
  6
Continuous
 62
     1
100
AcDbLine
 10
295.0
 20
492.0
 30
0.0
 11
295.0
 21
493.5
 31
0.0
  0
ARC
  5
12B
330
1F
100
AcDbEntity
  8
0
  6
Continuous
 62
     1
100
AcDbCircle
 10
296.5
 20
493.5
 30
0.0
 40
1.5
100
AcDbArc
 50
90.0
 51
180.0
  0
LINE
  5
12C
330
1F
100
AcDbEntity
  8
0
  6
Continuous
 62
     1
100
AcDbLine
 10
296.5
 20
495.0
 30
0.0
 11
303.0
 21
495.0
 31
0.0
  0
LINE
  5
12D
330
1F
100
AcDbEntity
  8
0
  6
Continuous
 62
     1
100
AcDbLine
 10
309.5
 20
495.0
 30
0.0
 11
303.0
 21
495.0
 31
0.0
  0
ARC
  5
12E
330
1F
100
AcDbEntity
  8
0
  6
Continuous
 62
     1
100
AcDbCircle
 10
309.5
 20
493.5
 30
0.0
 40
1.5
100
AcDbArc
 50
0.0
 51
90.0
  0
LINE
  5
12F
330
1F
100
AcDbEntity
  8
0
  6
Continuous
 62
     1
100
AcDbLine
 10
311.0
 20
492.0
 30
0.0
 11
311.0
 21
493.5
 31
0.0
  0
LINE
  5
130
330
1F
100
AcDbEntity
  8
0
  6
Continuous
 62
     1
100
AcDbLine
 10
303.0
 20
492.0
 30
0.0
 11
303.0
 21
493.5
 31
0.0
  0
LINE
  5
131
330
1F
100
AcDbEntity
  8
0
  6
Continuous
 62
     1
100
AcDbLine
 10
304.5
 20
493.5
 30
0.0
 11
304.5
 21
492.0
 31
0.0
  0
LINE
  5
132
330
1F
100
AcDbEntity
  8
0
  6
Continuous
 62
     1
100
AcDbLine
 10
306.0
 20
492.0
 30
0.0
 11
306.0
 21
493.5
 31
0.0
  0
LINE
  5
133
330
1F
100
AcDbEntity
  8
0
  6
Continuous
 62
     1
100
AcDbLine
 10
307.5
 20
493.5
 30
0.0
 11
307.5
 21
492.0
 31
0.0
  0
LINE
  5
134
330
1F
100
AcDbEntity
  8
0
  6
Continuous
 62
     1
100
AcDbLine
 10
308.5
 20
492.0
 30
0.0
 11
308.5
 21
493.5
 31
0.0
  0
LINE
  5
135
330
1F
100
AcDbEntity
  8
0
  6
Continuous
 62
     1
100
AcDbLine
 10
309.5
 20
493.5
 30
0.0
 11
309.5
 21
492.0
 31
0.0
  0
LINE
  5
136
330
1F
100
AcDbEntity
  8
0
  6
Continuous
 62
     1
100
AcDbLine
 10
310.0
 20
492.0
 30
0.0
 11
310.0
 21
493.5
 31
0.0
  0
LINE
  5
137
330
1F
100
AcDbEntity
  8
0
  6
Continuous
 62
     1
100
AcDbLine
 10
310.5
 20
493.5
 30
0.0
 11
310.5
 21
492.0
 31
0.0
  0
LINE
  5
138
330
1F
100
AcDbEntity
  8
0
  6
Continuous
 62
     1
100
AcDbLine
 10
295.5
 20
493.5
 30
0.0
 11
295.5
 21
492.0
 31
0.0
  0
LINE
  5
139
330
1F
100
AcDbEntity
  8
0
  6
Continuous
 62
     1
100
AcDbLine
 10
296.0
 20
492.0
 30
0.0
 11
296.0
 21
493.5
 31
0.0
  0
LINE
  5
13A
330
1F
100
AcDbEntity
  8
0
  6
Continuous
 62
     1
100
AcDbLine
 10
296.5
 20
493.5
 30
0.0
 11
296.5
 21
492.0
 31
0.0
  0
LINE
  5
13B
330
1F
100
AcDbEntity
  8
0
  6
Continuous
 62
     1
100
AcDbLine
 10
297.5
 20
492.0
 30
0.0
 11
297.5
 21
493.5
 31
0.0
  0
LINE
  5
13C
330
1F
100
AcDbEntity
  8
0
  6
Continuous
 62
     1
100
AcDbLine
 10
298.5
 20
493.5
 30
0.0
 11
298.5
 21
492.0
 31
0.0
  0
LINE
  5
13D
330
1F
100
AcDbEntity
  8
0
  6
Continuous
 62
     1
100
AcDbLine
 10
300.0
 20
492.0
 30
0.0
 11
300.0
 21
493.5
 31
0.0
  0
LINE
  5
13E
330
1F
100
AcDbEntity
  8
0
  6
Continuous
 62
     1
100
AcDbLine
 10
301.5
 20
493.5
 30
0.0
 11
301.5
 21
492.0
 31
0.0
  0
CIRCLE
  5
13F
330
1F
100
AcDbEntity
  8
0
  6
Continuous
 62
     1
100
AcDbCircle
 10
253.0
 20
478.0
 30
0.0
 40
4.0
  0
CIRCLE
  5
140
330
1F
100
AcDbEntity
  8
0
  6
Continuous
 62
     1
100
AcDbCircle
 10
253.0
 20
478.0
 30
0.0
 40
3.7
  0
LINE
  5
141
330
1F
100
AcDbEntity
  8
0
  6
Continuous
 62
     1
100
AcDbLine
 10
251.0
 20
476.8
 30
0.0
 11
253.0
 21
475.7
 31
0.0
  0
LINE
  5
142
330
1F
100
AcDbEntity
  8
0
  6
Continuous
 62
     1
100
AcDbLine
 10
253.0
 20
475.7
 30
0.0
 11
255.0
 21
476.8
 31
0.0
  0
LINE
  5
143
330
1F
100
AcDbEntity
  8
0
  6
Continuous
 62
     1
100
AcDbLine
 10
255.0
 20
476.8
 30
0.0
 11
255.0
 21
479.2
 31
0.0
  0
LINE
  5
144
330
1F
100
AcDbEntity
  8
0
  6
Continuous
 62
     1
100
AcDbLine
 10
255.0
 20
479.2
 30
0.0
 11
253.0
 21
480.3
 31
0.0
  0
LINE
  5
145
330
1F
100
AcDbEntity
  8
0
  6
Continuous
 62
     1
100
AcDbLine
 10
253.0
 20
480.3
 30
0.0
 11
251.0
 21
479.2
 31
0.0
  0
LINE
  5
146
330
1F
100
AcDbEntity
  8
0
  6
Continuous
 62
     1
100
AcDbLine
 10
251.0
 20
479.2
 30
0.0
 11
251.0
 21
476.8
 31
0.0
  0
LINE
  5
147
330
1F
100
AcDbEntity
  8
0
  6
Continuous
 62
     3
100
AcDbLine
 10
287.9
 20
472.0
 30
0.0
 11
318.0
 21
472.0
 31
0.0
  0
LINE
  5
148
330
1F
100
AcDbEntity
  8
0
  6
Continuous
 62
     1
100
AcDbLine
 10
265.0
 20
463.0
 30
0.0
 11
265.0
 21
493.0
 31
0.0
  0
LINE
  5
149
330
1F
100
AcDbEntity
  8
0
  6
Continuous
 62
     1
100
AcDbLine
 10
350.0
 20
454.3
 30
0.0
 11
350.0
 21
460.3
 31
0.0
  0
ARC
  5
14A
330
1F
100
AcDbEntity
  8
0
  6
Continuous
 62
     1
100
AcDbCircle
 10
351.0
 20
460.3
 30
0.0
 40
1.0
100
AcDbArc
 50
90.0
 51
180.0
  0
LINE
  5
14B
330
1F
100
AcDbEntity
  8
0
  6
Continuous
 62
     1
100
AcDbLine
 10
351.0
 20
461.3
 30
0.0
 11
355.0
 21
461.3
 31
0.0
  0
ARC
  5
14C
330
1F
100
AcDbEntity
  8
0
  6
Continuous
 62
     1
100
AcDbCircle
 10
355.0
 20
460.3
 30
0.0
 40
1.0
100
AcDbArc
 50
0.0
 51
90.0
  0
LINE
  5
14D
330
1F
100
AcDbEntity
  8
0
  6
Continuous
 62
     1
100
AcDbLine
 10
356.0
 20
460.3
 30
0.0
 11
356.0
 21
454.3
 31
0.0
  0
LINE
  5
14E
330
1F
100
AcDbEntity
  8
0
  6
Continuous
 62
     1
100
AcDbLine
 10
356.0
 20
471.7
 30
0.0
 11
356.0
 21
477.7
 31
0.0
  0
ARC
  5
14F
330
1F
100
AcDbEntity
  8
0
  6
Continuous
 62
     1
100
AcDbCircle
 10
355.0
 20
471.7
 30
0.0
 40
1.0
100
AcDbArc
 50
270.0
 51
0.0
  0
LINE
  5
150
330
1F
100
AcDbEntity
  8
0
  6
Continuous
 62
     1
100
AcDbLine
 10
351.0
 20
470.7
 30
0.0
 11
355.0
 21
470.7
 31
0.0
  0
ARC
  5
151
330
1F
100
AcDbEntity
  8
0
  6
Continuous
 62
     1
100
AcDbCircle
 10
351.0
 20
471.7
 30
0.0
 40
1.0
100
AcDbArc
 50
180.0
 51
270.0
  0
LINE
  5
152
330
1F
100
AcDbEntity
  8
0
  6
Continuous
 62
     1
100
AcDbLine
 10
350.0
 20
477.7
 30
0.0
 11
350.0
 21
471.7
 31
0.0
  0
CIRCLE
  5
153
330
1F
100
AcDbEntity
  8
0
  6
Continuous
 62
     3
100
AcDbCircle
 10
303.0
 20
220.0
 30
0.0
 40
30.0
  0
CIRCLE
  5
154
330
1F
100
AcDbEntity
  8
0
  6
Continuous
 62
     3
100
AcDbCircle
 10
303.0
 20
220.0
 30
0.0
 40
25.0
  0
LINE
  5
155
330
1F
100
AcDbEntity
  8
0
  6
Continuous
 62
     3
100
AcDbLine
 10
303.0
 20
250.0
 30
0.0
 11
268.0
 21
250.0
 31
0.0
  0
LINE
  5
156
330
1F
100
AcDbEntity
  8
0
  6
Continuous
 62
     3
100
AcDbLine
 10
268.0
 20
250.0
 30
0.0
 11
268.0
 21
222.0
 31
0.0
  0
ARC
  5
157
330
1F
100
AcDbEntity
  8
0
  6
Continuous
 62
     3
100
AcDbCircle
 10
270.0
 20
219.0
 30
0.0
 40
3.0
100
AcDbArc
 50
0.0
 51
90.0
  0
LINE
  5
158
330
1F
100
AcDbEntity
  8
0
  6
Continuous
 62
     3
100
AcDbLine
 10
270.0
 20
222.0
 30
0.0
 11
268.0
 21
222.0
 31
0.0
  0
LINE
  5
159
330
1F
100
AcDbEntity
  8
0
  6
Continuous
 62
     3
100
AcDbLine
 10
268.0
 20
222.0
 30
0.0
 11
268.0
 21
221.6
 31
0.0
  0
LINE
  5
15A
330
1F
100
AcDbEntity
  8
0
  6
Continuous
 62
     3
100
AcDbLine
 10
303.0
 20
250.0
 30
0.0
 11
338.0
 21
250.0
 31
0.0
  0
LINE
  5
15B
330
1F
100
AcDbEntity
  8
0
  6
Continuous
 62
     3
100
AcDbLine
 10
338.0
 20
250.0
 30
0.0
 11
338.0
 21
222.0
 31
0.0
  0
LINE
  5
15C
330
1F
100
AcDbEntity
  8
0
  6
Continuous
 62
     3
100
AcDbLine
 10
338.0
 20
222.0
 30
0.0
 11
336.0
 21
222.0
 31
0.0
  0
ARC
  5
15D
330
1F
100
AcDbEntity
  8
0
  6
Continuous
 62
     3
100
AcDbCircle
 10
336.0
 20
219.0
 30
0.0
 40
3.0
100
AcDbArc
 50
90.0
 51
180.0
  0
LINE
  5
15E
330
1F
100
AcDbEntity
  8
0
  6
Continuous
 62
     3
100
AcDbLine
 10
268.0
 20
222.0
 30
0.0
 11
265.0
 21
221.0
 31
0.0
  0
LINE
  5
15F
330
1F
100
AcDbEntity
  8
0
  6
Continuous
 62
     3
100
AcDbLine
 10
265.0
 20
221.0
 30
0.0
 11
260.0
 21
221.0
 31
0.0
  0
LINE
  5
160
330
1F
100
AcDbEntity
  8
0
  6
Continuous
 62
     3
100
AcDbLine
 10
260.0
 20
221.0
 30
0.0
 11
260.0
 21
217.0
 31
0.0
  0
LINE
  5
161
330
1F
100
AcDbEntity
  8
0
  6
Continuous
 62
     3
100
AcDbLine
 10
260.0
 20
217.0
 30
0.0
 11
246.0
 21
217.0
 31
0.0
  0
LINE
  5
162
330
1F
100
AcDbEntity
  8
0
  6
Continuous
 62
     3
100
AcDbLine
 10
246.0
 20
217.0
 30
0.0
 11
246.0
 21
221.0
 31
0.0
  0
LINE
  5
163
330
1F
100
AcDbEntity
  8
0
  6
Continuous
 62
     3
100
AcDbLine
 10
246.0
 20
255.0
 30
0.0
 11
246.0
 21
251.0
 31
0.0
  0
LINE
  5
164
330
1F
100
AcDbEntity
  8
0
  6
Continuous
 62
     3
100
AcDbLine
 10
260.0
 20
255.0
 30
0.0
 11
246.0
 21
255.0
 31
0.0
  0
LINE
  5
165
330
1F
100
AcDbEntity
  8
0
  6
Continuous
 62
     3
100
AcDbLine
 10
260.0
 20
251.0
 30
0.0
 11
260.0
 21
255.0
 31
0.0
  0
LINE
  5
166
330
1F
100
AcDbEntity
  8
0
  6
Continuous
 62
     3
100
AcDbLine
 10
265.0
 20
251.0
 30
0.0
 11
260.0
 21
251.0
 31
0.0
  0
LINE
  5
167
330
1F
100
AcDbEntity
  8
0
  6
Continuous
 62
     3
100
AcDbLine
 10
268.0
 20
250.0
 30
0.0
 11
265.0
 21
251.0
 31
0.0
  0
LINE
  5
168
330
1F
100
AcDbEntity
  8
0
  6
Continuous
 62
     3
100
AcDbLine
 10
246.0
 20
221.0
 30
0.0
 11
246.0
 21
251.0
 31
0.0
  0
LINE
  5
169
330
1F
100
AcDbEntity
  8
0
  6
Continuous
 62
     3
100
AcDbLine
 10
260.0
 20
251.0
 30
0.0
 11
260.0
 21
221.0
 31
0.0
  0
LINE
  5
16A
330
1F
100
AcDbEntity
  8
0
  6
Continuous
 62
     3
100
AcDbLine
 10
246.0
 20
221.0
 30
0.0
 11
218.0
 21
221.0
 31
0.0
  0
LINE
  5
16B
330
1F
100
AcDbEntity
  8
0
  6
Continuous
 62
     3
100
AcDbLine
 10
218.0
 20
221.0
 30
0.0
 11
218.0
 21
236.0
 31
0.0
  0
LINE
  5
16C
330
1F
100
AcDbEntity
  8
0
  6
Continuous
 62
     3
100
AcDbLine
 10
218.0
 20
251.0
 30
0.0
 11
218.0
 21
236.0
 31
0.0
  0
LINE
  5
16D
330
1F
100
AcDbEntity
  8
0
  6
Continuous
 62
     3
100
AcDbLine
 10
246.0
 20
251.0
 30
0.0
 11
218.0
 21
251.0
 31
0.0
  0
ARC
  5
16E
330
1F
100
AcDbEntity
  8
0
  6
Continuous
 62
     1
100
AcDbCircle
 10
255.549437732
 20
221.990951738
 30
0.0
 40
1.450590489
100
AcDbArc
 50
0.357392793
 51
37.807149307
  0
ARC
  5
16F
330
1F
100
AcDbEntity
  8
0
  6
Continuous
 62
     1
100
AcDbCircle
 10
254.613528164
 20
221.33768418
 30
0.0
 40
2.591129207
100
AcDbArc
 50
36.53370481
 51
62.039124118
  0
ARC
  5
170
330
1F
100
AcDbEntity
  8
0
  6
Continuous
 62
     1
100
AcDbCircle
 10
253.509660745
 20
219.529179617
 30
0.0
 40
4.707806984
100
AcDbArc
 50
60.492570378
 51
77.473607692
  0
ARC
  5
171
330
1F
100
AcDbEntity
  8
0
  6
Continuous
 62
     1
100
AcDbCircle
 10
253.024519105
 20
217.735081979
 30
0.0
 40
6.564963808
100
AcDbArc
 50
76.736349904
 51
90.213991202
  0
ARC
  5
172
330
1F
100
AcDbEntity
  8
0
  6
Continuous
 62
     1
100
AcDbCircle
 10
252.995045687
 20
217.564023109
 30
0.0
 40
6.735978712
100
AcDbArc
 50
89.957858943
 51
103.091799951
  0
ARC
  5
173
330
1F
100
AcDbEntity
  8
0
  6
Continuous
 62
     1
100
AcDbCircle
 10
252.625080298
 20
219.178476623
 30
0.0
 40
5.07968868
100
AcDbArc
 50
103.152072014
 51
118.881749917
  0
ARC
  5
174
330
1F
100
AcDbEntity
  8
0
  6
Continuous
 62
     1
100
AcDbCircle
 10
251.589339
 20
221.101942432
 30
0.0
 40
2.895284463
100
AcDbArc
 50
119.319624365
 51
142.107546705
  0
ARC
  5
175
330
1F
100
AcDbEntity
  8
0
  6
Continuous
 62
     1
100
AcDbCircle
 10
250.551072405
 20
221.956181809
 30
0.0
 40
1.551691219
100
AcDbArc
 50
143.453647894
 51
178.381810003
  0
ARC
  5
176
330
1F
100
AcDbEntity
  8
0
  6
Continuous
 62
     1
100
AcDbCircle
 10
250.450562268
 20
222.009048262
 30
0.0
 40
1.450590489
100
AcDbArc
 50
180.357392795
 51
217.80714931
  0
ARC
  5
177
330
1F
100
AcDbEntity
  8
0
  6
Continuous
 62
     1
100
AcDbCircle
 10
251.386471836
 20
222.662315819
 30
0.0
 40
2.591129207
100
AcDbArc
 50
216.533704809
 51
242.039124118
  0
ARC
  5
178
330
1F
100
AcDbEntity
  8
0
  6
Continuous
 62
     1
100
AcDbCircle
 10
252.490339255
 20
224.470820384
 30
0.0
 40
4.707806984
100
AcDbArc
 50
240.492570378
 51
257.473607692
  0
ARC
  5
179
330
1F
100
AcDbEntity
  8
0
  6
Continuous
 62
     1
100
AcDbCircle
 10
252.975480895
 20
226.264918021
 30
0.0
 40
6.564963809
100
AcDbArc
 50
256.736349905
 51
270.213991202
  0
ARC
  5
17A
330
1F
100
AcDbEntity
  8
0
  6
Continuous
 62
     1
100
AcDbCircle
 10
253.004954313
 20
226.435976891
 30
0.0
 40
6.735978713
100
AcDbArc
 50
269.957858943
 51
283.09179995
  0
ARC
  5
17B
330
1F
100
AcDbEntity
  8
0
  6
Continuous
 62
     1
100
AcDbCircle
 10
253.374919702
 20
224.821523377
 30
0.0
 40
5.07968868
100
AcDbArc
 50
283.152072014
 51
298.881749917
  0
ARC
  5
17C
330
1F
100
AcDbEntity
  8
0
  6
Continuous
 62
     1
100
AcDbCircle
 10
254.410661
 20
222.898057568
 30
0.0
 40
2.895284463
100
AcDbArc
 50
299.319624365
 51
322.107546705
  0
ARC
  5
17D
330
1F
100
AcDbEntity
  8
0
  6
Continuous
 62
     1
100
AcDbCircle
 10
255.448927595
 20
222.043818191
 30
0.0
 40
1.551691219
100
AcDbArc
 50
323.453647893
 51
358.381810003
  0
ARC
  5
17E
330
1F
100
AcDbEntity
  8
0
  6
Continuous
 62
     1
100
AcDbCircle
 10
255.405501617
 20
221.99152673
 30
0.0
 40
1.394524126
100
AcDbArc
 50
0.348137101
 51
37.574836166
  0
ARC
  5
17F
330
1F
100
AcDbEntity
  8
0
  6
Continuous
 62
     1
100
AcDbCircle
 10
254.522489746
 20
221.379422023
 30
0.0
 40
2.468197751
100
AcDbArc
 50
36.336760048
 51
61.848262893
  0
ARC
  5
180
330
1F
100
AcDbEntity
  8
0
  6
Continuous
 62
     1
100
AcDbCircle
 10
253.480906988
 20
219.684651244
 30
0.0
 40
4.455489473
100
AcDbArc
 50
60.320903167
 51
77.382142795
  0
ARC
  5
181
330
1F
100
AcDbEntity
  8
0
  6
Continuous
 62
     1
100
AcDbCircle
 10
253.023135886
 20
218.003347106
 30
0.0
 40
6.196696084
100
AcDbArc
 50
76.647616679
 51
90.213919111
  0
ARC
  5
182
330
1F
100
AcDbEntity
  8
0
  6
Continuous
 62
     1
100
AcDbCircle
 10
252.995325016
 20
217.84304027
 30
0.0
 40
6.356961449
100
AcDbArc
 50
89.957864004
 51
103.180600206
  0
ARC
  5
183
330
1F
100
AcDbEntity
  8
0
  6
Continuous
 62
     1
100
AcDbCircle
 10
252.646232519
 20
219.35598973
 30
0.0
 40
4.804271081
100
AcDbArc
 50
103.241285823
 51
119.055668217
  0
ARC
  5
184
330
1F
100
AcDbEntity
  8
0
  6
Continuous
 62
     1
100
AcDbCircle
 10
251.668926629
 20
221.158503267
 30
0.0
 40
2.754050259
100
AcDbArc
 50
119.494578095
 51
142.320398966
  0
ARC
  5
185
330
1F
100
AcDbEntity
  8
0
  6
Continuous
 62
     1
100
AcDbCircle
 10
250.689308038
 20
221.958952417
 30
0.0
 40
1.489873598
100
AcDbArc
 50
143.655785427
 51
178.421241303
  0
ARC
  5
186
330
1F
100
AcDbEntity
  8
0
  6
Continuous
 62
     1
100
AcDbCircle
 10
250.594498383
 20
222.00847327
 30
0.0
 40
1.394524126
100
AcDbArc
 50
180.348137102
 51
217.574836168
  0
ARC
  5
187
330
1F
100
AcDbEntity
  8
0
  6
Continuous
 62
     1
100
AcDbCircle
 10
251.477510254
 20
222.620577977
 30
0.0
 40
2.468197751
100
AcDbArc
 50
216.336760046
 51
241.848262889
  0
ARC
  5
188
330
1F
100
AcDbEntity
  8
0
  6
Continuous
 62
     1
100
AcDbCircle
 10
252.519093012
 20
224.315348756
 30
0.0
 40
4.455489473
100
AcDbArc
 50
240.320903165
 51
257.382142794
  0
ARC
  5
189
330
1F
100
AcDbEntity
  8
0
  6
Continuous
 62
     1
100
AcDbCircle
 10
252.976864114
 20
225.996652894
 30
0.0
 40
6.196696084
100
AcDbArc
 50
256.647616678
 51
270.213919111
  0
ARC
  5
18A
330
1F
100
AcDbEntity
  8
0
  6
Continuous
 62
     1
100
AcDbCircle
 10
253.004674984
 20
226.15695973
 30
0.0
 40
6.356961449
100
AcDbArc
 50
269.957864004
 51
283.180600206
  0
ARC
  5
18B
330
1F
100
AcDbEntity
  8
0
  6
Continuous
 62
     1
100
AcDbCircle
 10
253.353767481
 20
224.64401027
 30
0.0
 40
4.804271081
100
AcDbArc
 50
283.241285822
 51
299.055668216
  0
ARC
  5
18C
330
1F
100
AcDbEntity
  8
0
  6
Continuous
 62
     1
100
AcDbCircle
 10
254.33107337
 20
222.841496734
 30
0.0
 40
2.754050259
100
AcDbArc
 50
299.494578095
 51
322.320398966
  0
ARC
  5
18D
330
1F
100
AcDbEntity
  8
0
  6
Continuous
 62
     1
100
AcDbCircle
 10
255.310691962
 20
222.041047583
 30
0.0
 40
1.489873598
100
AcDbArc
 50
323.655785434
 51
358.421241305
  0
LINE
  5
18E
330
1F
100
AcDbEntity
  8
0
  6
Continuous
 62
     1
100
AcDbLine
 10
265.0
 20
221.0
 30
0.0
 11
265.0
 21
251.0
 31
0.0
  0
LINE
  5
18F
330
1F
100
AcDbEntity
  8
0
  6
Continuous
 62
     1
100
AcDbLine
 10
356.0
 20
226.0
 30
0.0
 11
356.0
 21
246.0
 31
0.0
  0
ARC
  5
190
330
1F
100
AcDbEntity
  8
0
  6
Continuous
 62
     1
100
AcDbCircle
 10
355.0
 20
246.0
 30
0.0
 40
1.0
100
AcDbArc
 50
0.0
 51
90.0
  0
LINE
  5
191
330
1F
100
AcDbEntity
  8
0
  6
Continuous
 62
     1
100
AcDbLine
 10
355.0
 20
247.0
 30
0.0
 11
351.0
 21
247.0
 31
0.0
  0
ARC
  5
192
330
1F
100
AcDbEntity
  8
0
  6
Continuous
 62
     1
100
AcDbCircle
 10
351.0
 20
246.0
 30
0.0
 40
1.0
100
AcDbArc
 50
90.0
 51
180.0
  0
CIRCLE
  5
193
330
1F
100
AcDbEntity
  8
0
  6
Continuous
 62
     1
100
AcDbCircle
 10
353.0
 20
236.0
 30
0.0
 40
2.0
  0
CIRCLE
  5
194
330
1F
100
AcDbEntity
  8
0
  6
Continuous
 62
     1
100
AcDbCircle
 10
353.0
 20
236.0
 30
0.0
 40
1.5
  0
LINE
  5
195
330
1F
100
AcDbEntity
  8
0
  6
Continuous
 62
     1
100
AcDbLine
 10
351.0
 20
225.0
 30
0.0
 11
355.0
 21
225.0
 31
0.0
  0
ARC
  5
196
330
1F
100
AcDbEntity
  8
0
  6
Continuous
 62
     1
100
AcDbCircle
 10
355.0
 20
226.0
 30
0.0
 40
1.0
100
AcDbArc
 50
270.0
 51
0.0
  0
ARC
  5
197
330
1F
100
AcDbEntity
  8
0
  6
Continuous
 62
     1
100
AcDbCircle
 10
351.0
 20
226.0
 30
0.0
 40
1.0
100
AcDbArc
 50
180.0
 51
270.0
  0
LINE
  5
198
330
1F
100
AcDbEntity
  8
0
  6
Continuous
 62
     1
100
AcDbLine
 10
350.0
 20
246.0
 30
0.0
 11
350.0
 21
226.0
 31
0.0
  0
LINE
  5
199
330
1F
100
AcDbEntity
  8
0
  6
Continuous
 62
     3
100
AcDbLine
 10
208.0
 20
236.0
 30
0.0
 11
208.0
 21
185.0
 31
0.0
  0
LINE
  5
19A
330
1F
100
AcDbEntity
  8
0
  6
Continuous
 62
     3
100
AcDbLine
 10
208.0
 20
185.0
 30
0.0
 11
210.0
 21
185.0
 31
0.0
  0
LINE
  5
19B
330
1F
100
AcDbEntity
  8
0
  6
Continuous
 62
     3
100
AcDbLine
 10
210.0
 20
185.0
 30
0.0
 11
210.0
 21
287.0
 31
0.0
  0
LINE
  5
19C
330
1F
100
AcDbEntity
  8
0
  6
Continuous
 62
     3
100
AcDbLine
 10
210.0
 20
287.0
 30
0.0
 11
208.0
 21
287.0
 31
0.0
  0
LINE
  5
19D
330
1F
100
AcDbEntity
  8
0
  6
Continuous
 62
     3
100
AcDbLine
 10
208.0
 20
287.0
 30
0.0
 11
208.0
 21
236.0
 31
0.0
  0
LINE
  5
19E
330
1F
100
AcDbEntity
  8
0
  6
Continuous
 62
     3
100
AcDbLine
 10
217.342606428
 20
215.178258035
 30
0.0
 11
210.0
 21
206.0
 31
0.0
  0
ARC
  5
19F
330
1F
100
AcDbEntity
  8
0
  6
Continuous
 62
     3
100
AcDbCircle
 10
215.0
 20
217.052343178
 30
0.0
 40
3.0
100
AcDbArc
 50
321.340191746
 51
0.0
  0
LINE
  5
1A0
330
1F
100
AcDbEntity
  8
0
  6
Continuous
 62
     3
100
AcDbLine
 10
210.0
 20
266.0
 30
0.0
 11
217.342606428
 21
256.821741965
 31
0.0
  0
LINE
  5
1A1
330
1F
100
AcDbEntity
  8
0
  6
Continuous
 62
     3
100
AcDbLine
 10
218.0
 20
254.947656822
 30
0.0
 11
218.0
 21
217.052343178
 31
0.0
  0
ARC
  5
1A2
330
1F
100
AcDbEntity
  8
0
  6
Continuous
 62
     3
100
AcDbCircle
 10
215.0
 20
254.947656822
 30
0.0
 40
3.0
100
AcDbArc
 50
0.0
 51
38.659808254
  0
LINE
  5
1A3
330
1F
100
AcDbEntity
  8
0
  6
Continuous
 62
     3
100
AcDbLine
 10
208.0
 20
478.0
 30
0.0
 11
208.0
 21
427.0
 31
0.0
  0
LINE
  5
1A4
330
1F
100
AcDbEntity
  8
0
  6
Continuous
 62
     3
100
AcDbLine
 10
208.0
 20
427.0
 30
0.0
 11
210.0
 21
427.0
 31
0.0
  0
LINE
  5
1A5
330
1F
100
AcDbEntity
  8
0
  6
Continuous
 62
     3
100
AcDbLine
 10
210.0
 20
427.0
 30
0.0
 11
210.0
 21
529.0
 31
0.0
  0
LINE
  5
1A6
330
1F
100
AcDbEntity
  8
0
  6
Continuous
 62
     3
100
AcDbLine
 10
210.0
 20
529.0
 30
0.0
 11
208.0
 21
529.0
 31
0.0
  0
LINE
  5
1A7
330
1F
100
AcDbEntity
  8
0
  6
Continuous
 62
     3
100
AcDbLine
 10
208.0
 20
529.0
 30
0.0
 11
208.0
 21
478.0
 31
0.0
  0
LINE
  5
1A8
330
1F
100
AcDbEntity
  8
0
  6
Continuous
 62
     3
100
AcDbLine
 10
217.342606428
 20
457.178258035
 30
0.0
 11
210.0
 21
448.0
 31
0.0
  0
ARC
  5
1A9
330
1F
100
AcDbEntity
  8
0
  6
Continuous
 62
     3
100
AcDbCircle
 10
215.0
 20
459.052343178
 30
0.0
 40
3.0
100
AcDbArc
 50
321.340191746
 51
0.0
  0
LINE
  5
1AA
330
1F
100
AcDbEntity
  8
0
  6
Continuous
 62
     3
100
AcDbLine
 10
210.0
 20
508.0
 30
0.0
 11
217.342606428
 21
498.821741965
 31
0.0
  0
LINE
  5
1AB
330
1F
100
AcDbEntity
  8
0
  6
Continuous
 62
     3
100
AcDbLine
 10
218.0
 20
496.947656822
 30
0.0
 11
218.0
 21
459.052343178
 31
0.0
  0
ARC
  5
1AC
330
1F
100
AcDbEntity
  8
0
  6
Continuous
 62
     3
100
AcDbCircle
 10
215.0
 20
496.947656822
 30
0.0
 40
3.0
100
AcDbArc
 50
0.0
 51
38.659808254
  0
LINE
  5
1AD
330
1F
100
AcDbEntity
  8
0
  6
Continuous
 62
     1
100
AcDbLine
 10
251.5
 20
221.0
 30
0.0
 11
254.5
 21
221.0
 31
0.0
  0
LINE
  5
1AE
330
1F
100
AcDbEntity
  8
0
  6
Continuous
 62
     1
100
AcDbLine
 10
254.5
 20
221.0
 30
0.0
 11
254.5
 21
222.5
 31
0.0
  0
LINE
  5
1AF
330
1F
100
AcDbEntity
  8
0
  6
Continuous
 62
     1
100
AcDbLine
 10
254.5
 20
222.5
 30
0.0
 11
251.5
 21
222.5
 31
0.0
  0
LINE
  5
1B0
330
1F
100
AcDbEntity
  8
0
  6
Continuous
 62
     1
100
AcDbLine
 10
251.5
 20
222.5
 30
0.0
 11
251.5
 21
221.0
 31
0.0
  0
LINE
  5
1B1
330
1F
100
AcDbEntity
  8
0
  6
Continuous
 62
     1
100
AcDbLine
 10
303.0
 20
496.0
 30
0.0
 11
303.0
 21
384.0
 31
0.0
  0
LINE
  5
1B2
330
1F
100
AcDbEntity
  8
0
  6
Continuous
 62
     1
100
AcDbLine
 10
303.0
 20
386.0
 30
0.0
 11
301.068148347
 21
386.51763809
 31
0.0
  0
LINE
  5
1B3
330
1F
100
AcDbEntity
  8
0
  6
Continuous
 62
     1
100
AcDbLine
 10
303.0
 20
386.0
 30
0.0
 11
301.068148347
 21
385.48236191
 31
0.0
  0
LINE
  5
1B4
330
1F
100
AcDbEntity
  8
0
  6
Continuous
 62
     1
100
AcDbLine
 10
303.0
 20
386.0
 30
0.0
 11
208.0
 21
386.0
 31
0.0
  0
LINE
  5
1B5
330
1F
100
AcDbEntity
  8
0
  6
Continuous
 62
     1
100
AcDbLine
 10
208.0
 20
386.0
 30
0.0
 11
209.931851653
 21
385.48236191
 31
0.0
  0
LINE
  5
1B6
330
1F
100
AcDbEntity
  8
0
  6
Continuous
 62
     1
100
AcDbLine
 10
208.0
 20
386.0
 30
0.0
 11
209.931851653
 21
386.51763809
 31
0.0
  0
LINE
  5
1B7
330
1F
100
AcDbEntity
  8
0
  6
Continuous
 62
     1
100
AcDbLine
 10
208.0
 20
423.0
 30
0.0
 11
208.0
 21
384.0
 31
0.0
  0
MTEXT
  5
1B8
330
1F
100
AcDbEntity
  8
0
  6
Continuous
 62
     1
100
AcDbMText
 10
246.7
 20
388.0
 30
0.0
 40
6.0
 41
16.000000008
 71
     7
 72
     1
  1
\W0.667;９５
  7
KANJI1
 73
     1
 44
1.0
  0
MTEXT
  5
1B9
330
1F
100
AcDbEntity
  8
0
  6
Continuous
 62
     1
100
AcDbMText
 10
254.7
 20
388.0
 30
0.0
 40
3.6
 41
19.20000001
 71
     7
 72
     1
  1
\W0.667;±１．０
  7
KANJI2
 73
     1
 44
1.0
  0
LINE
  5
1BA
330
1F
100
AcDbEntity
  8
0
  6
Continuous
 62
     1
100
AcDbLine
 10
183.0
 20
478.0
 30
0.0
 11
182.48236191
 21
476.068148347
 31
0.0
  0
LINE
  5
1BB
330
1F
100
AcDbEntity
  8
0
  6
Continuous
 62
     1
100
AcDbLine
 10
183.0
 20
478.0
 30
0.0
 11
183.51763809
 21
476.068148347
 31
0.0
  0
LINE
  5
1BC
330
1F
100
AcDbEntity
  8
0
  6
Continuous
 62
     1
100
AcDbLine
 10
183.0
 20
478.0
 30
0.0
 11
183.0
 21
466.0
 31
0.0
  0
LINE
  5
1BD
330
1F
100
AcDbEntity
  8
0
  6
Continuous
 62
     1
100
AcDbLine
 10
183.0
 20
466.0
 30
0.0
 11
183.51763809
 21
467.931851653
 31
0.0
  0
LINE
  5
1BE
330
1F
100
AcDbEntity
  8
0
  6
Continuous
 62
     1
100
AcDbLine
 10
183.0
 20
466.0
 30
0.0
 11
182.48236191
 21
467.931851653
 31
0.0
  0
MTEXT
  5
1BF
330
1F
100
AcDbEntity
  8
0
  6
Continuous
 62
     1
100
AcDbMText
 10
181.0
 20
468.0
 30
0.0
 40
6.0
 41
16.000000008
 71
     7
 72
     1
  1
\W0.667;１２
  7
KANJI1
 11
0.0
 21
1.0
 31
0.0
 73
     1
 44
1.0
  0
LINE
  5
1C0
330
1F
100
AcDbEntity
  8
0
  6
Continuous
 62
     1
100
AcDbLine
 10
159.1
 20
485.0
 30
0.0
 11
158.1
 21
482.0
 31
0.0
  0
LINE
  5
1C1
330
1F
100
AcDbEntity
  8
0
  6
Continuous
 62
     1
100
AcDbLine
 10
158.1
 20
482.0
 30
0.0
 11
157.1
 21
485.0
 31
0.0
  0
LINE
  5
1C2
330
1F
100
AcDbEntity
  8
0
  6
Continuous
 62
     1
100
AcDbLine
 10
159.1
 20
471.0
 30
0.0
 11
158.1
 21
474.0
 31
0.0
  0
LINE
  5
1C3
330
1F
100
AcDbEntity
  8
0
  6
Continuous
 62
     1
100
AcDbLine
 10
158.1
 20
474.0
 30
0.0
 11
157.1
 21
471.0
 31
0.0
  0
ARC
  5
1C4
330
1F
100
AcDbEntity
  8
0
  6
Continuous
 62
     1
100
AcDbCircle
 10
372.698153602
 20
477.362867953
 30
0.0
 40
214.691593861
100
AcDbArc
 50
180.94875377
 51
184.501643746
  0
ARC
  5
1C5
330
1F
100
AcDbEntity
  8
0
  6
Continuous
 62
     1
100
AcDbCircle
 10
271.591017591
 20
469.467437562
 30
0.0
 40
113.276689305
100
AcDbArc
 50
184.534314889
 51
189.885428129
  0
ARC
  5
1C6
330
1F
100
AcDbEntity
  8
0
  6
Continuous
 62
     1
100
AcDbCircle
 10
185.616792951
 20
454.461284454
 30
0.0
 40
26.002698089
100
AcDbArc
 50
189.833809024
 51
203.688674754
  0
ARC
  5
1C7
330
1F
100
AcDbEntity
  8
0
  6
Continuous
 62
     1
100
AcDbCircle
 10
162.977156474
 20
444.352959211
 30
0.0
 40
1.220080258
100
AcDbArc
 50
196.117049836
 51
312.759894586
  0
ARC
  5
1C8
330
1F
100
AcDbEntity
  8
0
  6
Continuous
 62
     1
100
AcDbCircle
 10
155.31333384
 20
449.489615656
 30
0.0
 40
10.416685277
100
AcDbArc
 50
324.611766463
 51
354.207466014
  0
ARC
  5
1C9
330
1F
100
AcDbEntity
  8
0
  6
Continuous
 62
     1
100
AcDbCircle
 10
92.089970165
 20
464.322884829
 30
0.0
 40
75.281778506
100
AcDbArc
 50
347.818933558
 51
355.30352111
  0
ARC
  5
1CA
330
1F
100
AcDbEntity
  8
0
  6
Continuous
 62
     1
100
AcDbCircle
 10
-14.401201894
 20
475.632486524
 30
0.0
 40
182.359260781
100
AcDbArc
 50
354.501544487
 51
358.563472392
  0
ARC
  5
1CB
330
1F
100
AcDbEntity
  8
0
  6
Continuous
 62
     1
100
AcDbCircle
 10
-74.61672747
 20
477.999298413
 30
0.0
 40
242.616707879
100
AcDbArc
 50
358.36120433
 51
1.671262569
  0
ARC
  5
1CC
330
1F
100
AcDbEntity
  8
0
  6
Continuous
 62
     1
100
AcDbCircle
 10
-29.415987954
 20
479.451416146
 30
0.0
 40
197.392890223
100
AcDbArc
 50
1.632592313
 51
5.378852098
  0
ARC
  5
1CD
330
1F
100
AcDbEntity
  8
0
  6
Continuous
 62
     1
100
AcDbCircle
 10
76.438265267
 20
489.344905128
 30
0.0
 40
91.077357407
100
AcDbArc
 50
5.424739613
 51
11.585388222
  0
ARC
  5
1CE
330
1F
100
AcDbEntity
  8
0
  6
Continuous
 62
     1
100
AcDbCircle
 10
149.965631835
 20
504.489368774
 30
0.0
 40
16.006718109
100
AcDbArc
 50
11.336410869
 51
30.298854621
  0
ARC
  5
1CF
330
1F
100
AcDbEntity
  8
0
  6
Continuous
 62
     1
100
AcDbCircle
 10
162.852951756
 20
512.039536843
 30
0.0
 40
1.070731509
100
AcDbArc
 50
29.385320983
 51
184.673896773
  0
ARC
  5
1D0
330
1F
100
AcDbEntity
  8
0
  6
Continuous
 62
     1
100
AcDbCircle
 10
178.015048577
 20
503.816808152
 30
0.0
 40
18.154205513
100
AcDbArc
 50
153.376100901
 51
173.423144993
  0
ARC
  5
1D1
330
1F
100
AcDbEntity
  8
0
  6
Continuous
 62
     1
100
AcDbCircle
 10
254.755181528
 20
488.654882257
 30
0.0
 40
96.330346626
100
AcDbArc
 50
169.689629719
 51
176.00427059
  0
ARC
  5
1D2
330
1F
100
AcDbEntity
  8
0
  6
Continuous
 62
     1
100
AcDbCircle
 10
359.887919643
 20
479.244190264
 30
0.0
 40
201.873820624
100
AcDbArc
 50
175.419039697
 51
179.202449893
  0
ARC
  5
1D3
330
1F
100
AcDbEntity
  8
0
  6
Continuous
 62
     1
100
AcDbCircle
 10
359.887919643
 20
479.244190264
 30
0.0
 40
201.873820624
100
AcDbArc
 50
175.419039697
 51
179.202449893
  0
LINE
  5
1D4
330
1F
100
AcDbEntity
  8
0
  6
Continuous
 62
     1
100
AcDbLine
 10
174.1
 20
243.0
 30
0.0
 11
173.1
 21
240.0
 31
0.0
  0
LINE
  5
1D5
330
1F
100
AcDbEntity
  8
0
  6
Continuous
 62
     1
100
AcDbLine
 10
173.1
 20
240.0
 30
0.0
 11
172.1
 21
243.0
 31
0.0
  0
LINE
  5
1D6
330
1F
100
AcDbEntity
  8
0
  6
Continuous
 62
     1
100
AcDbLine
 10
174.1
 20
229.0
 30
0.0
 11
173.1
 21
232.0
 31
0.0
  0
LINE
  5
1D7
330
1F
100
AcDbEntity
  8
0
  6
Continuous
 62
     1
100
AcDbLine
 10
173.1
 20
232.0
 30
0.0
 11
172.1
 21
229.0
 31
0.0
  0
ARC
  5
1D8
330
1F
100
AcDbEntity
  8
0
  6
Continuous
 62
     1
100
AcDbCircle
 10
387.698153602
 20
235.362867953
 30
0.0
 40
214.691593861
100
AcDbArc
 50
180.94875377
 51
184.501643746
  0
ARC
  5
1D9
330
1F
100
AcDbEntity
  8
0
  6
Continuous
 62
     1
100
AcDbCircle
 10
286.591017591
 20
227.467437562
 30
0.0
 40
113.276689305
100
AcDbArc
 50
184.534314889
 51
189.885428129
  0
ARC
  5
1DA
330
1F
100
AcDbEntity
  8
0
  6
Continuous
 62
     1
100
AcDbCircle
 10
200.616792951
 20
212.461284454
 30
0.0
 40
26.002698089
100
AcDbArc
 50
189.833809024
 51
203.688674754
  0
ARC
  5
1DB
330
1F
100
AcDbEntity
  8
0
  6
Continuous
 62
     1
100
AcDbCircle
 10
177.977156474
 20
202.352959211
 30
0.0
 40
1.220080258
100
AcDbArc
 50
196.117049836
 51
312.759894586
  0
ARC
  5
1DC
330
1F
100
AcDbEntity
  8
0
  6
Continuous
 62
     1
100
AcDbCircle
 10
170.31333384
 20
207.489615656
 30
0.0
 40
10.416685277
100
AcDbArc
 50
324.611766463
 51
354.207466014
  0
ARC
  5
1DD
330
1F
100
AcDbEntity
  8
0
  6
Continuous
 62
     1
100
AcDbCircle
 10
107.089970165
 20
222.322884829
 30
0.0
 40
75.281778506
100
AcDbArc
 50
347.818933558
 51
355.303521111
  0
ARC
  5
1DE
330
1F
100
AcDbEntity
  8
0
  6
Continuous
 62
     1
100
AcDbCircle
 10
0.598798106
 20
233.632486524
 30
0.0
 40
182.359260781
100
AcDbArc
 50
354.501544487
 51
358.563472392
  0
ARC
  5
1DF
330
1F
100
AcDbEntity
  8
0
  6
Continuous
 62
     1
100
AcDbCircle
 10
-59.61672747
 20
235.999298413
 30
0.0
 40
242.616707879
100
AcDbArc
 50
358.36120433
 51
1.671262569
  0
ARC
  5
1E0
330
1F
100
AcDbEntity
  8
0
  6
Continuous
 62
     1
100
AcDbCircle
 10
-14.415987955
 20
237.451416146
 30
0.0
 40
197.392890224
100
AcDbArc
 50
1.632592313
 51
5.378852098
  0
ARC
  5
1E1
330
1F
100
AcDbEntity
  8
0
  6
Continuous
 62
     1
100
AcDbCircle
 10
91.438265267
 20
247.344905128
 30
0.0
 40
91.077357407
100
AcDbArc
 50
5.424739613
 51
11.585388222
  0
ARC
  5
1E2
330
1F
100
AcDbEntity
  8
0
  6
Continuous
 62
     1
100
AcDbCircle
 10
164.965631835
 20
262.489368774
 30
0.0
 40
16.006718109
100
AcDbArc
 50
11.336410869
 51
30.298854621
  0
ARC
  5
1E3
330
1F
100
AcDbEntity
  8
0
  6
Continuous
 62
     1
100
AcDbCircle
 10
177.852951756
 20
270.039536843
 30
0.0
 40
1.070731509
100
AcDbArc
 50
29.385320983
 51
184.673896773
  0
ARC
  5
1E4
330
1F
100
AcDbEntity
  8
0
  6
Continuous
 62
     1
100
AcDbCircle
 10
193.015048576
 20
261.816808152
 30
0.0
 40
18.154205513
100
AcDbArc
 50
153.376100901
 51
173.423144993
  0
ARC
  5
1E5
330
1F
100
AcDbEntity
  8
0
  6
Continuous
 62
     1
100
AcDbCircle
 10
269.755181528
 20
246.654882257
 30
0.0
 40
96.330346626
100
AcDbArc
 50
169.689629719
 51
176.00427059
  0
ARC
  5
1E6
330
1F
100
AcDbEntity
  8
0
  6
Continuous
 62
     1
100
AcDbCircle
 10
374.887919643
 20
237.244190264
 30
0.0
 40
201.873820625
100
AcDbArc
 50
175.419039697
 51
179.202449893
  0
ARC
  5
1E7
330
1F
100
AcDbEntity
  8
0
  6
Continuous
 62
     1
100
AcDbCircle
 10
374.887919643
 20
237.244190264
 30
0.0
 40
201.873820625
100
AcDbArc
 50
175.419039697
 51
179.202449893
  0
MTEXT
  5
1E8
330
1F
100
AcDbEntity
  8
0
  6
Continuous
 62
     1
100
AcDbMText
 10
166.0
 20
482.0
 30
0.0
 40
6.0
 41
46.8
 71
     7
 72
     1
  1
\T1.111;\W0.900;３６０゜
  7
KANJI3
 11
0.0
 21
1.0
 31
0.0
 73
     1
 44
1.0
  0
MTEXT
  5
1E9
330
1F
100
AcDbEntity
  8
0
  6
Continuous
 62
     1
100
AcDbMText
 10
180.5
 20
239.5
 30
0.0
 40
6.0
 41
46.8
 71
     7
 72
     1
  1
\T1.111;\W0.900;３６０゜
  7
KANJI3
 11
0.0
 21
1.0
 31
0.0
 73
     1
 44
1.0
  0
LINE
  5
1EA
330
1F
100
AcDbEntity
  8
0
  6
Continuous
 62
     3
100
AcDbLine
 10
408.0
 20
478.7
 30
0.0
 11
408.0
 21
453.3
 31
0.0
  0
LINE
  5
1EB
330
1F
100
AcDbEntity
  8
0
  6
Continuous
 62
     3
100
AcDbLine
 10
408.0
 20
478.7
 30
0.0
 11
408.0
 21
480.0
 31
0.0
  0
LINE
  5
1EC
330
1F
100
AcDbEntity
  8
0
  6
Continuous
 62
     3
100
AcDbLine
 10
408.0
 20
480.0
 30
0.0
 11
411.0
 21
481.0
 31
0.0
  0
LINE
  5
1ED
330
1F
100
AcDbEntity
  8
0
  6
Continuous
 62
     3
100
AcDbLine
 10
411.0
 20
481.0
 30
0.0
 11
416.0
 21
481.0
 31
0.0
  0
LINE
  5
1EE
330
1F
100
AcDbEntity
  8
0
  6
Continuous
 62
     3
100
AcDbLine
 10
416.0
 20
481.0
 30
0.0
 11
416.0
 21
485.0
 31
0.0
  0
LINE
  5
1EF
330
1F
100
AcDbEntity
  8
0
  6
Continuous
 62
     3
100
AcDbLine
 10
416.0
 20
485.0
 30
0.0
 11
430.0
 21
485.0
 31
0.0
  0
LINE
  5
1F0
330
1F
100
AcDbEntity
  8
0
  6
Continuous
 62
     3
100
AcDbLine
 10
430.0
 20
485.0
 30
0.0
 11
430.0
 21
481.0
 31
0.0
  0
LINE
  5
1F1
330
1F
100
AcDbEntity
  8
0
  6
Continuous
 62
     3
100
AcDbLine
 10
430.0
 20
481.0
 30
0.0
 11
458.0
 21
481.0
 31
0.0
  0
LINE
  5
1F2
330
1F
100
AcDbEntity
  8
0
  6
Continuous
 62
     3
100
AcDbLine
 10
430.0
 20
451.0
 30
0.0
 11
458.0
 21
451.0
 31
0.0
  0
LINE
  5
1F3
330
1F
100
AcDbEntity
  8
0
  6
Continuous
 62
     3
100
AcDbLine
 10
430.0
 20
447.0
 30
0.0
 11
430.0
 21
451.0
 31
0.0
  0
LINE
  5
1F4
330
1F
100
AcDbEntity
  8
0
  6
Continuous
 62
     3
100
AcDbLine
 10
416.0
 20
447.0
 30
0.0
 11
430.0
 21
447.0
 31
0.0
  0
LINE
  5
1F5
330
1F
100
AcDbEntity
  8
0
  6
Continuous
 62
     3
100
AcDbLine
 10
416.0
 20
451.0
 30
0.0
 11
416.0
 21
447.0
 31
0.0
  0
LINE
  5
1F6
330
1F
100
AcDbEntity
  8
0
  6
Continuous
 62
     3
100
AcDbLine
 10
411.0
 20
451.0
 30
0.0
 11
416.0
 21
451.0
 31
0.0
  0
LINE
  5
1F7
330
1F
100
AcDbEntity
  8
0
  6
Continuous
 62
     3
100
AcDbLine
 10
408.0
 20
452.0
 30
0.0
 11
411.0
 21
451.0
 31
0.0
  0
LINE
  5
1F8
330
1F
100
AcDbEntity
  8
0
  6
Continuous
 62
     3
100
AcDbLine
 10
408.0
 20
453.3
 30
0.0
 11
408.0
 21
452.0
 31
0.0
  0
LINE
  5
1F9
330
1F
100
AcDbEntity
  8
0
  6
Continuous
 62
     3
100
AcDbLine
 10
430.0
 20
481.0
 30
0.0
 11
430.0
 21
451.0
 31
0.0
  0
LINE
  5
1FA
330
1F
100
AcDbEntity
  8
0
  6
Continuous
 62
     3
100
AcDbLine
 10
416.0
 20
451.0
 30
0.0
 11
416.0
 21
481.0
 31
0.0
  0
LINE
  5
1FB
330
1F
100
AcDbEntity
  8
0
  6
Continuous
 62
     3
100
AcDbLine
 10
396.0
 20
454.8
 30
0.0
 11
390.0
 21
454.8
 31
0.0
  0
ARC
  5
1FC
330
1F
100
AcDbEntity
  8
0
  6
Continuous
 62
     3
100
AcDbCircle
 10
397.0
 20
454.3
 30
0.0
 40
1.0
100
AcDbArc
 50
180.0
 51
270.0
  0
ARC
  5
1FD
330
1F
100
AcDbEntity
  8
0
  6
Continuous
 62
     3
100
AcDbCircle
 10
389.0
 20
454.3
 30
0.0
 40
1.0
100
AcDbArc
 50
270.0
 51
0.0
  0
LINE
  5
1FE
330
1F
100
AcDbEntity
  8
0
  6
Continuous
 62
     3
100
AcDbLine
 10
395.0
 20
454.8
 30
0.0
 11
395.0
 21
454.3
 31
0.0
  0
LINE
  5
1FF
330
1F
100
AcDbEntity
  8
0
  6
Continuous
 62
     3
100
AcDbLine
 10
395.0
 20
454.3
 30
0.0
 11
394.5
 21
453.8
 31
0.0
  0
LINE
  5
200
330
1F
100
AcDbEntity
  8
0
  6
Continuous
 62
     3
100
AcDbLine
 10
394.5
 20
453.8
 30
0.0
 11
391.5
 21
453.8
 31
0.0
  0
LINE
  5
201
330
1F
100
AcDbEntity
  8
0
  6
Continuous
 62
     3
100
AcDbLine
 10
391.5
 20
453.8
 30
0.0
 11
391.0
 21
454.3
 31
0.0
  0
LINE
  5
202
330
1F
100
AcDbEntity
  8
0
  6
Continuous
 62
     3
100
AcDbLine
 10
391.0
 20
454.3
 30
0.0
 11
391.0
 21
454.8
 31
0.0
  0
LINE
  5
203
330
1F
100
AcDbEntity
  8
0
  6
Continuous
 62
     3
100
AcDbLine
 10
390.0
 20
477.2
 30
0.0
 11
396.0
 21
477.2
 31
0.0
  0
POINT
  5
204
330
1F
100
AcDbEntity
  8
0
  6
Continuous
 62
     3
100
AcDbPoint
 10
396.0
 20
477.7
 30
0.0
  0
ARC
  5
205
330
1F
100
AcDbEntity
  8
0
  6
Continuous
 62
     3
100
AcDbCircle
 10
397.0
 20
477.7
 30
0.0
 40
1.0
100
AcDbArc
 50
90.0
 51
180.0
  0
ARC
  5
206
330
1F
100
AcDbEntity
  8
0
  6
Continuous
 62
     3
100
AcDbCircle
 10
389.0
 20
477.7
 30
0.0
 40
1.0
100
AcDbArc
 50
0.0
 51
90.0
  0
POINT
  5
207
330
1F
100
AcDbEntity
  8
0
  6
Continuous
 62
     3
100
AcDbPoint
 10
390.0
 20
477.7
 30
0.0
  0
LINE
  5
208
330
1F
100
AcDbEntity
  8
0
  6
Continuous
 62
     3
100
AcDbLine
 10
408.0
 20
478.7
 30
0.0
 11
397.0
 21
478.7
 31
0.0
  0
LINE
  5
209
330
1F
100
AcDbEntity
  8
0
  6
Continuous
 62
     3
100
AcDbLine
 10
408.0
 20
453.3
 30
0.0
 11
397.0
 21
453.3
 31
0.0
  0
CIRCLE
  5
20A
330
1F
100
AcDbEntity
  8
0
  6
Continuous
 62
     1
100
AcDbCircle
 10
423.0
 20
466.0
 30
0.0
 40
4.0
  0
CIRCLE
  5
20B
330
1F
100
AcDbEntity
  8
0
  6
Continuous
 62
     1
100
AcDbCircle
 10
423.0
 20
466.0
 30
0.0
 40
3.7
  0
LINE
  5
20C
330
1F
100
AcDbEntity
  8
0
  6
Continuous
 62
     1
100
AcDbLine
 10
425.0
 20
467.2
 30
0.0
 11
423.0
 21
468.3
 31
0.0
  0
LINE
  5
20D
330
1F
100
AcDbEntity
  8
0
  6
Continuous
 62
     1
100
AcDbLine
 10
423.0
 20
468.3
 30
0.0
 11
421.0
 21
467.2
 31
0.0
  0
LINE
  5
20E
330
1F
100
AcDbEntity
  8
0
  6
Continuous
 62
     1
100
AcDbLine
 10
421.0
 20
467.2
 30
0.0
 11
421.0
 21
464.8
 31
0.0
  0
LINE
  5
20F
330
1F
100
AcDbEntity
  8
0
  6
Continuous
 62
     1
100
AcDbLine
 10
421.0
 20
464.8
 30
0.0
 11
423.0
 21
463.7
 31
0.0
  0
LINE
  5
210
330
1F
100
AcDbEntity
  8
0
  6
Continuous
 62
     1
100
AcDbLine
 10
423.0
 20
463.7
 30
0.0
 11
425.0
 21
464.8
 31
0.0
  0
LINE
  5
211
330
1F
100
AcDbEntity
  8
0
  6
Continuous
 62
     1
100
AcDbLine
 10
425.0
 20
464.8
 30
0.0
 11
425.0
 21
467.2
 31
0.0
  0
LINE
  5
212
330
1F
100
AcDbEntity
  8
0
  6
Continuous
 62
     1
100
AcDbLine
 10
411.0
 20
481.0
 30
0.0
 11
411.0
 21
451.0
 31
0.0
  0
LINE
  5
213
330
1F
100
AcDbEntity
  8
0
  6
Continuous
 62
     1
100
AcDbLine
 10
390.0
 20
454.3
 30
0.0
 11
390.0
 21
460.3
 31
0.0
  0
ARC
  5
214
330
1F
100
AcDbEntity
  8
0
  6
Continuous
 62
     1
100
AcDbCircle
 10
391.0
 20
460.3
 30
0.0
 40
1.0
100
AcDbArc
 50
90.0
 51
180.0
  0
LINE
  5
215
330
1F
100
AcDbEntity
  8
0
  6
Continuous
 62
     1
100
AcDbLine
 10
391.0
 20
461.3
 30
0.0
 11
395.0
 21
461.3
 31
0.0
  0
ARC
  5
216
330
1F
100
AcDbEntity
  8
0
  6
Continuous
 62
     1
100
AcDbCircle
 10
395.0
 20
460.3
 30
0.0
 40
1.0
100
AcDbArc
 50
0.0
 51
90.0
  0
LINE
  5
217
330
1F
100
AcDbEntity
  8
0
  6
Continuous
 62
     1
100
AcDbLine
 10
396.0
 20
460.3
 30
0.0
 11
396.0
 21
454.3
 31
0.0
  0
LINE
  5
218
330
1F
100
AcDbEntity
  8
0
  6
Continuous
 62
     1
100
AcDbLine
 10
396.0
 20
471.7
 30
0.0
 11
396.0
 21
477.7
 31
0.0
  0
ARC
  5
219
330
1F
100
AcDbEntity
  8
0
  6
Continuous
 62
     1
100
AcDbCircle
 10
395.0
 20
471.7
 30
0.0
 40
1.0
100
AcDbArc
 50
270.0
 51
0.0
  0
LINE
  5
21A
330
1F
100
AcDbEntity
  8
0
  6
Continuous
 62
     1
100
AcDbLine
 10
391.0
 20
470.7
 30
0.0
 11
395.0
 21
470.7
 31
0.0
  0
ARC
  5
21B
330
1F
100
AcDbEntity
  8
0
  6
Continuous
 62
     1
100
AcDbCircle
 10
391.0
 20
471.7
 30
0.0
 40
1.0
100
AcDbArc
 50
180.0
 51
270.0
  0
LINE
  5
21C
330
1F
100
AcDbEntity
  8
0
  6
Continuous
 62
     1
100
AcDbLine
 10
390.0
 20
477.7
 30
0.0
 11
390.0
 21
471.7
 31
0.0
  0
LINE
  5
21D
330
1F
100
AcDbEntity
  8
0
  6
Continuous
 62
     3
100
AcDbLine
 10
468.0
 20
466.0
 30
0.0
 11
468.0
 21
517.0
 31
0.0
  0
LINE
  5
21E
330
1F
100
AcDbEntity
  8
0
  6
Continuous
 62
     3
100
AcDbLine
 10
468.0
 20
517.0
 30
0.0
 11
466.0
 21
517.0
 31
0.0
  0
LINE
  5
21F
330
1F
100
AcDbEntity
  8
0
  6
Continuous
 62
     3
100
AcDbLine
 10
466.0
 20
517.0
 30
0.0
 11
466.0
 21
415.0
 31
0.0
  0
LINE
  5
220
330
1F
100
AcDbEntity
  8
0
  6
Continuous
 62
     3
100
AcDbLine
 10
466.0
 20
415.0
 30
0.0
 11
468.0
 21
415.0
 31
0.0
  0
LINE
  5
221
330
1F
100
AcDbEntity
  8
0
  6
Continuous
 62
     3
100
AcDbLine
 10
468.0
 20
415.0
 30
0.0
 11
468.0
 21
466.0
 31
0.0
  0
LINE
  5
222
330
1F
100
AcDbEntity
  8
0
  6
Continuous
 62
     3
100
AcDbLine
 10
458.657393572
 20
486.821741965
 30
0.0
 11
466.0
 21
496.0
 31
0.0
  0
ARC
  5
223
330
1F
100
AcDbEntity
  8
0
  6
Continuous
 62
     3
100
AcDbCircle
 10
461.0
 20
484.947656822
 30
0.0
 40
3.0
100
AcDbArc
 50
141.340191746
 51
180.0
  0
LINE
  5
224
330
1F
100
AcDbEntity
  8
0
  6
Continuous
 62
     3
100
AcDbLine
 10
466.0
 20
436.0
 30
0.0
 11
458.657393572
 21
445.178258035
 31
0.0
  0
LINE
  5
225
330
1F
100
AcDbEntity
  8
0
  6
Continuous
 62
     3
100
AcDbLine
 10
458.0
 20
447.052343178
 30
0.0
 11
458.0
 21
484.947656822
 31
0.0
  0
ARC
  5
226
330
1F
100
AcDbEntity
  8
0
  6
Continuous
 62
     3
100
AcDbCircle
 10
461.0
 20
447.052343178
 30
0.0
 40
3.0
100
AcDbArc
 50
180.0
 51
218.659808254
  0
LINE
  5
227
330
1F
100
AcDbEntity
  8
0
  6
Continuous
 62
     1
100
AcDbLine
 10
496.9
 20
459.0
 30
0.0
 11
497.9
 21
462.0
 31
0.0
  0
LINE
  5
228
330
1F
100
AcDbEntity
  8
0
  6
Continuous
 62
     1
100
AcDbLine
 10
497.9
 20
462.0
 30
0.0
 11
498.9
 21
459.0
 31
0.0
  0
LINE
  5
229
330
1F
100
AcDbEntity
  8
0
  6
Continuous
 62
     1
100
AcDbLine
 10
496.9
 20
473.0
 30
0.0
 11
497.9
 21
470.0
 31
0.0
  0
LINE
  5
22A
330
1F
100
AcDbEntity
  8
0
  6
Continuous
 62
     1
100
AcDbLine
 10
497.9
 20
470.0
 30
0.0
 11
498.9
 21
473.0
 31
0.0
  0
ARC
  5
22B
330
1F
100
AcDbEntity
  8
0
  6
Continuous
 62
     1
100
AcDbCircle
 10
283.301846397
 20
466.637132047
 30
0.0
 40
214.691593861
100
AcDbArc
 50
0.94875377
 51
4.501643746
  0
ARC
  5
22C
330
1F
100
AcDbEntity
  8
0
  6
Continuous
 62
     1
100
AcDbCircle
 10
384.408982409
 20
474.532562438
 30
0.0
 40
113.276689305
100
AcDbArc
 50
4.534314889
 51
9.885428129
  0
ARC
  5
22D
330
1F
100
AcDbEntity
  8
0
  6
Continuous
 62
     1
100
AcDbCircle
 10
470.383207049
 20
489.538715546
 30
0.0
 40
26.002698089
100
AcDbArc
 50
9.833809024
 51
23.688674754
  0
ARC
  5
22E
330
1F
100
AcDbEntity
  8
0
  6
Continuous
 62
     1
100
AcDbCircle
 10
493.022843526
 20
499.647040789
 30
0.0
 40
1.220080258
100
AcDbArc
 50
16.117049839
 51
132.759894584
  0
ARC
  5
22F
330
1F
100
AcDbEntity
  8
0
  6
Continuous
 62
     1
100
AcDbCircle
 10
500.68666616
 20
494.510384344
 30
0.0
 40
10.416685277
100
AcDbArc
 50
144.611766463
 51
174.207466014
  0
ARC
  5
230
330
1F
100
AcDbEntity
  8
0
  6
Continuous
 62
     1
100
AcDbCircle
 10
563.910029835
 20
479.677115171
 30
0.0
 40
75.281778506
100
AcDbArc
 50
167.818933558
 51
175.30352111
  0
ARC
  5
231
330
1F
100
AcDbEntity
  8
0
  6
Continuous
 62
     1
100
AcDbCircle
 10
670.401201895
 20
468.367513476
 30
0.0
 40
182.359260782
100
AcDbArc
 50
174.501544487
 51
178.563472392
  0
ARC
  5
232
330
1F
100
AcDbEntity
  8
0
  6
Continuous
 62
     1
100
AcDbCircle
 10
730.61672747
 20
466.000701587
 30
0.0
 40
242.616707879
100
AcDbArc
 50
178.36120433
 51
181.671262569
  0
ARC
  5
233
330
1F
100
AcDbEntity
  8
0
  6
Continuous
 62
     1
100
AcDbCircle
 10
685.415987955
 20
464.548583854
 30
0.0
 40
197.392890224
100
AcDbArc
 50
181.632592313
 51
185.378852098
  0
ARC
  5
234
330
1F
100
AcDbEntity
  8
0
  6
Continuous
 62
     1
100
AcDbCircle
 10
579.561734732
 20
454.655094872
 30
0.0
 40
91.077357407
100
AcDbArc
 50
185.424739613
 51
191.585388222
  0
ARC
  5
235
330
1F
100
AcDbEntity
  8
0
  6
Continuous
 62
     1
100
AcDbCircle
 10
506.034368165
 20
439.510631226
 30
0.0
 40
16.006718109
100
AcDbArc
 50
191.336410868
 51
210.298854621
  0
ARC
  5
236
330
1F
100
AcDbEntity
  8
0
  6
Continuous
 62
     1
100
AcDbCircle
 10
493.147048244
 20
431.960463157
 30
0.0
 40
1.070731509
100
AcDbArc
 50
209.385320986
 51
4.67389677
  0
ARC
  5
237
330
1F
100
AcDbEntity
  8
0
  6
Continuous
 62
     1
100
AcDbCircle
 10
477.984951424
 20
440.183191848
 30
0.0
 40
18.154205513
100
AcDbArc
 50
333.376100901
 51
353.423144993
  0
ARC
  5
238
330
1F
100
AcDbEntity
  8
0
  6
Continuous
 62
     1
100
AcDbCircle
 10
401.244818472
 20
455.345117743
 30
0.0
 40
96.330346626
100
AcDbArc
 50
349.689629719
 51
356.00427059
  0
ARC
  5
239
330
1F
100
AcDbEntity
  8
0
  6
Continuous
 62
     1
100
AcDbCircle
 10
296.112080357
 20
464.755809736
 30
0.0
 40
201.873820625
100
AcDbArc
 50
355.419039697
 51
359.202449893
  0
ARC
  5
23A
330
1F
100
AcDbEntity
  8
0
  6
Continuous
 62
     1
100
AcDbCircle
 10
296.112080357
 20
464.755809736
 30
0.0
 40
201.873820625
100
AcDbArc
 50
355.419039697
 51
359.202449893
  0
MTEXT
  5
23B
330
1F
100
AcDbEntity
  8
0
  6
Continuous
 62
     1
100
AcDbMText
 10
495.5
 20
469.5
 30
0.0
 40
6.0
 41
46.8
 71
     7
 72
     1
  1
\T1.111;\W0.900;３６０゜
  7
KANJI3
 11
0.0
 21
1.0
 31
0.0
 73
     1
 44
1.0
  0
LINE
  5
23C
330
1F
100
AcDbEntity
  8
0
  6
Continuous
 62
     3
100
AcDbLine
 10
357.0
 20
478.7
 30
0.0
 11
389.0
 21
478.7
 31
0.0
  0
LINE
  5
23D
330
1F
100
AcDbEntity
  8
0
  6
Continuous
 62
     3
100
AcDbLine
 10
357.000005395
 20
453.3
 30
0.0
 11
389.0
 21
453.3
 31
0.0
  0
LINE
  5
23E
330
1F
100
AcDbEntity
  8
0
  6
Continuous
 62
     3
100
AcDbLine
 10
408.0
 20
248.7
 30
0.0
 11
408.0
 21
223.3
 31
0.0
  0
LINE
  5
23F
330
1F
100
AcDbEntity
  8
0
  6
Continuous
 62
     3
100
AcDbLine
 10
408.0
 20
248.7
 30
0.0
 11
408.0
 21
250.0
 31
0.0
  0
LINE
  5
240
330
1F
100
AcDbEntity
  8
0
  6
Continuous
 62
     3
100
AcDbLine
 10
408.0
 20
250.0
 30
0.0
 11
411.0
 21
251.0
 31
0.0
  0
LINE
  5
241
330
1F
100
AcDbEntity
  8
0
  6
Continuous
 62
     3
100
AcDbLine
 10
411.0
 20
251.0
 30
0.0
 11
416.0
 21
251.0
 31
0.0
  0
LINE
  5
242
330
1F
100
AcDbEntity
  8
0
  6
Continuous
 62
     3
100
AcDbLine
 10
416.0
 20
251.0
 30
0.0
 11
416.0
 21
255.0
 31
0.0
  0
LINE
  5
243
330
1F
100
AcDbEntity
  8
0
  6
Continuous
 62
     3
100
AcDbLine
 10
416.0
 20
255.0
 30
0.0
 11
430.0
 21
255.0
 31
0.0
  0
LINE
  5
244
330
1F
100
AcDbEntity
  8
0
  6
Continuous
 62
     3
100
AcDbLine
 10
430.0
 20
255.0
 30
0.0
 11
430.0
 21
251.0
 31
0.0
  0
LINE
  5
245
330
1F
100
AcDbEntity
  8
0
  6
Continuous
 62
     3
100
AcDbLine
 10
430.0
 20
251.0
 30
0.0
 11
458.0
 21
251.0
 31
0.0
  0
LINE
  5
246
330
1F
100
AcDbEntity
  8
0
  6
Continuous
 62
     3
100
AcDbLine
 10
458.0
 20
251.0
 30
0.0
 11
458.0
 21
236.0
 31
0.0
  0
LINE
  5
247
330
1F
100
AcDbEntity
  8
0
  6
Continuous
 62
     3
100
AcDbLine
 10
458.0
 20
221.0
 30
0.0
 11
458.0
 21
236.0
 31
0.0
  0
LINE
  5
248
330
1F
100
AcDbEntity
  8
0
  6
Continuous
 62
     3
100
AcDbLine
 10
430.0
 20
221.0
 30
0.0
 11
458.0
 21
221.0
 31
0.0
  0
LINE
  5
249
330
1F
100
AcDbEntity
  8
0
  6
Continuous
 62
     3
100
AcDbLine
 10
430.0
 20
217.0
 30
0.0
 11
430.0
 21
221.0
 31
0.0
  0
LINE
  5
24A
330
1F
100
AcDbEntity
  8
0
  6
Continuous
 62
     3
100
AcDbLine
 10
416.0
 20
217.0
 30
0.0
 11
430.0
 21
217.0
 31
0.0
  0
LINE
  5
24B
330
1F
100
AcDbEntity
  8
0
  6
Continuous
 62
     3
100
AcDbLine
 10
416.0
 20
221.0
 30
0.0
 11
416.0
 21
217.0
 31
0.0
  0
LINE
  5
24C
330
1F
100
AcDbEntity
  8
0
  6
Continuous
 62
     3
100
AcDbLine
 10
411.0
 20
221.0
 30
0.0
 11
416.0
 21
221.0
 31
0.0
  0
LINE
  5
24D
330
1F
100
AcDbEntity
  8
0
  6
Continuous
 62
     3
100
AcDbLine
 10
408.0
 20
222.0
 30
0.0
 11
411.0
 21
221.0
 31
0.0
  0
LINE
  5
24E
330
1F
100
AcDbEntity
  8
0
  6
Continuous
 62
     3
100
AcDbLine
 10
408.0
 20
223.3
 30
0.0
 11
408.0
 21
222.0
 31
0.0
  0
LINE
  5
24F
330
1F
100
AcDbEntity
  8
0
  6
Continuous
 62
     3
100
AcDbLine
 10
430.0
 20
251.0
 30
0.0
 11
430.0
 21
221.0
 31
0.0
  0
LINE
  5
250
330
1F
100
AcDbEntity
  8
0
  6
Continuous
 62
     3
100
AcDbLine
 10
416.0
 20
221.0
 30
0.0
 11
416.0
 21
251.0
 31
0.0
  0
ARC
  5
251
330
1F
100
AcDbEntity
  8
0
  6
Continuous
 62
     1
100
AcDbCircle
 10
425.549437732
 20
221.990951738
 30
0.0
 40
1.450590488
100
AcDbArc
 50
0.357392792
 51
37.807149311
  0
ARC
  5
252
330
1F
100
AcDbEntity
  8
0
  6
Continuous
 62
     1
100
AcDbCircle
 10
424.613528164
 20
221.33768418
 30
0.0
 40
2.591129207
100
AcDbArc
 50
36.53370481
 51
62.039124116
  0
ARC
  5
253
330
1F
100
AcDbEntity
  8
0
  6
Continuous
 62
     1
100
AcDbCircle
 10
423.509660745
 20
219.529179616
 30
0.0
 40
4.707806984
100
AcDbArc
 50
60.492570378
 51
77.473607692
  0
ARC
  5
254
330
1F
100
AcDbEntity
  8
0
  6
Continuous
 62
     1
100
AcDbCircle
 10
423.024519105
 20
217.735081979
 30
0.0
 40
6.564963808
100
AcDbArc
 50
76.736349904
 51
90.213991202
  0
ARC
  5
255
330
1F
100
AcDbEntity
  8
0
  6
Continuous
 62
     1
100
AcDbCircle
 10
422.995045687
 20
217.564023109
 30
0.0
 40
6.735978713
100
AcDbArc
 50
89.957858942
 51
103.09179995
  0
ARC
  5
256
330
1F
100
AcDbEntity
  8
0
  6
Continuous
 62
     1
100
AcDbCircle
 10
422.625080298
 20
219.178476623
 30
0.0
 40
5.07968868
100
AcDbArc
 50
103.152072013
 51
118.881749916
  0
ARC
  5
257
330
1F
100
AcDbEntity
  8
0
  6
Continuous
 62
     1
100
AcDbCircle
 10
421.589339
 20
221.101942433
 30
0.0
 40
2.895284463
100
AcDbArc
 50
119.319624364
 51
142.107546707
  0
ARC
  5
258
330
1F
100
AcDbEntity
  8
0
  6
Continuous
 62
     1
100
AcDbCircle
 10
420.551072405
 20
221.956181809
 30
0.0
 40
1.551691219
100
AcDbArc
 50
143.453647889
 51
178.381810001
  0
ARC
  5
259
330
1F
100
AcDbEntity
  8
0
  6
Continuous
 62
     1
100
AcDbCircle
 10
420.450562268
 20
222.009048262
 30
0.0
 40
1.450590488
100
AcDbArc
 50
180.357392793
 51
217.807149308
  0
ARC
  5
25A
330
1F
100
AcDbEntity
  8
0
  6
Continuous
 62
     1
100
AcDbCircle
 10
421.386471836
 20
222.66231582
 30
0.0
 40
2.591129207
100
AcDbArc
 50
216.533704814
 51
242.039124123
  0
ARC
  5
25B
330
1F
100
AcDbEntity
  8
0
  6
Continuous
 62
     1
100
AcDbCircle
 10
422.490339255
 20
224.470820384
 30
0.0
 40
4.707806984
100
AcDbArc
 50
240.49257038
 51
257.473607692
  0
ARC
  5
25C
330
1F
100
AcDbEntity
  8
0
  6
Continuous
 62
     1
100
AcDbCircle
 10
422.975480895
 20
226.264918021
 30
0.0
 40
6.564963809
100
AcDbArc
 50
256.736349905
 51
270.213991202
  0
ARC
  5
25D
330
1F
100
AcDbEntity
  8
0
  6
Continuous
 62
     1
100
AcDbCircle
 10
423.004954313
 20
226.435976891
 30
0.0
 40
6.735978713
100
AcDbArc
 50
269.957858943
 51
283.091799951
  0
ARC
  5
25E
330
1F
100
AcDbEntity
  8
0
  6
Continuous
 62
     1
100
AcDbCircle
 10
423.374919702
 20
224.821523378
 30
0.0
 40
5.07968868
100
AcDbArc
 50
283.152072016
 51
298.881749918
  0
ARC
  5
25F
330
1F
100
AcDbEntity
  8
0
  6
Continuous
 62
     1
100
AcDbCircle
 10
424.410661
 20
222.898057568
 30
0.0
 40
2.895284463
100
AcDbArc
 50
299.319624362
 51
322.107546702
  0
ARC
  5
260
330
1F
100
AcDbEntity
  8
0
  6
Continuous
 62
     1
100
AcDbCircle
 10
425.448927595
 20
222.043818191
 30
0.0
 40
1.551691219
100
AcDbArc
 50
323.453647895
 51
358.381810003
  0
ARC
  5
261
330
1F
100
AcDbEntity
  8
0
  6
Continuous
 62
     1
100
AcDbCircle
 10
425.405501617
 20
221.99152673
 30
0.0
 40
1.394524126
100
AcDbArc
 50
0.348137101
 51
37.574836166
  0
ARC
  5
262
330
1F
100
AcDbEntity
  8
0
  6
Continuous
 62
     1
100
AcDbCircle
 10
424.522489745
 20
221.379422023
 30
0.0
 40
2.468197751
100
AcDbArc
 50
36.336760043
 51
61.848262885
  0
ARC
  5
263
330
1F
100
AcDbEntity
  8
0
  6
Continuous
 62
     1
100
AcDbCircle
 10
423.480906988
 20
219.684651244
 30
0.0
 40
4.455489473
100
AcDbArc
 50
60.320903166
 51
77.382142793
  0
ARC
  5
264
330
1F
100
AcDbEntity
  8
0
  6
Continuous
 62
     1
100
AcDbCircle
 10
423.023135886
 20
218.003347106
 30
0.0
 40
6.196696084
100
AcDbArc
 50
76.64761668
 51
90.213919111
  0
ARC
  5
265
330
1F
100
AcDbEntity
  8
0
  6
Continuous
 62
     1
100
AcDbCircle
 10
422.995325016
 20
217.84304027
 30
0.0
 40
6.356961449
100
AcDbArc
 50
89.957864004
 51
103.180600206
  0
ARC
  5
266
330
1F
100
AcDbEntity
  8
0
  6
Continuous
 62
     1
100
AcDbCircle
 10
422.646232519
 20
219.355989729
 30
0.0
 40
4.804271082
100
AcDbArc
 50
103.241285823
 51
119.055668216
  0
ARC
  5
267
330
1F
100
AcDbEntity
  8
0
  6
Continuous
 62
     1
100
AcDbCircle
 10
421.66892663
 20
221.158503267
 30
0.0
 40
2.754050259
100
AcDbArc
 50
119.4945781
 51
142.320398969
  0
ARC
  5
268
330
1F
100
AcDbEntity
  8
0
  6
Continuous
 62
     1
100
AcDbCircle
 10
420.689308038
 20
221.958952417
 30
0.0
 40
1.489873597
100
AcDbArc
 50
143.655785422
 51
178.421241303
  0
ARC
  5
269
330
1F
100
AcDbEntity
  8
0
  6
Continuous
 62
     1
100
AcDbCircle
 10
420.594498384
 20
222.00847327
 30
0.0
 40
1.394524126
100
AcDbArc
 50
180.348137105
 51
217.574836165
  0
ARC
  5
26A
330
1F
100
AcDbEntity
  8
0
  6
Continuous
 62
     1
100
AcDbCircle
 10
421.477510254
 20
222.620577977
 30
0.0
 40
2.468197751
100
AcDbArc
 50
216.336760052
 51
241.848262898
  0
ARC
  5
26B
330
1F
100
AcDbEntity
  8
0
  6
Continuous
 62
     1
100
AcDbCircle
 10
422.519093012
 20
224.315348756
 30
0.0
 40
4.455489473
100
AcDbArc
 50
240.320903167
 51
257.382142795
  0
ARC
  5
26C
330
1F
100
AcDbEntity
  8
0
  6
Continuous
 62
     1
100
AcDbCircle
 10
422.976864114
 20
225.996652894
 30
0.0
 40
6.196696084
100
AcDbArc
 50
256.647616679
 51
270.213919111
  0
ARC
  5
26D
330
1F
100
AcDbEntity
  8
0
  6
Continuous
 62
     1
100
AcDbCircle
 10
423.004674984
 20
226.15695973
 30
0.0
 40
6.35696145
100
AcDbArc
 50
269.957864005
 51
283.180600206
  0
ARC
  5
26E
330
1F
100
AcDbEntity
  8
0
  6
Continuous
 62
     1
100
AcDbCircle
 10
423.353767481
 20
224.64401027
 30
0.0
 40
4.804271081
100
AcDbArc
 50
283.241285822
 51
299.055668216
  0
ARC
  5
26F
330
1F
100
AcDbEntity
  8
0
  6
Continuous
 62
     1
100
AcDbCircle
 10
424.33107337
 20
222.841496734
 30
0.0
 40
2.754050259
100
AcDbArc
 50
299.494578096
 51
322.320398966
  0
ARC
  5
270
330
1F
100
AcDbEntity
  8
0
  6
Continuous
 62
     1
100
AcDbCircle
 10
425.310691961
 20
222.041047583
 30
0.0
 40
1.489873598
100
AcDbArc
 50
323.655785434
 51
358.421241303
  0
LINE
  5
271
330
1F
100
AcDbEntity
  8
0
  6
Continuous
 62
     1
100
AcDbLine
 10
391.0
 20
225.0
 30
0.0
 11
395.0
 21
225.0
 31
0.0
  0
ARC
  5
272
330
1F
100
AcDbEntity
  8
0
  6
Continuous
 62
     1
100
AcDbCircle
 10
395.0
 20
226.0
 30
0.0
 40
1.0
100
AcDbArc
 50
270.0
 51
0.0
  0
LINE
  5
273
330
1F
100
AcDbEntity
  8
0
  6
Continuous
 62
     1
100
AcDbLine
 10
396.0
 20
226.0
 30
0.0
 11
396.0
 21
246.0
 31
0.0
  0
ARC
  5
274
330
1F
100
AcDbEntity
  8
0
  6
Continuous
 62
     1
100
AcDbCircle
 10
395.0
 20
246.0
 30
0.0
 40
1.0
100
AcDbArc
 50
0.0
 51
90.0
  0
LINE
  5
275
330
1F
100
AcDbEntity
  8
0
  6
Continuous
 62
     1
100
AcDbLine
 10
395.0
 20
247.0
 30
0.0
 11
391.0
 21
247.0
 31
0.0
  0
ARC
  5
276
330
1F
100
AcDbEntity
  8
0
  6
Continuous
 62
     1
100
AcDbCircle
 10
391.0
 20
246.0
 30
0.0
 40
1.0
100
AcDbArc
 50
90.0
 51
180.0
  0
LINE
  5
277
330
1F
100
AcDbEntity
  8
0
  6
Continuous
 62
     1
100
AcDbLine
 10
390.0
 20
246.0
 30
0.0
 11
390.0
 21
226.0
 31
0.0
  0
CIRCLE
  5
278
330
1F
100
AcDbEntity
  8
0
  6
Continuous
 62
     1
100
AcDbCircle
 10
393.0
 20
236.0
 30
0.0
 40
1.5
  0
CIRCLE
  5
279
330
1F
100
AcDbEntity
  8
0
  6
Continuous
 62
     1
100
AcDbCircle
 10
393.0
 20
236.0
 30
0.0
 40
2.0
  0
ARC
  5
27A
330
1F
100
AcDbEntity
  8
0
  6
Continuous
 62
     1
100
AcDbCircle
 10
391.0
 20
226.0
 30
0.0
 40
1.0
100
AcDbArc
 50
180.0
 51
270.0
  0
LINE
  5
27B
330
1F
100
AcDbEntity
  8
0
  6
Continuous
 62
     1
100
AcDbLine
 10
411.0
 20
251.0
 30
0.0
 11
411.0
 21
221.0
 31
0.0
  0
LINE
  5
27C
330
1F
100
AcDbEntity
  8
0
  6
Continuous
 62
     3
100
AcDbLine
 10
468.0
 20
236.0
 30
0.0
 11
468.0
 21
287.0
 31
0.0
  0
LINE
  5
27D
330
1F
100
AcDbEntity
  8
0
  6
Continuous
 62
     3
100
AcDbLine
 10
468.0
 20
287.0
 30
0.0
 11
466.0
 21
287.0
 31
0.0
  0
LINE
  5
27E
330
1F
100
AcDbEntity
  8
0
  6
Continuous
 62
     3
100
AcDbLine
 10
466.0
 20
287.0
 30
0.0
 11
466.0
 21
185.0
 31
0.0
  0
LINE
  5
27F
330
1F
100
AcDbEntity
  8
0
  6
Continuous
 62
     3
100
AcDbLine
 10
466.0
 20
185.0
 30
0.0
 11
468.0
 21
185.0
 31
0.0
  0
LINE
  5
280
330
1F
100
AcDbEntity
  8
0
  6
Continuous
 62
     3
100
AcDbLine
 10
468.0
 20
185.0
 30
0.0
 11
468.0
 21
236.0
 31
0.0
  0
LINE
  5
281
330
1F
100
AcDbEntity
  8
0
  6
Continuous
 62
     3
100
AcDbLine
 10
458.657393572
 20
256.821741965
 30
0.0
 11
466.0
 21
266.0
 31
0.0
  0
ARC
  5
282
330
1F
100
AcDbEntity
  8
0
  6
Continuous
 62
     3
100
AcDbCircle
 10
461.0
 20
254.947656822
 30
0.0
 40
3.0
100
AcDbArc
 50
141.340191746
 51
180.0
  0
LINE
  5
283
330
1F
100
AcDbEntity
  8
0
  6
Continuous
 62
     3
100
AcDbLine
 10
466.0
 20
206.0
 30
0.0
 11
458.657393572
 21
215.178258035
 31
0.0
  0
LINE
  5
284
330
1F
100
AcDbEntity
  8
0
  6
Continuous
 62
     3
100
AcDbLine
 10
458.0
 20
217.052343178
 30
0.0
 11
458.0
 21
254.947656822
 31
0.0
  0
ARC
  5
285
330
1F
100
AcDbEntity
  8
0
  6
Continuous
 62
     3
100
AcDbCircle
 10
461.0
 20
217.052343178
 30
0.0
 40
3.0
100
AcDbArc
 50
180.0
 51
218.659808254
  0
LINE
  5
286
330
1F
100
AcDbEntity
  8
0
  6
Continuous
 62
     1
100
AcDbLine
 10
421.5
 20
221.0
 30
0.0
 11
424.5
 21
221.0
 31
0.0
  0
LINE
  5
287
330
1F
100
AcDbEntity
  8
0
  6
Continuous
 62
     1
100
AcDbLine
 10
424.5
 20
221.0
 30
0.0
 11
424.5
 21
222.5
 31
0.0
  0
LINE
  5
288
330
1F
100
AcDbEntity
  8
0
  6
Continuous
 62
     1
100
AcDbLine
 10
424.5
 20
222.5
 30
0.0
 11
421.5
 21
222.5
 31
0.0
  0
LINE
  5
289
330
1F
100
AcDbEntity
  8
0
  6
Continuous
 62
     1
100
AcDbLine
 10
421.5
 20
222.5
 30
0.0
 11
421.5
 21
221.0
 31
0.0
  0
LINE
  5
28A
330
1F
100
AcDbEntity
  8
0
  6
Continuous
 62
     1
100
AcDbLine
 10
496.9
 20
229.0
 30
0.0
 11
497.9
 21
232.0
 31
0.0
  0
LINE
  5
28B
330
1F
100
AcDbEntity
  8
0
  6
Continuous
 62
     1
100
AcDbLine
 10
497.9
 20
232.0
 30
0.0
 11
498.9
 21
229.0
 31
0.0
  0
LINE
  5
28C
330
1F
100
AcDbEntity
  8
0
  6
Continuous
 62
     1
100
AcDbLine
 10
496.9
 20
243.0
 30
0.0
 11
497.9
 21
240.0
 31
0.0
  0
LINE
  5
28D
330
1F
100
AcDbEntity
  8
0
  6
Continuous
 62
     1
100
AcDbLine
 10
497.9
 20
240.0
 30
0.0
 11
498.9
 21
243.0
 31
0.0
  0
ARC
  5
28E
330
1F
100
AcDbEntity
  8
0
  6
Continuous
 62
     1
100
AcDbCircle
 10
283.301846398
 20
236.637132047
 30
0.0
 40
214.691593861
100
AcDbArc
 50
0.94875377
 51
4.501643746
  0
ARC
  5
28F
330
1F
100
AcDbEntity
  8
0
  6
Continuous
 62
     1
100
AcDbCircle
 10
384.408982409
 20
244.532562438
 30
0.0
 40
113.276689306
100
AcDbArc
 50
4.534314889
 51
9.885428129
  0
ARC
  5
290
330
1F
100
AcDbEntity
  8
0
  6
Continuous
 62
     1
100
AcDbCircle
 10
470.383207049
 20
259.538715546
 30
0.0
 40
26.002698089
100
AcDbArc
 50
9.833809024
 51
23.688674754
  0
ARC
  5
291
330
1F
100
AcDbEntity
  8
0
  6
Continuous
 62
     1
100
AcDbCircle
 10
493.022843526
 20
269.647040789
 30
0.0
 40
1.220080258
100
AcDbArc
 50
16.117049835
 51
132.759894587
  0
ARC
  5
292
330
1F
100
AcDbEntity
  8
0
  6
Continuous
 62
     1
100
AcDbCircle
 10
500.68666616
 20
264.510384344
 30
0.0
 40
10.416685277
100
AcDbArc
 50
144.611766463
 51
174.207466015
  0
ARC
  5
293
330
1F
100
AcDbEntity
  8
0
  6
Continuous
 62
     1
100
AcDbCircle
 10
563.910029835
 20
249.677115172
 30
0.0
 40
75.281778506
100
AcDbArc
 50
167.818933559
 51
175.303521111
  0
ARC
  5
294
330
1F
100
AcDbEntity
  8
0
  6
Continuous
 62
     1
100
AcDbCircle
 10
670.401201894
 20
238.367513476
 30
0.0
 40
182.359260782
100
AcDbArc
 50
174.501544487
 51
178.563472392
  0
ARC
  5
295
330
1F
100
AcDbEntity
  8
0
  6
Continuous
 62
     1
100
AcDbCircle
 10
730.616727469
 20
236.000701587
 30
0.0
 40
242.616707879
100
AcDbArc
 50
178.36120433
 51
181.671262569
  0
ARC
  5
296
330
1F
100
AcDbEntity
  8
0
  6
Continuous
 62
     1
100
AcDbCircle
 10
685.415987955
 20
234.548583854
 30
0.0
 40
197.392890224
100
AcDbArc
 50
181.632592313
 51
185.378852098
  0
ARC
  5
297
330
1F
100
AcDbEntity
  8
0
  6
Continuous
 62
     1
100
AcDbCircle
 10
579.561734732
 20
224.655094872
 30
0.0
 40
91.077357407
100
AcDbArc
 50
185.424739613
 51
191.585388222
  0
ARC
  5
298
330
1F
100
AcDbEntity
  8
0
  6
Continuous
 62
     1
100
AcDbCircle
 10
506.034368165
 20
209.510631226
 30
0.0
 40
16.006718109
100
AcDbArc
 50
191.336410869
 51
210.298854621
  0
ARC
  5
299
330
1F
100
AcDbEntity
  8
0
  6
Continuous
 62
     1
100
AcDbCircle
 10
493.147048244
 20
201.960463157
 30
0.0
 40
1.070731509
100
AcDbArc
 50
209.385320983
 51
4.673896773
  0
ARC
  5
29A
330
1F
100
AcDbEntity
  8
0
  6
Continuous
 62
     1
100
AcDbCircle
 10
477.984951424
 20
210.183191848
 30
0.0
 40
18.154205513
100
AcDbArc
 50
333.376100901
 51
353.423144993
  0
ARC
  5
29B
330
1F
100
AcDbEntity
  8
0
  6
Continuous
 62
     1
100
AcDbCircle
 10
401.244818472
 20
225.345117743
 30
0.0
 40
96.330346626
100
AcDbArc
 50
349.689629719
 51
356.00427059
  0
ARC
  5
29C
330
1F
100
AcDbEntity
  8
0
  6
Continuous
 62
     1
100
AcDbCircle
 10
296.112080357
 20
234.755809736
 30
0.0
 40
201.873820625
100
AcDbArc
 50
355.419039697
 51
359.202449893
  0
ARC
  5
29D
330
1F
100
AcDbEntity
  8
0
  6
Continuous
 62
     1
100
AcDbCircle
 10
296.112080357
 20
234.755809736
 30
0.0
 40
201.873820625
100
AcDbArc
 50
355.419039697
 51
359.202449893
  0
MTEXT
  5
29E
330
1F
100
AcDbEntity
  8
0
  6
Continuous
 62
     1
100
AcDbMText
 10
495.5
 20
239.5
 30
0.0
 40
6.0
 41
46.8
 71
     7
 72
     1
  1
\T1.111;\W0.900;３６０゜
  7
KANJI3
 11
0.0
 21
1.0
 31
0.0
 73
     1
 44
1.0
  0
LINE
  5
29F
330
1F
100
AcDbEntity
  8
0
  6
Continuous
 62
     3
100
AcDbLine
 10
338.0
 20
248.7
 30
0.0
 11
408.0
 21
248.7
 31
0.0
  0
LINE
  5
2A0
330
1F
100
AcDbEntity
  8
0
  6
Continuous
 62
     3
100
AcDbLine
 10
408.0
 20
223.3
 30
0.0
 11
338.0
 21
223.3
 31
0.0
  0
LINE
  5
2A1
330
1F
100
AcDbEntity
  8
0
  6
Continuous
 62
     1
100
AcDbLine
 10
303.0
 20
386.0
 30
0.0
 11
304.931851653
 21
385.48236191
 31
0.0
  0
LINE
  5
2A2
330
1F
100
AcDbEntity
  8
0
  6
Continuous
 62
     1
100
AcDbLine
 10
303.0
 20
386.0
 30
0.0
 11
304.931851653
 21
386.51763809
 31
0.0
  0
LINE
  5
2A3
330
1F
100
AcDbEntity
  8
0
  6
Continuous
 62
     1
100
AcDbLine
 10
303.0
 20
386.0
 30
0.0
 11
468.0
 21
386.0
 31
0.0
  0
LINE
  5
2A4
330
1F
100
AcDbEntity
  8
0
  6
Continuous
 62
     1
100
AcDbLine
 10
468.0
 20
386.0
 30
0.0
 11
466.068148347
 21
386.51763809
 31
0.0
  0
LINE
  5
2A5
330
1F
100
AcDbEntity
  8
0
  6
Continuous
 62
     1
100
AcDbLine
 10
468.0
 20
386.0
 30
0.0
 11
466.068148347
 21
385.48236191
 31
0.0
  0
LINE
  5
2A6
330
1F
100
AcDbEntity
  8
0
  6
Continuous
 62
     1
100
AcDbLine
 10
468.0
 20
411.0
 30
0.0
 11
468.0
 21
384.0
 31
0.0
  0
MTEXT
  5
2A7
330
1F
100
AcDbEntity
  8
0
  6
Continuous
 62
     1
100
AcDbMText
 10
374.7
 20
388.0
 30
0.0
 40
6.0
 41
24.000000012
 71
     7
 72
     1
  1
\W0.667;１６５
  7
KANJI1
 73
     1
 44
1.0
  0
MTEXT
  5
2A8
330
1F
100
AcDbEntity
  8
0
  6
Continuous
 62
     1
100
AcDbMText
 10
386.7
 20
388.0
 30
0.0
 40
3.6
 41
19.20000001
 71
     7
 72
     1
  1
\W0.667;±１．５
  7
KANJI2
 73
     1
 44
1.0
  0
LINE
  5
2A9
330
1F
100
AcDbEntity
  8
0
  6
Continuous
 62
     1
100
AcDbLine
 10
468.0
 20
386.0
 30
0.0
 11
468.0
 21
374.0
 31
0.0
  0
LINE
  5
2AA
330
1F
100
AcDbEntity
  8
0
  6
Continuous
 62
     1
100
AcDbLine
 10
468.0
 20
376.0
 30
0.0
 11
466.068148347
 21
376.51763809
 31
0.0
  0
LINE
  5
2AB
330
1F
100
AcDbEntity
  8
0
  6
Continuous
 62
     1
100
AcDbLine
 10
468.0
 20
376.0
 30
0.0
 11
466.068148347
 21
375.48236191
 31
0.0
  0
LINE
  5
2AC
330
1F
100
AcDbEntity
  8
0
  6
Continuous
 62
     1
100
AcDbLine
 10
468.0
 20
376.0
 30
0.0
 11
208.0
 21
376.0
 31
0.0
  0
LINE
  5
2AD
330
1F
100
AcDbEntity
  8
0
  6
Continuous
 62
     1
100
AcDbLine
 10
208.0
 20
376.0
 30
0.0
 11
209.931851653
 21
375.48236191
 31
0.0
  0
LINE
  5
2AE
330
1F
100
AcDbEntity
  8
0
  6
Continuous
 62
     1
100
AcDbLine
 10
208.0
 20
376.0
 30
0.0
 11
209.931851653
 21
376.51763809
 31
0.0
  0
LINE
  5
2AF
330
1F
100
AcDbEntity
  8
0
  6
Continuous
 62
     1
100
AcDbLine
 10
208.0
 20
386.0
 30
0.0
 11
208.0
 21
374.0
 31
0.0
  0
MTEXT
  5
2B0
330
1F
100
AcDbEntity
  8
0
  6
Continuous
 62
     1
100
AcDbMText
 10
327.2
 20
378.0
 30
0.0
 40
6.0
 41
24.000000012
 71
     7
 72
     1
  1
\W0.667;２６０
  7
KANJI1
 73
     1
 44
1.0
  0
MTEXT
  5
2B1
330
1F
100
AcDbEntity
  8
0
  6
Continuous
 62
     1
100
AcDbMText
 10
339.2
 20
378.0
 30
0.0
 40
3.6
 41
19.20000001
 71
     7
 72
     1
  1
\W0.667;±３．０
  7
KANJI2
 73
     1
 44
1.0
  0
MTEXT
  5
2B2
330
1F
100
AcDbEntity
  8
0
  6
Continuous
 62
     1
100
AcDbMText
 10
233.92820323
 20
84.364138625
 30
0.0
 40
6.0
 41
32.000000016
 71
     7
 72
     1
  1
\W0.667;２００゜
  7
KANJI1
 11
-0.866025404
 21
0.5
 31
0.0
 73
     1
 44
1.0
  0
MTEXT
  5
2B3
330
1F
100
AcDbEntity
  8
1
  6
Continuous
 62
     1
100
AcDbMText
 10
655.5
 20
123.0
 30
0.0
 40
12.0
 41
165.6
 71
     7
 72
     1
  1
\T1.111;\W0.900;ＳＡＳ－２６０
  7
KANJI4
 73
     1
 44
1.0
  0
MTEXT
  5
2B5
330
1F
100
AcDbEntity
  8
1
  6
Continuous
 62
     1
100
AcDbMText
 10
655.5
 20
70.5
 30
0.0
 40
9.0
 41
160.2
 71
     7
 72
     1
  1
\T1.111;\W0.900;自重　　１．２ｋｇ
  7
KANJI0
 73
     1
 44
1.0
  0
LINE
  5
2B6
330
1F
100
AcDbEntity
  8
0
  6
Continuous
 62
     2
100
AcDbLine
 10
437.677405842
 20
153.954588686
 30
0.0
 11
436.530252969
 21
152.316284597
 31
0.0
  0
LINE
  5
2B7
330
1F
100
AcDbEntity
  8
0
  6
Continuous
 62
     2
100
AcDbLine
 10
437.677405842
 20
153.954588686
 30
0.0
 11
437.503094356
 21
151.96219929
 31
0.0
  0
LINE
  5
2B8
330
1F
100
AcDbEntity
  8
0
  6
Continuous
 62
     2
100
AcDbLine
 10
197.533496587
 20
327.324771298
 30
0.0
 11
199.033496587
 21
328.124771298
 31
0.0
  0
LINE
  5
2B9
330
1F
100
AcDbEntity
  8
0
  6
Continuous
 62
     2
100
AcDbLine
 10
199.033496587
 20
328.124771298
 30
0.0
 11
198.633496587
 21
326.524771298
 31
0.0
  0
ARC
  5
2BA
330
1F
100
AcDbEntity
  8
0
  6
Continuous
 62
     2
100
AcDbCircle
 10
303.0
 20
220.0
 30
0.0
 40
150.0
100
AcDbArc
 50
133.876801134
 51
333.876801134
  0
LINE
  5
2BC
330
1F
100
AcDbEntity
  8
0
  6
LTYPE1
 62
     2
100
AcDbLine
 10
207.728211565
 20
254.253267411
 30
0.0
 11
209.260300451
 21
252.967692192
 31
0.0
  0
LINE
  5
2BD
330
1F
100
AcDbEntity
  8
0
  6
LTYPE1
 62
     2
100
AcDbLine
 10
234.28327365
 20
271.365842628
 30
0.0
 11
222.758840254
 21
269.054625497
 31
0.0
  0
ARC
  5
2BE
330
1F
100
AcDbEntity
  8
0
  6
LTYPE1
 62
     2
100
AcDbCircle
 10
233.693371723
 20
274.307273524
 30
0.0
 40
3.0
100
AcDbArc
 50
281.340191746
 51
320.0
  0
LINE
  5
2BF
330
1F
100
AcDbEntity
  8
0
  6
LTYPE1
 62
     2
100
AcDbLine
 10
240.510379659
 20
293.32153401
 30
0.0
 11
207.728211565
 21
254.253267411
 31
0.0
  0
LINE
  5
2C0
330
1F
100
AcDbEntity
  8
0
  6
LTYPE1
 62
     2
100
AcDbLine
 10
274.824636639
 20
331.10422539
 30
0.0
 11
273.292547753
 21
332.389800609
 31
0.0
  0
LINE
  5
2C1
330
1F
100
AcDbEntity
  8
0
  6
LTYPE1
 62
     2
100
AcDbLine
 10
261.326096836
 20
315.017292084
 30
0.0
 11
261.051189144
 21
303.266602084
 31
0.0
  0
ARC
  5
2C2
330
1F
100
AcDbEntity
  8
0
  6
LTYPE1
 62
     2
100
AcDbCircle
 10
258.052009798
 20
303.336767961
 30
0.0
 40
3.0
100
AcDbArc
 50
320.0
 51
358.659808254
  0
LINE
  5
2C3
330
1F
100
AcDbEntity
  8
0
  6
LTYPE1
 62
     2
100
AcDbLine
 10
273.292547753
 20
332.389800609
 30
0.0
 11
240.510379659
 21
293.32153401
 31
0.0
  0
LINE
  5
2C4
330
1F
100
AcDbEntity
  8
0
  6
LTYPE1
 62
     2
100
AcDbLine
 10
279.261882643
 20
280.386271489
 30
0.0
 11
257.812638235
 21
298.38432456
 31
0.0
  0
LINE
  5
2C5
330
1F
100
AcDbEntity
  8
0
  6
LTYPE1
 62
     2
100
AcDbLine
 10
260.350143128
 20
301.408405132
 30
0.0
 11
235.991505052
 21
272.378910695
 31
0.0
  0
LINE
  5
2C6
330
1F
100
AcDbEntity
  8
0
  6
LTYPE1
 62
     2
100
AcDbLine
 10
209.260300451
 20
252.967692192
 30
0.0
 11
274.824636639
 21
331.10422539
 31
0.0
  0
LINE
  5
2C7
330
1F
100
AcDbEntity
  8
0
  6
LTYPE1
 62
     2
100
AcDbLine
 10
322.283628291
 20
242.981333294
 30
0.0
 11
295.472072781
 21
265.478899633
 31
0.0
  0
LINE
  5
2C8
330
1F
100
AcDbEntity
  8
0
  6
LTYPE1
 62
     2
100
AcDbLine
 10
281.833033081
 20
283.450449261
 30
0.0
 11
279.261882643
 21
280.386271489
 31
0.0
  0
LINE
  5
2C9
330
1F
100
AcDbEntity
  8
0
  6
LTYPE1
 62
     2
100
AcDbLine
 10
289.986504846
 20
271.387244953
 30
0.0
 11
292.557655285
 21
274.451422726
 31
0.0
  0
LINE
  5
2CA
330
1F
100
AcDbEntity
  8
0
  6
LTYPE1
 62
     2
100
AcDbLine
 10
293.816727062
 20
268.173306905
 30
0.0
 11
289.986504846
 21
271.387244953
 31
0.0
  0
LINE
  5
2CB
330
1F
100
AcDbEntity
  8
0
  6
LTYPE1
 62
     2
100
AcDbLine
 10
295.472072781
 20
265.478899633
 30
0.0
 11
293.816727062
 21
268.173306905
 31
0.0
  0
LINE
  5
2CC
330
1F
100
AcDbEntity
  8
0
  6
LTYPE1
 62
     2
100
AcDbLine
 10
292.557655285
 20
274.451422726
 30
0.0
 11
281.833033081
 21
283.450449261
 31
0.0
  0
LINE
  5
2CD
330
1F
100
AcDbEntity
  8
0
  6
LTYPE1
 62
     2
100
AcDbLine
 10
257.407103913
 20
254.340760423
 30
0.0
 11
259.978254352
 21
257.404938195
 31
0.0
  0
LINE
  5
2CE
330
1F
100
AcDbEntity
  8
0
  6
LTYPE1
 62
     2
100
AcDbLine
 10
259.978254352
 20
257.404938195
 30
0.0
 11
238.529009945
 21
275.402991266
 31
0.0
  0
LINE
  5
2CF
330
1F
100
AcDbEntity
  8
0
  6
LTYPE1
 62
     2
100
AcDbLine
 10
259.978254352
 20
257.404938195
 30
0.0
 11
279.261882643
 21
280.386271489
 31
0.0
  0
LINE
  5
2D0
330
1F
100
AcDbEntity
  8
0
  6
LTYPE1
 62
     2
100
AcDbLine
 10
268.131726117
 20
245.341733887
 30
0.0
 11
257.407103913
 21
254.340760423
 31
0.0
  0
LINE
  5
2D1
330
1F
100
AcDbEntity
  8
0
  6
LTYPE1
 62
     2
100
AcDbLine
 10
270.702876556
 20
248.40591166
 30
0.0
 11
268.131726117
 21
245.341733887
 31
0.0
  0
LINE
  5
2D2
330
1F
100
AcDbEntity
  8
0
  6
LTYPE1
 62
     2
100
AcDbLine
 10
277.47401971
 20
244.029655225
 30
0.0
 11
277.216904666
 21
243.723237448
 31
0.0
  0
LINE
  5
2D3
330
1F
100
AcDbEntity
  8
0
  6
LTYPE1
 62
     2
100
AcDbLine
 10
277.47401971
 20
244.029655225
 30
0.0
 11
274.533098771
 21
245.191973611
 31
0.0
  0
LINE
  5
2D4
330
1F
100
AcDbEntity
  8
0
  6
LTYPE1
 62
     2
100
AcDbLine
 10
274.533098771
 20
245.191973611
 30
0.0
 11
270.702876556
 21
248.40591166
 31
0.0
  0
LINE
  5
2D5
330
1F
100
AcDbEntity
  8
0
  6
LTYPE1
 62
     2
100
AcDbLine
 10
289.986504846
 20
271.387244953
 30
0.0
 11
270.702876556
 21
248.40591166
 31
0.0
  0
LINE
  5
2D6
330
1F
100
AcDbEntity
  8
0
  6
LTYPE1
 62
     2
100
AcDbLine
 10
295.472072781
 20
265.478899633
 30
0.0
 11
277.47401971
 21
244.029655225
 31
0.0
  0
ARC
  5
2D7
330
1F
100
AcDbEntity
  8
0
  6
LTYPE1
 62
     2
100
AcDbCircle
 10
277.077745767
 20
240.445946677
 30
0.0
 40
3.0
100
AcDbArc
 50
320.0
 51
50.0
  0
LINE
  5
2D8
330
1F
100
AcDbEntity
  8
0
  6
LTYPE1
 62
     2
100
AcDbLine
 10
279.006108596
 20
242.744080006
 30
0.0
 11
277.47401971
 21
244.029655225
 31
0.0
  0
ARC
  5
2D9
330
1F
100
AcDbEntity
  8
0
  6
LTYPE1
 62
     2
100
AcDbCircle
 10
334.351876629
 20
209.653027891
 30
0.0
 40
3.0
100
AcDbArc
 50
160.0
 51
250.0
  0
LINE
  5
2DA
330
1F
100
AcDbEntity
  8
0
  6
LTYPE1
 62
     2
100
AcDbLine
 10
333.325816199
 20
206.833950029
 30
0.0
 11
335.205201441
 21
206.149909742
 31
0.0
  0
LINE
  5
2DB
330
1F
100
AcDbEntity
  8
0
  6
LTYPE1
 62
     2
100
AcDbLine
 10
335.205201441
 20
206.149909742
 30
0.0
 11
335.342009498
 21
206.52578679
 31
0.0
  0
LINE
  5
2DC
330
1F
100
AcDbEntity
  8
0
  6
LTYPE1
 62
     2
100
AcDbLine
 10
335.205201441
 20
206.149909742
 30
0.0
 11
338.366299447
 21
206.063541933
 31
0.0
  0
LINE
  5
2DD
330
1F
100
AcDbEntity
  8
0
  6
LTYPE1
 62
     2
100
AcDbLine
 10
338.366299447
 20
206.063541933
 30
0.0
 11
343.06476255
 21
204.353441216
 31
0.0
  0
LINE
  5
2DE
330
1F
100
AcDbEntity
  8
0
  6
LTYPE1
 62
     2
100
AcDbLine
 10
343.06476255
 20
204.353441216
 30
0.0
 11
344.432843124
 21
208.112211699
 31
0.0
  0
LINE
  5
2DF
330
1F
100
AcDbEntity
  8
0
  6
LTYPE1
 62
     2
100
AcDbLine
 10
344.432843124
 20
208.112211699
 30
0.0
 11
357.588539815
 21
203.323929693
 31
0.0
  0
LINE
  5
2E0
330
1F
100
AcDbEntity
  8
0
  6
LTYPE1
 62
     2
100
AcDbLine
 10
357.588539815
 20
203.323929693
 30
0.0
 11
356.220459241
 21
199.56515921
 31
0.0
  0
LINE
  5
2E1
330
1F
100
AcDbEntity
  8
0
  6
LTYPE1
 62
     2
100
AcDbLine
 10
332.804158251
 20
176.162662593
 30
0.0
 11
331.436077677
 21
172.403892109
 31
0.0
  0
LINE
  5
2E2
330
1F
100
AcDbEntity
  8
0
  6
LTYPE1
 62
     2
100
AcDbLine
 10
328.105695147
 20
177.872763309
 30
0.0
 11
332.804158251
 21
176.162662593
 31
0.0
  0
LINE
  5
2E3
330
1F
100
AcDbEntity
  8
0
  6
LTYPE1
 62
     2
100
AcDbLine
 10
325.628637428
 20
179.83851636
 30
0.0
 11
328.105695147
 21
177.872763309
 31
0.0
  0
LINE
  5
2E4
330
1F
100
AcDbEntity
  8
0
  6
LTYPE1
 62
     2
100
AcDbLine
 10
292.7393957
 20
191.809221376
 30
0.0
 11
325.628637428
 21
179.83851636
 31
0.0
  0
LINE
  5
2E5
330
1F
100
AcDbEntity
  8
0
  6
LTYPE1
 62
     2
100
AcDbLine
 10
332.804158251
 20
176.162662593
 30
0.0
 11
343.06476255
 21
204.353441216
 31
0.0
  0
LINE
  5
2E6
330
1F
100
AcDbEntity
  8
0
  6
LTYPE1
 62
     2
100
AcDbLine
 10
325.628637428
 20
179.83851636
 30
0.0
 11
335.205201441
 21
206.149909742
 31
0.0
  0
LINE
  5
2E7
330
1F
100
AcDbEntity
  8
0
  6
LTYPE1
 62
     2
100
AcDbLine
 10
344.591774368
 20
167.615610103
 30
0.0
 11
345.959854942
 21
171.374380586
 31
0.0
  0
LINE
  5
2E8
330
1F
100
AcDbEntity
  8
0
  6
LTYPE1
 62
     2
100
AcDbLine
 10
356.220459241
 20
199.56515921
 30
0.0
 11
345.959854942
 21
171.374380586
 31
0.0
  0
LINE
  5
2E9
330
1F
100
AcDbEntity
  8
0
  6
LTYPE1
 62
     2
100
AcDbLine
 10
331.436077677
 20
172.403892109
 30
0.0
 11
344.591774368
 21
167.615610103
 31
0.0
  0
LINE
  5
2EA
330
1F
100
AcDbEntity
  8
0
  6
LTYPE1
 62
     2
100
AcDbLine
 10
367.47606413
 20
125.232721078
 30
0.0
 11
369.355449372
 21
124.548680791
 31
0.0
  0
LINE
  5
2EB
330
1F
100
AcDbEntity
  8
0
  6
LTYPE1
 62
     2
100
AcDbLine
 10
374.65848714
 20
144.966266115
 30
0.0
 11
370.897843191
 21
156.102326765
 31
0.0
  0
ARC
  5
2EC
330
1F
100
AcDbEntity
  8
0
  6
LTYPE1
 62
     2
100
AcDbCircle
 10
373.740148034
 20
157.062172158
 30
0.0
 40
3.0
100
AcDbArc
 50
160.0
 51
198.659808254
  0
LINE
  5
2ED
330
1F
100
AcDbEntity
  8
0
  6
LTYPE1
 62
     2
100
AcDbLine
 10
369.355449372
 20
124.548680791
 30
0.0
 11
386.798476681
 21
172.473004451
 31
0.0
  0
LINE
  5
2EE
330
1F
100
AcDbEntity
  8
0
  6
LTYPE1
 62
     2
100
AcDbLine
 10
345.959854942
 20
171.374380586
 30
0.0
 11
372.271248324
 21
161.797816573
 31
0.0
  0
LINE
  5
2EF
330
1F
100
AcDbEntity
  8
0
  6
LTYPE1
 62
     2
100
AcDbLine
 10
404.241503991
 20
220.397328112
 30
0.0
 11
402.362118749
 21
221.081368398
 31
0.0
  0
LINE
  5
2F0
330
1F
100
AcDbEntity
  8
0
  6
LTYPE1
 62
     2
100
AcDbLine
 10
385.140753533
 20
195.234401317
 30
0.0
 11
395.17969574
 21
201.347823362
 31
0.0
  0
ARC
  5
2F1
330
1F
100
AcDbEntity
  8
0
  6
LTYPE1
 62
     2
100
AcDbCircle
 10
386.701108638
 20
192.672118752
 30
0.0
 40
3.0
100
AcDbArc
 50
121.340191746
 51
160.0
  0
LINE
  5
2F2
330
1F
100
AcDbEntity
  8
0
  6
LTYPE1
 62
     2
100
AcDbLine
 10
386.798476681
 20
172.473004451
 30
0.0
 11
404.241503991
 21
220.397328112
 31
0.0
  0
LINE
  5
2F3
330
1F
100
AcDbEntity
  8
0
  6
LTYPE1
 62
     2
100
AcDbLine
 10
356.220459241
 20
199.56515921
 30
0.0
 11
382.531852623
 21
189.988595197
 31
0.0
  0
LINE
  5
2F4
330
1F
100
AcDbEntity
  8
0
  6
LTYPE1
 62
     2
100
AcDbLine
 10
370.921070172
 20
158.088232588
 30
0.0
 11
383.882030776
 21
193.698179181
 31
0.0
  0
LINE
  5
2F5
330
1F
100
AcDbEntity
  8
0
  6
LTYPE1
 62
     2
100
AcDbLine
 10
402.362118749
 20
221.081368398
 30
0.0
 11
367.47606413
 21
125.232721078
 31
0.0
  0
LINE
  5
2F6
330
1F
100
AcDbEntity
  8
0
  6
LTYPE1
 62
     2
100
AcDbLine
 10
295.0
 20
492.0
 30
0.0
 11
295.0
 21
485.0
 31
0.0
  0
LINE
  5
2F7
330
1F
100
AcDbEntity
  8
0
  6
LTYPE1
 62
     2
100
AcDbLine
 10
294.0
 20
482.5
 30
0.0
 11
294.0
 21
485.0
 31
0.0
  0
LINE
  5
2F8
330
1F
100
AcDbEntity
  8
0
  6
LTYPE1
 62
     2
100
AcDbLine
 10
294.0
 20
485.0
 30
0.0
 11
295.2
 21
485.0
 31
0.0
  0
LINE
  5
2F9
330
1F
100
AcDbEntity
  8
0
  6
LTYPE1
 62
     2
100
AcDbLine
 10
311.0
 20
485.0
 30
0.0
 11
311.0
 21
492.0
 31
0.0
  0
LINE
  5
2FA
330
1F
100
AcDbEntity
  8
0
  6
LTYPE1
 62
     2
100
AcDbLine
 10
311.0
 20
485.0
 30
0.0
 11
312.2
 21
485.0
 31
0.0
  0
LINE
  5
2FB
330
1F
100
AcDbEntity
  8
0
  6
LTYPE1
 62
     2
100
AcDbLine
 10
312.2
 20
485.0
 30
0.0
 11
312.2
 21
482.5
 31
0.0
  0
LINE
  5
2FC
330
1F
100
AcDbEntity
  8
0
  6
LTYPE1
 62
     2
100
AcDbLine
 10
295.0
 20
485.0
 30
0.0
 11
311.0
 21
485.0
 31
0.0
  0
LINE
  5
2FD
330
1F
100
AcDbEntity
  8
0
  6
LTYPE1
 62
     2
100
AcDbLine
 10
312.2
 20
482.5
 30
0.0
 11
294.0
 21
482.5
 31
0.0
  0
LINE
  5
2FE
330
1F
100
AcDbEntity
  8
0
  6
LTYPE1
 62
     2
100
AcDbLine
 10
298.0
 20
461.0
 30
0.0
 11
299.0
 21
460.0
 31
0.0
  0
LINE
  5
2FF
330
1F
100
AcDbEntity
  8
0
  6
LTYPE1
 62
     2
100
AcDbLine
 10
298.0
 20
482.5
 30
0.0
 11
298.0
 21
461.0
 31
0.0
  0
LINE
  5
300
330
1F
100
AcDbEntity
  8
0
  6
LTYPE1
 62
     2
100
AcDbLine
 10
307.0
 20
460.0
 30
0.0
 11
308.0
 21
461.0
 31
0.0
  0
LINE
  5
301
330
1F
100
AcDbEntity
  8
0
  6
LTYPE1
 62
     2
100
AcDbLine
 10
308.0
 20
461.0
 30
0.0
 11
308.0
 21
482.5
 31
0.0
  0
LINE
  5
302
330
1F
100
AcDbEntity
  8
0
  6
LTYPE1
 62
     2
100
AcDbLine
 10
299.0
 20
460.0
 30
0.0
 11
307.0
 21
460.0
 31
0.0
  0
LINE
  5
304
330
1F
100
AcDbEntity
  8
0
  6
LTYPE2
 62
     2
100
AcDbLine
 10
303.0
 20
478.0
 30
0.0
 11
153.5
 21
478.0
 31
0.0
  0
LINE
  5
305
330
1F
100
AcDbEntity
  8
0
  6
LTYPE2
 62
     2
100
AcDbLine
 10
478.0
 20
466.0
 30
0.0
 11
181.0
 21
466.0
 31
0.0
  0
LINE
  5
306
330
1F
100
AcDbEntity
  8
0
  6
LTYPE2
 62
     2
100
AcDbLine
 10
658.0
 20
456.0
 30
0.0
 11
658.0
 21
476.0
 31
0.0
  0
LINE
  5
307
330
1F
100
AcDbEntity
  8
0
  6
LTYPE2
 62
     2
100
AcDbLine
 10
648.0
 20
466.0
 30
0.0
 11
668.0
 21
466.0
 31
0.0
  0
LINE
  5
308
330
1F
100
AcDbEntity
  8
0
  6
LTYPE2
 62
     2
100
AcDbLine
 10
598.0
 20
466.0
 30
0.0
 11
718.0
 21
466.0
 31
0.0
  0
LINE
  5
309
330
1F
100
AcDbEntity
  8
0
  6
LTYPE2
 62
     2
100
AcDbLine
 10
658.0
 20
406.0
 30
0.0
 11
658.0
 21
526.0
 31
0.0
  0
LINE
  5
30A
330
1F
100
AcDbEntity
  8
0
  6
LTYPE2
 62
     2
100
AcDbLine
 10
343.708143763
 20
188.156603018
 30
0.0
 11
444.58957286
 21
151.438765637
 31
0.0
  0
LINE
  5
30B
330
1F
100
AcDbEntity
  8
0
  6
LTYPE2
 62
     2
100
AcDbLine
 10
508.0
 20
236.0
 30
0.0
 11
168.0
 21
236.0
 31
0.0
  0
LINE
  5
30C
330
1F
100
AcDbEntity
  8
0
  6
LTYPE2
 62
     2
100
AcDbLine
 10
303.0
 20
256.0
 30
0.0
 11
303.0
 21
186.0
 31
0.0
  0
LINE
  5
30D
330
1F
100
AcDbEntity
  8
0
  6
LTYPE2
 62
     2
100
AcDbLine
 10
293.0
 20
220.0
 30
0.0
 11
313.0
 21
220.0
 31
0.0
  0
LINE
  5
30E
330
1F
100
AcDbEntity
  8
0
  6
LTYPE2
 62
     2
100
AcDbLine
 10
275.637940899
 20
263.846010329
 30
0.0
 11
193.398646407
 21
332.852972006
 31
0.0
  0
ENDSEC
  0
SECTION
  2
OBJECTS
  0
DICTIONARY
  5
C
330
0
100
AcDbDictionary
280
     0
281
     1
  3
ACAD_GROUP
350
D
  3
ACAD_LAYOUT
350
1A
  3
ACAD_MLINESTYLE
350
17
  3
ACAD_PLOTSETTINGS
350
19
  3
ACAD_PLOTSTYLENAME
350
E
  0
DICTIONARY
  5
D
102
{ACAD_REACTORS
330
C
102
}
330
C
100
AcDbDictionary
280
     0
281
     1
  0
DICTIONARY
  5
1A
102
{ACAD_REACTORS
330
C
102
}
330
C
100
AcDbDictionary
280
     0
281
     1
  3
Model
350
22
  3
ﾚｲｱｳﾄ1
350
1E
  3
ﾚｲｱｳﾄ2
350
26
  0
LAYOUT
  5
22
102
{ACAD_REACTORS
330
1A
102
}
330
1A
100
AcDbPlotSettings
  1

  2

  4

  6

 40
0.0
 41
0.0
 42
0.0
 43
0.0
 44
0.0
 45
0.0
 46
0.0
 47
0.0
 48
0.0
 49
0.0
140
0.0
141
0.0
142
1.0
143
1.0
 70
  1712
 72
     0
 73
     0
 74
     0
  7

 75
     0
147
1.0
148
0.0
149
0.0
100
AcDbLayout
  1
Model
 70
     1
 71
     0
 10
0.0
 20
0.0
 11
0.0
 21
0.0
 12
0.0
 22
0.0
 32
0.0
 14
0.0
 24
0.0
 34
0.0
 15
0.0
 25
0.0
 35
0.0
146
0.0
 13
0.0
 23
0.0
 33
0.0
 16
1.0
 26
0.0
 36
0.0
 17
0.0
 27
1.0
 37
0.0
 76
     0
330
1F
331
0
345
0
346
0
  0
LAYOUT
  5
1E
102
{ACAD_REACTORS
330
1A
102
}
330
1A
100
AcDbPlotSettings
  1

  2

  4

  6

 40
0.0
 41
0.0
 42
0.0
 43
0.0
 44
0.0
 45
0.0
 46
0.0
 47
0.0
 48
0.0
 49
0.0
140
0.0
141
0.0
142
1.0
143
1.0
 70
   688
 72
     0
 73
     0
 74
     5
  7

 75
    16
147
1.0
148
0.0
149
0.0
100
AcDbLayout
  1
ﾚｲｱｳﾄ1
 70
     1
 71
     1
 10
0.0
 20
0.0
 11
0.0
 21
0.0
 12
0.0
 22
0.0
 32
0.0
 14
0.0
 24
0.0
 34
0.0
 15
0.0
 25
0.0
 35
0.0
146
0.0
 13
0.0
 23
0.0
 33
0.0
 16
1.0
 26
0.0
 36
0.0
 17
0.0
 27
1.0
 37
0.0
 76
     0
330
1B
331
0
345
0
346
0
  0
LAYOUT
  5
26
102
{ACAD_REACTORS
330
1A
102
}
330
1A
100
AcDbPlotSettings
  1

  2

  4

  6

 40
0.0
 41
0.0
 42
0.0
 43
0.0
 44
0.0
 45
0.0
 46
0.0
 47
0.0
 48
0.0
 49
0.0
140
0.0
141
0.0
142
1.0
143
1.0
 70
   688
 72
     0
 73
     0
 74
     5
  7

 75
    16
147
1.0
148
0.0
149
0.0
100
AcDbLayout
  1
ﾚｲｱｳﾄ2
 70
     1
 71
     2
 10
0.0
 20
0.0
 11
0.0
 21
0.0
 12
0.0
 22
0.0
 32
0.0
 14
0.0
 24
0.0
 34
0.0
 15
0.0
 25
0.0
 35
0.0
146
0.0
 13
0.0
 23
0.0
 33
0.0
 16
1.0
 26
0.0
 36
0.0
 17
0.0
 27
1.0
 37
0.0
 76
     0
330
23
331
0
345
0
346
0
  0
DICTIONARY
  5
17
102
{ACAD_REACTORS
330
C
102
}
330
C
100
AcDbDictionary
280
     0
281
     1
  3
Standard
350
18
  0
MLINESTYLE
  5
18
102
{ACAD_REACTORS
330
17
102
}
330
17
100
AcDbMlineStyle
  2
STANDARD
 70
     0
  3

 62
   256
 51
90.0
 52
90.0
 71
     2
 49
0.5
 62
   256
  6
ByLayer
 49
-0.5
 62
   256
  6
ByLayer
  0
DICTIONARY
  5
19
102
{ACAD_REACTORS
330
C
102
}
330
C
100
AcDbDictionary
280
     0
281
     1
  0
ACDBDICTIONARYWDFLT
  5
E
330
C
100
AcDbDictionary
281
     0
  3
Normal
350
F
100
AcDbDictionaryWithDefault
340
F
  0
ACDBPLACEHOLDER
  5
F
102
{ACAD_REACTORS
330
E
102
}
330
E
  0
ENDSEC
  0
EOF
