  0
SECTION
  2
HEADER
  9
$EXTMIN
 10
0.0
 20
0.0
 30
0.0
  9
$EXTMAX
 10
594.0
 20
420.0
 30
0.0
  9
$LIMMIN
 10
0.0
 20
0.0
  9
$LIMMAX
 10
594.0
 20
420.0
  9
$LTSCALE
 40
1.0
  9
$PDMODE
 70
     0
  0
ENDSEC
  0
SECTION
  2
TABLES
  0
TABLE
  2
LTYPE
 70
     2
  0
LTYPE
  2
CONTINUOUS
 70
    64
  3
Solid line
 72
    65
 73
     0
 40
0.0
  0
LTYPE
  2
LTYPE1
 70
    64
  3
CENTER
 72
    65
 73
     4
 40
20.0
 49
14.0
 49
-2.0
 49
2.0
 49
-2.0
  0
ENDTAB
  0
TABLE
  2
LAYER
 70
   128
  0
LAYER
  2
0
 70
     0
 62
     7
  6
CONTINUOUS
  0
LAYER
  2
1
 70
     0
 62
     7
  6
CONTINUOUS
  0
LAYER
  2
2
 70
     0
 62
     7
  6
CONTINUOUS
  0
LAYER
  2
3
 70
     0
 62
     7
  6
CONTINUOUS
  0
LAYER
  2
4
 70
     0
 62
     7
  6
CONTINUOUS
  0
LAYER
  2
5
 70
     0
 62
     7
  6
CONTINUOUS
  0
LAYER
  2
6
 70
     0
 62
     7
  6
CONTINUOUS
  0
LAYER
  2
7
 70
     0
 62
     7
  6
CONTINUOUS
  0
LAYER
  2
8
 70
     0
 62
     7
  6
CONTINUOUS
  0
LAYER
  2
9
 70
     0
 62
     7
  6
CONTINUOUS
  0
LAYER
  2
10
 70
     0
 62
     7
  6
CONTINUOUS
  0
LAYER
  2
11
 70
     0
 62
     7
  6
CONTINUOUS
  0
LAYER
  2
12
 70
     0
 62
     7
  6
CONTINUOUS
  0
LAYER
  2
13
 70
     0
 62
     7
  6
CONTINUOUS
  0
LAYER
  2
14
 70
     0
 62
     7
  6
CONTINUOUS
  0
LAYER
  2
15
 70
     0
 62
     7
  6
CONTINUOUS
  0
LAYER
  2
16
 70
     0
 62
     7
  6
CONTINUOUS
  0
LAYER
  2
17
 70
     0
 62
     7
  6
CONTINUOUS
  0
LAYER
  2
18
 70
     0
 62
     7
  6
CONTINUOUS
  0
LAYER
  2
19
 70
     0
 62
     7
  6
CONTINUOUS
  0
LAYER
  2
20
 70
     0
 62
     7
  6
CONTINUOUS
  0
LAYER
  2
21
 70
     0
 62
     7
  6
CONTINUOUS
  0
LAYER
  2
22
 70
     0
 62
     7
  6
CONTINUOUS
  0
LAYER
  2
23
 70
     0
 62
     7
  6
CONTINUOUS
  0
LAYER
  2
24
 70
     0
 62
     7
  6
CONTINUOUS
  0
LAYER
  2
25
 70
     0
 62
     7
  6
CONTINUOUS
  0
LAYER
  2
26
 70
     0
 62
     7
  6
CONTINUOUS
  0
LAYER
  2
27
 70
     0
 62
     7
  6
CONTINUOUS
  0
LAYER
  2
28
 70
     0
 62
     7
  6
CONTINUOUS
  0
LAYER
  2
29
 70
     0
 62
     7
  6
CONTINUOUS
  0
LAYER
  2
30
 70
     0
 62
     7
  6
CONTINUOUS
  0
LAYER
  2
31
 70
     0
 62
     7
  6
CONTINUOUS
  0
LAYER
  2
32
 70
     0
 62
     7
  6
CONTINUOUS
  0
LAYER
  2
33
 70
     0
 62
     7
  6
CONTINUOUS
  0
LAYER
  2
34
 70
     0
 62
     7
  6
CONTINUOUS
  0
LAYER
  2
35
 70
     0
 62
     7
  6
CONTINUOUS
  0
LAYER
  2
36
 70
     0
 62
     7
  6
CONTINUOUS
  0
LAYER
  2
37
 70
     0
 62
     7
  6
CONTINUOUS
  0
LAYER
  2
38
 70
     0
 62
     7
  6
CONTINUOUS
  0
LAYER
  2
39
 70
     0
 62
     7
  6
CONTINUOUS
  0
LAYER
  2
40
 70
     0
 62
     7
  6
CONTINUOUS
  0
LAYER
  2
41
 70
     0
 62
     7
  6
CONTINUOUS
  0
LAYER
  2
42
 70
     0
 62
     7
  6
CONTINUOUS
  0
LAYER
  2
43
 70
     0
 62
     7
  6
CONTINUOUS
  0
LAYER
  2
44
 70
     0
 62
     7
  6
CONTINUOUS
  0
LAYER
  2
45
 70
     0
 62
     7
  6
CONTINUOUS
  0
LAYER
  2
46
 70
     0
 62
     7
  6
CONTINUOUS
  0
LAYER
  2
47
 70
     0
 62
     7
  6
CONTINUOUS
  0
LAYER
  2
48
 70
     0
 62
     7
  6
CONTINUOUS
  0
LAYER
  2
49
 70
     0
 62
     7
  6
CONTINUOUS
  0
LAYER
  2
50
 70
     0
 62
     7
  6
CONTINUOUS
  0
LAYER
  2
51
 70
     0
 62
     7
  6
CONTINUOUS
  0
LAYER
  2
52
 70
     0
 62
     7
  6
CONTINUOUS
  0
LAYER
  2
53
 70
     0
 62
     7
  6
CONTINUOUS
  0
LAYER
  2
54
 70
     0
 62
     7
  6
CONTINUOUS
  0
LAYER
  2
55
 70
     0
 62
     7
  6
CONTINUOUS
  0
LAYER
  2
56
 70
     0
 62
     7
  6
CONTINUOUS
  0
LAYER
  2
57
 70
     0
 62
     7
  6
CONTINUOUS
  0
LAYER
  2
58
 70
     0
 62
     7
  6
CONTINUOUS
  0
LAYER
  2
59
 70
     0
 62
     7
  6
CONTINUOUS
  0
LAYER
  2
60
 70
     0
 62
     7
  6
CONTINUOUS
  0
LAYER
  2
61
 70
     0
 62
     7
  6
CONTINUOUS
  0
LAYER
  2
62
 70
     0
 62
     7
  6
CONTINUOUS
  0
LAYER
  2
63
 70
     0
 62
     7
  6
CONTINUOUS
  0
LAYER
  2
64
 70
     0
 62
     7
  6
CONTINUOUS
  0
LAYER
  2
65
 70
     0
 62
     7
  6
CONTINUOUS
  0
LAYER
  2
66
 70
     0
 62
     7
  6
CONTINUOUS
  0
LAYER
  2
67
 70
     0
 62
     7
  6
CONTINUOUS
  0
LAYER
  2
68
 70
     0
 62
     7
  6
CONTINUOUS
  0
LAYER
  2
69
 70
     0
 62
     7
  6
CONTINUOUS
  0
LAYER
  2
70
 70
     0
 62
     7
  6
CONTINUOUS
  0
LAYER
  2
71
 70
     0
 62
     7
  6
CONTINUOUS
  0
LAYER
  2
72
 70
     0
 62
     7
  6
CONTINUOUS
  0
LAYER
  2
73
 70
     0
 62
     7
  6
CONTINUOUS
  0
LAYER
  2
74
 70
     0
 62
     7
  6
CONTINUOUS
  0
LAYER
  2
75
 70
     0
 62
     7
  6
CONTINUOUS
  0
LAYER
  2
76
 70
     0
 62
     7
  6
CONTINUOUS
  0
LAYER
  2
77
 70
     0
 62
     7
  6
CONTINUOUS
  0
LAYER
  2
78
 70
     0
 62
     7
  6
CONTINUOUS
  0
LAYER
  2
79
 70
     0
 62
     7
  6
CONTINUOUS
  0
LAYER
  2
80
 70
     0
 62
     7
  6
CONTINUOUS
  0
LAYER
  2
81
 70
     0
 62
     7
  6
CONTINUOUS
  0
LAYER
  2
82
 70
     0
 62
     7
  6
CONTINUOUS
  0
LAYER
  2
83
 70
     0
 62
     7
  6
CONTINUOUS
  0
LAYER
  2
84
 70
     0
 62
     7
  6
CONTINUOUS
  0
LAYER
  2
85
 70
     0
 62
     7
  6
CONTINUOUS
  0
LAYER
  2
86
 70
     0
 62
     7
  6
CONTINUOUS
  0
LAYER
  2
87
 70
     0
 62
     7
  6
CONTINUOUS
  0
LAYER
  2
88
 70
     0
 62
     7
  6
CONTINUOUS
  0
LAYER
  2
89
 70
     0
 62
     7
  6
CONTINUOUS
  0
LAYER
  2
90
 70
     0
 62
     7
  6
CONTINUOUS
  0
LAYER
  2
91
 70
     0
 62
     7
  6
CONTINUOUS
  0
LAYER
  2
92
 70
     0
 62
     7
  6
CONTINUOUS
  0
LAYER
  2
93
 70
     0
 62
     7
  6
CONTINUOUS
  0
LAYER
  2
94
 70
     0
 62
     7
  6
CONTINUOUS
  0
LAYER
  2
95
 70
     0
 62
     7
  6
CONTINUOUS
  0
LAYER
  2
96
 70
     0
 62
     7
  6
CONTINUOUS
  0
LAYER
  2
97
 70
     0
 62
     7
  6
CONTINUOUS
  0
LAYER
  2
98
 70
     0
 62
     7
  6
CONTINUOUS
  0
LAYER
  2
99
 70
     0
 62
     7
  6
CONTINUOUS
  0
LAYER
  2
100
 70
     0
 62
     7
  6
CONTINUOUS
  0
LAYER
  2
101
 70
     0
 62
     7
  6
CONTINUOUS
  0
LAYER
  2
102
 70
     0
 62
     7
  6
CONTINUOUS
  0
LAYER
  2
103
 70
     0
 62
     7
  6
CONTINUOUS
  0
LAYER
  2
104
 70
     0
 62
     7
  6
CONTINUOUS
  0
LAYER
  2
105
 70
     0
 62
     7
  6
CONTINUOUS
  0
LAYER
  2
106
 70
     0
 62
     7
  6
CONTINUOUS
  0
LAYER
  2
107
 70
     0
 62
     7
  6
CONTINUOUS
  0
LAYER
  2
108
 70
     0
 62
     7
  6
CONTINUOUS
  0
LAYER
  2
109
 70
     0
 62
     7
  6
CONTINUOUS
  0
LAYER
  2
110
 70
     0
 62
     7
  6
CONTINUOUS
  0
LAYER
  2
111
 70
     0
 62
     7
  6
CONTINUOUS
  0
LAYER
  2
112
 70
     0
 62
     7
  6
CONTINUOUS
  0
LAYER
  2
113
 70
     0
 62
     7
  6
CONTINUOUS
  0
LAYER
  2
114
 70
     0
 62
     7
  6
CONTINUOUS
  0
LAYER
  2
115
 70
     0
 62
     7
  6
CONTINUOUS
  0
LAYER
  2
116
 70
     0
 62
     7
  6
CONTINUOUS
  0
LAYER
  2
117
 70
     0
 62
     7
  6
CONTINUOUS
  0
LAYER
  2
118
 70
     0
 62
     7
  6
CONTINUOUS
  0
LAYER
  2
119
 70
     0
 62
     7
  6
CONTINUOUS
  0
LAYER
  2
120
 70
     0
 62
     7
  6
CONTINUOUS
  0
LAYER
  2
121
 70
     0
 62
     7
  6
CONTINUOUS
  0
LAYER
  2
122
 70
     0
 62
     7
  6
CONTINUOUS
  0
LAYER
  2
123
 70
     0
 62
     7
  6
CONTINUOUS
  0
LAYER
  2
124
 70
     0
 62
     7
  6
CONTINUOUS
  0
LAYER
  2
125
 70
     0
 62
     7
  6
CONTINUOUS
  0
LAYER
  2
126
 70
     0
 62
     7
  6
CONTINUOUS
  0
LAYER
  2
127
 70
     0
 62
     7
  6
CONTINUOUS
  0
ENDTAB
  0
TABLE
  2
STYLE
 70
     6
  0
STYLE
  2
STANDARD
 70
     0
 40
0.0
 41
1.0
 50
0.0
 71
     0
 42
0.2
  3
txt
  4

  0
STYLE
  2
KANJI0
 70
     0
 40
6.0
 41
0.666666667
 50
0.0
 71
     0
 42
6.0
  3

  4
bigfont
  0
STYLE
  2
KANJI1
 70
     0
 40
3.6
 41
0.666666667
 50
0.0
 71
     0
 42
3.6
  3

  4
bigfont
  0
STYLE
  2
KANJI2
 70
     0
 40
6.0
 41
0.9
 50
0.0
 71
     0
 42
6.0
  3

  4
bigfont
  0
STYLE
  2
KANJI3
 70
     0
 40
8.0
 41
0.9
 50
0.0
 71
     0
 42
8.0
  3

  4
bigfont
  0
STYLE
  2
KANJI4
 70
     0
 40
5.6
 41
0.9
 50
0.0
 71
     0
 42
5.6
  3

  4
bigfont
  0
ENDTAB
  0
TABLE
  2
VIEW
 70
     0
  0
ENDTAB
  0
ENDSEC
  0
SECTION
  2
BLOCKS
  0
ENDSEC
  0
SECTION
  2
ENTITIES
  0
LINE
  8
0
  6
CONTINUOUS
 62
     3
 10
439.5
 20
227.5
 11
504.5
 21
227.5
  0
ARC
  8
0
  6
CONTINUOUS
 62
     3
 10
504.5
 20
235.0
 40
7.5
 50
270.0
 51
0.0
  0
LINE
  8
0
  6
CONTINUOUS
 62
     3
 10
512.0
 20
235.0
 11
512.0
 21
375.0
  0
ARC
  8
0
  6
CONTINUOUS
 62
     3
 10
504.5
 20
375.0
 40
7.5
 50
0.0
 51
90.0
  0
LINE
  8
0
  6
CONTINUOUS
 62
     3
 10
504.5
 20
382.5
 11
439.5
 21
382.5
  0
ARC
  8
0
  6
CONTINUOUS
 62
     3
 10
439.5
 20
375.0
 40
7.5
 50
90.0
 51
180.0
  0
LINE
  8
0
  6
CONTINUOUS
 62
     3
 10
432.0
 20
375.0
 11
432.0
 21
235.0
  0
ARC
  8
0
  6
CONTINUOUS
 62
     3
 10
439.5
 20
235.0
 40
7.5
 50
180.0
 51
270.0
  0
CIRCLE
  8
0
  6
CONTINUOUS
 62
     3
 10
504.0
 20
240.0
 40
3.4
  0
CIRCLE
  8
0
  6
CONTINUOUS
 62
     3
 10
440.0
 20
240.0
 40
3.4
  0
CIRCLE
  8
0
  6
CONTINUOUS
 62
     3
 10
440.0
 20
305.0
 40
3.4
  0
CIRCLE
  8
0
  6
CONTINUOUS
 62
     3
 10
440.0
 20
370.0
 40
3.4
  0
CIRCLE
  8
0
  6
CONTINUOUS
 62
     3
 10
504.0
 20
370.0
 40
3.4
  0
CIRCLE
  8
0
  6
CONTINUOUS
 62
     3
 10
504.0
 20
305.0
 40
3.4
  0
CIRCLE
  8
0
  6
CONTINUOUS
 62
     3
 10
472.0
 20
305.0
 40
4.1
  0
CIRCLE
  8
0
  6
CONTINUOUS
 62
     3
 10
472.0
 20
365.0
 40
4.4
  0
CIRCLE
  8
0
  6
CONTINUOUS
 62
     3
 10
472.0
 20
245.0
 40
4.4
  0
LINE
  8
0
  6
CONTINUOUS
 62
     1
 10
472.0
 20
251.5
 11
472.0
 21
238.5
  0
LINE
  8
0
  6
CONTINUOUS
 62
     1
 10
435.5
 20
240.0
 11
445.5
 21
240.0
  0
LINE
  8
0
  6
CONTINUOUS
 62
     1
 10
440.0
 20
299.5
 11
440.0
 21
310.0
  0
LINE
  8
0
  6
CONTINUOUS
 62
     1
 10
440.0
 20
365.5
 11
440.0
 21
375.5
  0
LINE
  8
0
  6
CONTINUOUS
 62
     1
 10
435.0
 20
370.0
 11
445.0
 21
370.0
  0
LINE
  8
0
  6
CONTINUOUS
 62
     1
 10
472.0
 20
358.5
 11
472.0
 21
372.5
  0
LINE
  8
0
  6
CONTINUOUS
 62
     1
 10
504.0
 20
366.0
 11
504.0
 21
375.0
  0
LINE
  8
0
  6
CONTINUOUS
 62
     1
 10
504.0
 20
309.5
 11
504.0
 21
299.5
  0
LINE
  8
0
  6
CONTINUOUS
 62
     1
 10
435.0
 20
305.0
 11
445.0
 21
305.0
  0
LINE
  8
0
  6
CONTINUOUS
 62
     1
 10
448.0
 20
341.5
 11
448.0
 21
268.5
  0
LINE
  8
0
  6
CONTINUOUS
 62
     1
 10
457.5
 20
267.0
 11
486.5
 21
267.0
  0
ARC
  8
0
  6
CONTINUOUS
 62
     1
 10
486.5
 20
270.5
 40
3.5
 50
270.0
 51
0.0
  0
ARC
  8
0
  6
CONTINUOUS
 62
     1
 10
457.5
 20
270.5
 40
3.5
 50
180.0
 51
270.0
  0
LINE
  8
0
  6
CONTINUOUS
 62
     1
 10
455.5
 20
261.0
 11
488.5
 21
261.0
  0
ARC
  8
0
  6
CONTINUOUS
 62
     1
 10
488.5
 20
268.5
 40
7.5
 50
270.0
 51
0.0
  0
ARC
  8
0
  6
CONTINUOUS
 62
     1
 10
455.5
 20
268.5
 40
7.5
 50
180.0
 51
270.0
  0
LINE
  8
0
  6
CONTINUOUS
 62
     1
 10
490.0
 20
270.5
 11
490.0
 21
339.5
  0
ARC
  8
0
  6
CONTINUOUS
 62
     1
 10
486.5
 20
339.5
 40
3.5
 50
0.0
 51
90.0
  0
LINE
  8
0
  6
CONTINUOUS
 62
     1
 10
496.0
 20
268.5
 11
496.0
 21
341.5
  0
ARC
  8
0
  6
CONTINUOUS
 62
     1
 10
488.5
 20
341.5
 40
7.5
 50
0.0
 51
90.0
  0
ARC
  8
0
  6
CONTINUOUS
 62
     1
 10
457.5
 20
339.5
 40
3.5
 50
90.0
 51
180.0
  0
ARC
  8
0
  6
CONTINUOUS
 62
     1
 10
455.5
 20
341.5
 40
7.5
 50
90.0
 51
180.0
  0
LINE
  8
0
  6
CONTINUOUS
 62
     1
 10
454.0
 20
339.5
 11
454.0
 21
270.5
  0
LINE
  8
0
  6
CONTINUOUS
 62
     1
 10
486.5
 20
343.0
 11
457.5
 21
343.0
  0
LINE
  8
0
  6
CONTINUOUS
 62
     1
 10
488.5
 20
349.0
 11
455.5
 21
349.0
  0
CIRCLE
  8
0
  6
CONTINUOUS
 62
     1
 10
481.0
 20
305.0
 40
1.0
  0
CIRCLE
  8
0
  6
CONTINUOUS
 62
     1
 10
472.0
 20
314.0
 40
1.0
  0
CIRCLE
  8
0
  6
CONTINUOUS
 62
     1
 10
463.0
 20
305.0
 40
1.0
  0
CIRCLE
  8
0
  6
CONTINUOUS
 62
     1
 10
472.0
 20
296.0
 40
1.0
  0
LINE
  8
0
  6
CONTINUOUS
 62
     1
 10
472.0
 20
294.0
 11
472.0
 21
316.0
  0
LINE
  8
0
  6
CONTINUOUS
 62
     1
 10
461.0
 20
305.0
 11
483.0
 21
305.0
  0
CIRCLE
  8
0
  6
CONTINUOUS
 62
     3
 10
240.0
 20
305.0
 40
9.0
  0
CIRCLE
  8
0
  6
CONTINUOUS
 62
     3
 10
240.0
 20
305.0
 40
6.5
  0
ARC
  8
0
  6
CONTINUOUS
 62
     3
 10
240.0
 20
305.0
 40
14.0
 50
90.0
 51
270.0
  0
LINE
  8
0
  6
CONTINUOUS
 62
     3
 10
240.0
 20
319.0
 11
278.0
 21
319.0
  0
LINE
  8
0
  6
CONTINUOUS
 62
     3
 10
278.0
 20
291.0
 11
240.0
 21
291.0
  0
LINE
  8
0
  6
CONTINUOUS
 62
     3
 10
278.0
 20
291.0
 11
278.0
 21
319.0
  0
LINE
  8
0
  6
CONTINUOUS
 62
     3
 10
278.0
 20
318.5
 11
285.0
 21
316.0
  0
LINE
  8
0
  6
CONTINUOUS
 62
     3
 10
285.0
 20
316.0
 11
285.0
 21
294.0
  0
LINE
  8
0
  6
CONTINUOUS
 62
     3
 10
285.0
 20
294.0
 11
278.0
 21
291.5
  0
LINE
  8
0
  6
CONTINUOUS
 62
     3
 10
240.0
 20
291.0
 11
202.0
 21
291.0
  0
LINE
  8
0
  6
CONTINUOUS
 62
     3
 10
202.0
 20
319.0
 11
240.0
 21
319.0
  0
LINE
  8
0
  6
CONTINUOUS
 62
     3
 10
202.0
 20
319.0
 11
202.0
 21
291.0
  0
LINE
  8
0
  6
CONTINUOUS
 62
     3
 10
202.0
 20
291.5
 11
195.0
 21
294.0
  0
LINE
  8
0
  6
CONTINUOUS
 62
     3
 10
195.0
 20
316.0
 11
195.0
 21
294.0
  0
LINE
  8
0
  6
CONTINUOUS
 62
     3
 10
195.0
 20
316.0
 11
202.0
 21
318.5
  0
LINE
  8
0
  6
CONTINUOUS
 62
     3
 10
192.0
 20
312.0
 11
195.0
 21
312.0
  0
LINE
  8
0
  6
CONTINUOUS
 62
     3
 10
192.0
 20
312.0
 11
192.0
 21
298.0
  0
LINE
  8
0
  6
CONTINUOUS
 62
     3
 10
192.0
 20
298.0
 11
195.0
 21
298.0
  0
LINE
  8
0
  6
CONTINUOUS
 62
     3
 10
205.0
 20
320.0
 11
204.0
 21
319.0
  0
LINE
  8
0
  6
CONTINUOUS
 62
     3
 10
209.0
 20
320.0
 11
210.0
 21
319.0
  0
LINE
  8
0
  6
CONTINUOUS
 62
     3
 10
205.0
 20
320.0
 11
209.0
 21
320.0
  0
ARC
  8
0
  6
CONTINUOUS
 62
     3
 10
217.0
 20
317.0
 40
2.0
 50
0.0
 51
90.0
  0
ARC
  8
0
  6
CONTINUOUS
 62
     3
 10
217.0
 20
293.0
 40
2.0
 50
270.0
 51
0.0
  0
LINE
  8
0
  6
CONTINUOUS
 62
     3
 10
219.0
 20
293.0
 11
219.0
 21
317.0
  0
LINE
  8
0
  6
CONTINUOUS
 62
     3
 10
190.0
 20
305.0
 11
190.0
 21
317.5
  0
LINE
  8
0
  6
CONTINUOUS
 62
     3
 10
187.0
 20
321.5
 11
187.0
 21
348.0
  0
LINE
  8
0
  6
CONTINUOUS
 62
     3
 10
187.0
 20
348.0
 11
185.0
 21
348.0
  0
LINE
  8
0
  6
CONTINUOUS
 62
     3
 10
185.0
 20
262.0
 11
187.0
 21
262.0
  0
LINE
  8
0
  6
CONTINUOUS
 62
     3
 10
187.0
 20
262.0
 11
187.0
 21
288.5
  0
POINT
  8
0
  6
CONTINUOUS
 62
     3
 10
190.0
 20
305.0
  0
LINE
  8
0
  6
CONTINUOUS
 62
     3
 10
190.0
 20
305.0
 11
190.0
 21
292.5
  0
LINE
  8
0
  6
CONTINUOUS
 62
     3
 10
192.0
 20
318.5
 11
192.0
 21
293.2
  0
LINE
  8
0
  6
CONTINUOUS
 62
     3
 10
190.6
 20
290.6
 11
187.0
 21
288.5
  0
LINE
  8
0
  6
CONTINUOUS
 62
     3
 10
185.0
 20
262.0
 11
185.0
 21
287.8
  0
LINE
  8
0
  6
CONTINUOUS
 62
     3
 10
186.5
 20
290.4
 11
190.0
 21
292.5
  0
LINE
  8
0
  6
CONTINUOUS
 62
     3
 10
185.0
 20
287.0
 11
185.0
 21
288.4
  0
ARC
  8
0
  6
CONTINUOUS
 62
     3
 10
187.0
 20
288.4
 40
2.0
 50
121.0
 51
180.0
  0
LINE
  8
0
  6
CONTINUOUS
 62
     3
 10
186.0
 20
290.1
 11
190.0
 21
292.5
  0
LINE
  8
0
  6
CONTINUOUS
 62
     3
 10
192.0
 20
305.0
 11
192.0
 21
292.6
  0
ARC
  8
0
  6
CONTINUOUS
 62
     3
 10
190.0
 20
292.6
 40
2.0
 50
301.1
 51
0.0
  0
LINE
  8
0
  6
CONTINUOUS
 62
     3
 10
191.0
 20
290.9
 11
187.0
 21
288.5
  0
LINE
  8
0
  6
CONTINUOUS
 62
     3
 10
187.0
 20
321.5
 11
191.0
 21
319.1
  0
ARC
  8
0
  6
CONTINUOUS
 62
     3
 10
190.0
 20
317.4
 40
2.0
 50
0.0
 51
58.9
  0
LINE
  8
0
  6
CONTINUOUS
 62
     3
 10
192.0
 20
317.4
 11
192.0
 21
317.5
  0
LINE
  8
0
  6
CONTINUOUS
 62
     3
 10
190.0
 20
317.5
 11
186.0
 21
319.9
  0
ARC
  8
0
  6
CONTINUOUS
 62
     3
 10
187.0
 20
321.6
 40
2.0
 50
180.0
 51
238.9
  0
LINE
  8
0
  6
CONTINUOUS
 62
     3
 10
185.0
 20
321.6
 11
185.0
 21
348.0
  0
LINE
  8
0
  6
CONTINUOUS
 62
     3
 10
276.0
 20
319.0
 11
275.0
 21
320.0
  0
LINE
  8
0
  6
CONTINUOUS
 62
     3
 10
275.0
 20
320.0
 11
271.0
 21
320.0
  0
LINE
  8
0
  6
CONTINUOUS
 62
     3
 10
271.0
 20
320.0
 11
270.0
 21
319.0
  0
CIRCLE
  8
0
  6
CONTINUOUS
 62
     3
 10
273.0
 20
305.0
 40
3.0
  0
LINE
  8
0
  6
CONTINUOUS
 62
     3
 10
276.0
 20
291.0
 11
275.0
 21
290.0
  0
LINE
  8
0
  6
CONTINUOUS
 62
     3
 10
275.0
 20
290.0
 11
271.0
 21
290.0
  0
LINE
  8
0
  6
CONTINUOUS
 62
     3
 10
271.0
 20
290.0
 11
270.0
 21
291.0
  0
LINE
  8
0
  6
CONTINUOUS
 62
     3
 10
204.0
 20
291.0
 11
205.0
 21
290.0
  0
LINE
  8
0
  6
CONTINUOUS
 62
     3
 10
205.0
 20
290.0
 11
209.0
 21
290.0
  0
LINE
  8
0
  6
CONTINUOUS
 62
     3
 10
209.0
 20
290.0
 11
210.0
 21
291.0
  0
CIRCLE
  8
0
  6
CONTINUOUS
 62
     1
 10
273.0
 20
305.0
 40
2.6
  0
LINE
  8
0
  6
CONTINUOUS
 62
     1
 10
272.0
 20
303.5
 11
274.0
 21
303.5
  0
LINE
  8
0
  6
CONTINUOUS
 62
     1
 10
274.0
 20
303.5
 11
274.0
 21
306.5
  0
LINE
  8
0
  6
CONTINUOUS
 62
     1
 10
274.0
 20
306.5
 11
272.0
 21
306.5
  0
LINE
  8
0
  6
CONTINUOUS
 62
     1
 10
272.0
 20
306.5
 11
272.0
 21
303.5
  0
LINE
  8
0
  6
CONTINUOUS
 62
     1
 10
190.0
 20
311.5
 11
188.5
 21
305.0
  0
LINE
  8
0
  6
CONTINUOUS
 62
     1
 10
188.5
 20
305.0
 11
190.0
 21
298.5
  0
LINE
  8
0
  6
CONTINUOUS
 62
     1
 10
214.0
 20
317.0
 11
219.0
 21
317.0
  0
LINE
  8
0
  6
CONTINUOUS
 62
     1
 10
219.0
 20
293.0
 11
214.0
 21
293.0
  0
ARC
  8
0
  6
CONTINUOUS
 62
     1
 10
214.0
 20
305.0
 40
12.0
 50
90.0
 51
270.0
  0
ARC
  8
0
  6
CONTINUOUS
 62
     1
 10
240.0
 20
305.0
 40
12.0
 50
90.0
 51
270.0
  0
LINE
  8
0
  6
CONTINUOUS
 62
     1
 10
240.0
 20
293.0
 11
266.0
 21
293.0
  0
CIRCLE
  8
0
  6
CONTINUOUS
 62
     1
 10
240.0
 20
305.0
 40
7.7
  0
LINE
  8
0
  6
CONTINUOUS
 62
     1
 10
243.464101615
 20
305.0
 11
241.732050808
 21
308.0
  0
LINE
  8
0
  6
CONTINUOUS
 62
     1
 10
241.732050808
 20
308.0
 11
238.267949192
 21
308.0
  0
LINE
  8
0
  6
CONTINUOUS
 62
     1
 10
238.267949192
 20
308.0
 11
236.535898385
 21
305.0
  0
LINE
  8
0
  6
CONTINUOUS
 62
     1
 10
236.535898385
 20
305.0
 11
238.267949192
 21
302.0
  0
LINE
  8
0
  6
CONTINUOUS
 62
     1
 10
238.267949192
 20
302.0
 11
241.732050808
 21
302.0
  0
LINE
  8
0
  6
CONTINUOUS
 62
     1
 10
241.732050808
 20
302.0
 11
243.464101615
 21
305.0
  0
LINE
  8
0
  6
CONTINUOUS
 62
     1
 10
235.0
 20
305.0
 11
245.0
 21
305.0
  0
ARC
  8
0
  6
CONTINUOUS
 62
     1
 10
266.0
 20
305.0
 40
12.0
 50
0.0
 51
90.0
  0
LINE
  8
0
  6
CONTINUOUS
 62
     1
 10
266.0
 20
317.0
 11
240.0
 21
317.0
  0
ARC
  8
0
  6
CONTINUOUS
 62
     1
 10
266.0
 20
305.0
 40
12.0
 50
270.0
 51
0.0
  0
LINE
  8
0
  6
CONTINUOUS
 62
     3
 10
300.0
 20
313.5
 11
295.0
 21
313.5
  0
LINE
  8
0
  6
CONTINUOUS
 62
     3
 10
295.0
 20
313.5
 11
295.0
 21
296.5
  0
LINE
  8
0
  6
CONTINUOUS
 62
     3
 10
300.0
 20
296.5
 11
300.0
 21
313.5
  0
POINT
  8
0
  6
CONTINUOUS
 62
     3
 10
295.5
 20
312.0
  0
LINE
  8
0
  6
CONTINUOUS
 62
     1
 10
299.5
 20
312.0
 11
299.5
 21
285.0
  0
LINE
  8
0
  6
CONTINUOUS
 62
     1
 10
295.5
 20
312.0
 11
295.5
 21
285.0
  0
LINE
  8
0
  6
CONTINUOUS
 62
     1
 10
295.5
 20
296.5
 11
299.5
 21
296.5
  0
LINE
  8
0
  6
CONTINUOUS
 62
     1
 10
295.5
 20
312.0
 11
299.5
 21
312.0
  0
LINE
  8
0
  6
CONTINUOUS
 62
     1
 10
294.5
 20
295.0
 11
294.5
 21
315.0
  0
LINE
  8
0
  6
CONTINUOUS
 62
     1
 10
299.5
 20
285.0
 11
295.5
 21
285.0
  0
LINE
  8
0
  6
CONTINUOUS
 62
     3
 10
294.5
 20
295.0
 11
285.0
 21
295.0
  0
LINE
  8
0
  6
CONTINUOUS
 62
     3
 10
294.5
 20
295.0
 11
295.0
 21
296.5
  0
LINE
  8
0
  6
CONTINUOUS
 62
     3
 10
294.5
 20
315.0
 11
295.0
 21
313.5
  0
LINE
  8
0
  6
CONTINUOUS
 62
     3
 10
285.0
 20
315.0
 11
294.5
 21
315.0
  0
LINE
  8
0
  6
CONTINUOUS
 62
     1
 10
300.5
 20
315.0
 11
300.5
 21
295.0
  0
LINE
  8
0
  6
CONTINUOUS
 62
     3
 10
300.5
 20
295.0
 11
300.0
 21
296.5
  0
LINE
  8
0
  6
CONTINUOUS
 62
     3
 10
300.0
 20
313.5
 11
300.5
 21
315.0
  0
LINE
  8
0
  6
CONTINUOUS
 62
     3
 10
300.0
 20
296.5
 11
299.5
 21
296.5
  0
LINE
  8
0
  6
CONTINUOUS
 62
     3
 10
295.5
 20
296.5
 11
295.0
 21
296.5
  0
LINE
  8
0
  6
CONTINUOUS
 62
     1
 10
240.0
 20
310.0
 11
240.0
 21
203.5
  0
LINE
  8
0
  6
CONTINUOUS
 62
     3
 10
395.0
 20
382.5
 11
392.4
 21
382.5
  0
LINE
  8
0
  6
CONTINUOUS
 62
     3
 10
392.4
 20
382.5
 11
392.4
 21
227.5
  0
LINE
  8
0
  6
CONTINUOUS
 62
     3
 10
392.4
 20
227.5
 11
395.0
 21
227.5
  0
LINE
  8
0
  6
CONTINUOUS
 62
     3
 10
395.0
 20
227.5
 11
395.0
 21
382.5
  0
LINE
  8
0
  6
CONTINUOUS
 62
     3
 10
392.4
 20
261.0
 11
386.1
 21
265.3
  0
ARC
  8
0
  6
CONTINUOUS
 62
     3
 10
387.5
 20
267.3
 40
2.5
 50
180.0
 51
235.8
  0
LINE
  8
0
  6
CONTINUOUS
 62
     3
 10
385.0
 20
267.3
 11
385.0
 21
342.7
  0
ARC
  8
0
  6
CONTINUOUS
 62
     3
 10
387.5
 20
342.7
 40
2.5
 50
124.0
 51
180.0
  0
LINE
  8
0
  6
CONTINUOUS
 62
     3
 10
386.1
 20
344.7
 11
392.4
 21
349.0
  0
LINE
  8
0
  6
CONTINUOUS
 62
     3
 10
370.0
 20
313.5
 11
375.0
 21
313.5
  0
LINE
  8
0
  6
CONTINUOUS
 62
     3
 10
375.0
 20
296.5
 11
375.0
 21
313.5
  0
LINE
  8
0
  6
CONTINUOUS
 62
     3
 10
370.0
 20
313.5
 11
370.0
 21
296.5
  0
LINE
  8
0
  6
CONTINUOUS
 62
     1
 10
374.5
 20
305.0
 11
374.5
 21
285.0
  0
POINT
  8
0
  6
CONTINUOUS
 62
     1
 10
370.5
 20
305.0
  0
LINE
  8
0
  6
CONTINUOUS
 62
     1
 10
370.5
 20
305.0
 11
370.5
 21
285.0
  0
LINE
  8
0
  6
CONTINUOUS
 62
     1
 10
374.5
 20
312.0
 11
370.5
 21
312.0
  0
LINE
  8
0
  6
CONTINUOUS
 62
     1
 10
370.5
 20
305.0
 11
370.5
 21
312.0
  0
LINE
  8
0
  6
CONTINUOUS
 62
     1
 10
374.5
 20
312.0
 11
374.5
 21
305.0
  0
LINE
  8
0
  6
CONTINUOUS
 62
     1
 10
374.5
 20
296.5
 11
370.5
 21
296.5
  0
LINE
  8
0
  6
CONTINUOUS
 62
     1
 10
374.5
 20
285.0
 11
370.5
 21
285.0
  0
LINE
  8
0
  6
CONTINUOUS
 62
     3
 10
369.5
 20
295.0
 11
370.0
 21
296.5
  0
LINE
  8
0
  6
CONTINUOUS
 62
     3
 10
375.0
 20
296.5
 11
375.5
 21
295.0
  0
LINE
  8
0
  6
CONTINUOUS
 62
     3
 10
375.5
 20
315.0
 11
375.0
 21
313.5
  0
LINE
  8
0
  6
CONTINUOUS
 62
     3
 10
370.0
 20
313.5
 11
369.5
 21
315.0
  0
LINE
  8
0
  6
CONTINUOUS
 62
     1
 10
369.5
 20
295.1
 11
369.5
 21
315.0
  0
LINE
  8
0
  6
CONTINUOUS
 62
     3
 10
385.0
 20
315.0
 11
375.5
 21
315.0
  0
LINE
  8
0
  6
CONTINUOUS
 62
     3
 10
375.5
 20
295.0
 11
385.0
 21
295.0
  0
LINE
  8
0
  6
CONTINUOUS
 62
     1
 10
375.5
 20
315.0
 11
375.5
 21
295.0
  0
LINE
  8
0
  6
CONTINUOUS
 62
     3
 10
374.5
 20
296.5
 11
375.0
 21
296.5
  0
LINE
  8
0
  6
CONTINUOUS
 62
     3
 10
370.5
 20
296.5
 11
370.0
 21
296.5
  0
LINE
  8
0
  6
CONTINUOUS
 62
     3
 10
369.5
 20
295.0
 11
300.5
 21
295.0
  0
LINE
  8
0
  6
CONTINUOUS
 62
     3
 10
300.5
 20
315.0
 11
369.5
 21
315.0
  0
LINE
  8
0
  6
CONTINUOUS
 62
     1
 10
20.0
 20
15.0
 11
580.0
 21
15.0
  0
LINE
  8
0
  6
CONTINUOUS
 62
     1
 10
580.0
 20
15.0
 11
580.0
 21
410.0
  0
LINE
  8
0
  6
CONTINUOUS
 62
     1
 10
580.0
 20
410.0
 11
20.0
 21
410.0
  0
LINE
  8
0
  6
CONTINUOUS
 62
     1
 10
20.0
 20
410.0
 11
20.0
 21
15.0
  0
ARC
  8
0
  6
CONTINUOUS
 62
     1
 10
240.0
 20
305.0
 40
70.0
 50
70.0
 51
290.0
  0
LINE
  8
0
  6
CONTINUOUS
 62
     1
 10
263.941410033
 20
370.778483455
 11
262.303105944
 21
371.925636328
  0
LINE
  8
0
  6
CONTINUOUS
 62
     1
 10
263.941410033
 20
370.778483455
 11
261.949020637
 21
370.952794941
  0
LINE
  8
0
  6
CONTINUOUS
 62
     1
 10
263.941410033
 20
239.221516545
 11
261.949020637
 21
239.047205059
  0
LINE
  8
0
  6
CONTINUOUS
 62
     1
 10
263.941410033
 20
239.221516545
 11
262.303105944
 21
238.074363672
  0
LINE
  8
0
  6
CONTINUOUS
 62
     1
 10
240.0
 20
305.0
 11
264.625450319
 21
372.657868697
  0
LINE
  8
0
  6
CONTINUOUS
 62
     1
 10
240.0
 20
305.0
 11
264.625450319
 21
237.342131303
  0
TEXT
  8
0
  6
CONTINUOUS
 62
     1
 10
168.0
 20
297.0
 30
0.0
 40
6.0
  1
２２０゜
 50
90.0
 41
0.666666667
 51
0.0
  7
KANJI0
  0
LINE
  8
0
  6
CONTINUOUS
 62
     1
 10
240.0
 20
205.0
 11
238.068148347
 21
205.51763809
  0
LINE
  8
0
  6
CONTINUOUS
 62
     1
 10
240.0
 20
205.0
 11
238.068148347
 21
204.48236191
  0
LINE
  8
0
  6
CONTINUOUS
 62
     1
 10
240.0
 20
205.0
 11
185.0
 21
205.0
  0
LINE
  8
0
  6
CONTINUOUS
 62
     1
 10
185.0
 20
205.0
 11
186.931851653
 21
204.48236191
  0
LINE
  8
0
  6
CONTINUOUS
 62
     1
 10
185.0
 20
205.0
 11
186.931851653
 21
205.51763809
  0
LINE
  8
0
  6
CONTINUOUS
 62
     1
 10
185.0
 20
260.0
 11
185.0
 21
203.0
  0
TEXT
  8
0
  6
CONTINUOUS
 62
     1
 10
206.1
 20
207.0
 30
0.0
 40
6.0
  1
５５
 50
0.0
 41
0.666666667
 51
0.0
  7
KANJI0
  0
TEXT
  8
0
  6
CONTINUOUS
 62
     1
 10
214.1
 20
207.0
 30
0.0
 40
3.6
  1
±２
 50
0.0
 41
0.666666667
 51
0.0
  7
KANJI1
  0
LINE
  8
0
  6
CONTINUOUS
 62
     1
 10
240.0
 20
205.0
 11
241.931851653
 21
204.48236191
  0
LINE
  8
0
  6
CONTINUOUS
 62
     1
 10
240.0
 20
205.0
 11
241.931851653
 21
205.51763809
  0
LINE
  8
0
  6
CONTINUOUS
 62
     1
 10
240.0
 20
205.0
 11
395.0
 21
205.0
  0
LINE
  8
0
  6
CONTINUOUS
 62
     1
 10
395.0
 20
205.0
 11
393.068148347
 21
205.51763809
  0
LINE
  8
0
  6
CONTINUOUS
 62
     1
 10
395.0
 20
205.0
 11
393.068148347
 21
204.48236191
  0
LINE
  8
0
  6
CONTINUOUS
 62
     1
 10
395.0
 20
220.0
 11
395.0
 21
203.0
  0
TEXT
  8
0
  6
CONTINUOUS
 62
     1
 10
309.1
 20
207.0
 30
0.0
 40
6.0
  1
１５５
 50
0.0
 41
0.666666667
 51
0.0
  7
KANJI0
  0
TEXT
  8
0
  6
CONTINUOUS
 62
     1
 10
321.1
 20
207.0
 30
0.0
 40
3.6
  1
±２
 50
0.0
 41
0.666666667
 51
0.0
  7
KANJI1
  0
LINE
  8
0
  6
CONTINUOUS
 62
     1
 10
432.0
 20
230.0
 11
432.0
 21
188.0
  0
LINE
  8
0
  6
CONTINUOUS
 62
     1
 10
432.0
 20
190.0
 11
433.931851653
 21
189.48236191
  0
LINE
  8
0
  6
CONTINUOUS
 62
     1
 10
432.0
 20
190.0
 11
433.931851653
 21
190.51763809
  0
LINE
  8
0
  6
CONTINUOUS
 62
     1
 10
432.0
 20
190.0
 11
512.0
 21
190.0
  0
LINE
  8
0
  6
CONTINUOUS
 62
     1
 10
512.0
 20
190.0
 11
510.068148347
 21
190.51763809
  0
LINE
  8
0
  6
CONTINUOUS
 62
     1
 10
512.0
 20
190.0
 11
510.068148347
 21
189.48236191
  0
LINE
  8
0
  6
CONTINUOUS
 62
     1
 10
512.0
 20
230.0
 11
512.0
 21
188.0
  0
TEXT
  8
0
  6
CONTINUOUS
 62
     1
 10
465.6
 20
192.0
 30
0.0
 40
6.0
  1
８０
 50
0.0
 41
0.666666667
 51
0.0
  7
KANJI0
  0
TEXT
  8
0
  6
CONTINUOUS
 62
     1
 10
473.6
 20
192.0
 30
0.0
 40
3.6
  1
±１
 50
0.0
 41
0.666666667
 51
0.0
  7
KANJI1
  0
LINE
  8
0
  6
CONTINUOUS
 62
     1
 10
440.0
 20
245.0
 11
440.0
 21
203.0
  0
LINE
  8
0
  6
CONTINUOUS
 62
     1
 10
440.0
 20
205.0
 11
441.931851653
 21
204.48236191
  0
LINE
  8
0
  6
CONTINUOUS
 62
     1
 10
440.0
 20
205.0
 11
441.931851653
 21
205.51763809
  0
LINE
  8
0
  6
CONTINUOUS
 62
     1
 10
440.0
 20
205.0
 11
504.0
 21
205.0
  0
LINE
  8
0
  6
CONTINUOUS
 62
     1
 10
504.0
 20
205.0
 11
502.068148347
 21
205.51763809
  0
LINE
  8
0
  6
CONTINUOUS
 62
     1
 10
504.0
 20
205.0
 11
502.068148347
 21
204.48236191
  0
LINE
  8
0
  6
CONTINUOUS
 62
     1
 10
504.0
 20
245.0
 11
504.0
 21
203.0
  0
TEXT
  8
0
  6
CONTINUOUS
 62
     1
 10
465.6
 20
207.0
 30
0.0
 40
6.0
  1
６４
 50
0.0
 41
0.666666667
 51
0.0
  7
KANJI0
  0
TEXT
  8
0
  6
CONTINUOUS
 62
     1
 10
473.6
 20
207.0
 30
0.0
 40
3.6
  1
±１
 50
0.0
 41
0.666666667
 51
0.0
  7
KANJI1
  0
LINE
  8
0
  6
CONTINUOUS
 62
     1
 10
544.0
 20
245.0
 11
544.51763809
 21
246.931851653
  0
LINE
  8
0
  6
CONTINUOUS
 62
     1
 10
544.0
 20
245.0
 11
543.48236191
 21
246.931851653
  0
LINE
  8
0
  6
CONTINUOUS
 62
     1
 10
544.0
 20
245.0
 11
544.0
 21
365.0
  0
LINE
  8
0
  6
CONTINUOUS
 62
     1
 10
544.0
 20
365.0
 11
543.48236191
 21
363.068148347
  0
LINE
  8
0
  6
CONTINUOUS
 62
     1
 10
544.0
 20
365.0
 11
544.51763809
 21
363.068148347
  0
TEXT
  8
0
  6
CONTINUOUS
 62
     1
 10
542.0
 20
296.6
 30
0.0
 40
6.0
  1
１２０
 50
90.0
 41
0.666666667
 51
0.0
  7
KANJI0
  0
TEXT
  8
0
  6
CONTINUOUS
 62
     1
 10
542.0
 20
308.6
 30
0.0
 40
3.6
  1
±１
 50
90.0
 41
0.666666667
 51
0.0
  7
KANJI1
  0
LINE
  8
0
  6
CONTINUOUS
 62
     1
 10
467.0
 20
365.0
 11
546.0
 21
365.0
  0
LINE
  8
0
  6
CONTINUOUS
 62
     1
 10
467.0
 20
245.0
 11
546.0
 21
245.0
  0
LINE
  8
0
  6
CONTINUOUS
 62
     1
 10
499.0
 20
305.0
 11
531.0
 21
305.0
  0
LINE
  8
0
  6
CONTINUOUS
 62
     1
 10
529.0
 20
305.0
 11
529.51763809
 21
306.931851653
  0
LINE
  8
0
  6
CONTINUOUS
 62
     1
 10
529.0
 20
305.0
 11
528.48236191
 21
306.931851653
  0
LINE
  8
0
  6
CONTINUOUS
 62
     1
 10
529.0
 20
305.0
 11
529.0
 21
370.0
  0
LINE
  8
0
  6
CONTINUOUS
 62
     1
 10
529.0
 20
370.0
 11
528.48236191
 21
368.068148347
  0
LINE
  8
0
  6
CONTINUOUS
 62
     1
 10
529.0
 20
370.0
 11
529.51763809
 21
368.068148347
  0
LINE
  8
0
  6
CONTINUOUS
 62
     1
 10
499.0
 20
370.0
 11
531.0
 21
370.0
  0
TEXT
  8
0
  6
CONTINUOUS
 62
     1
 10
527.0
 20
331.1
 30
0.0
 40
6.0
  1
６５
 50
90.0
 41
0.666666667
 51
0.0
  7
KANJI0
  0
TEXT
  8
0
  6
CONTINUOUS
 62
     1
 10
527.0
 20
339.1
 30
0.0
 40
3.6
  1
±１
 50
90.0
 41
0.666666667
 51
0.0
  7
KANJI1
  0
LINE
  8
0
  6
CONTINUOUS
 62
     1
 10
529.0
 20
305.0
 11
528.48236191
 21
303.068148347
  0
LINE
  8
0
  6
CONTINUOUS
 62
     1
 10
529.0
 20
305.0
 11
529.51763809
 21
303.068148347
  0
LINE
  8
0
  6
CONTINUOUS
 62
     1
 10
529.0
 20
305.0
 11
529.0
 21
240.0
  0
LINE
  8
0
  6
CONTINUOUS
 62
     1
 10
529.0
 20
240.0
 11
529.51763809
 21
241.931851653
  0
LINE
  8
0
  6
CONTINUOUS
 62
     1
 10
529.0
 20
240.0
 11
528.48236191
 21
241.931851653
  0
LINE
  8
0
  6
CONTINUOUS
 62
     1
 10
499.0
 20
240.0
 11
531.0
 21
240.0
  0
TEXT
  8
0
  6
CONTINUOUS
 62
     1
 10
527.0
 20
266.1
 30
0.0
 40
6.0
  1
６５
 50
90.0
 41
0.666666667
 51
0.0
  7
KANJI0
  0
TEXT
  8
0
  6
CONTINUOUS
 62
     1
 10
527.0
 20
274.1
 30
0.0
 40
3.6
  1
±１
 50
90.0
 41
0.666666667
 51
0.0
  7
KANJI1
  0
LINE
  8
0
  6
CONTINUOUS
 62
     1
 10
509.500007629
 20
227.5
 11
561.0
 21
227.5
  0
LINE
  8
0
  6
CONTINUOUS
 62
     1
 10
559.0
 20
227.5
 11
559.51763809
 21
229.431851653
  0
LINE
  8
0
  6
CONTINUOUS
 62
     1
 10
559.0
 20
227.5
 11
558.48236191
 21
229.431851653
  0
LINE
  8
0
  6
CONTINUOUS
 62
     1
 10
559.0
 20
227.5
 11
559.0
 21
382.5
  0
LINE
  8
0
  6
CONTINUOUS
 62
     1
 10
559.0
 20
382.5
 11
558.48236191
 21
380.568148347
  0
LINE
  8
0
  6
CONTINUOUS
 62
     1
 10
559.0
 20
382.5
 11
559.51763809
 21
380.568148347
  0
LINE
  8
0
  6
CONTINUOUS
 62
     1
 10
509.500007629
 20
382.5
 11
561.0
 21
382.5
  0
TEXT
  8
0
  6
CONTINUOUS
 62
     1
 10
557.0
 20
296.6
 30
0.0
 40
6.0
  1
１５５
 50
90.0
 41
0.666666667
 51
0.0
  7
KANJI0
  0
TEXT
  8
0
  6
CONTINUOUS
 62
     1
 10
557.0
 20
308.6
 30
0.0
 40
3.6
  1
±１
 50
90.0
 41
0.666666667
 51
0.0
  7
KANJI1
  0
LINE
  8
0
  6
CONTINUOUS
 62
     1
 10
370.5
 20
288.0
 11
369.062199524
 21
286.609773475
  0
LINE
  8
0
  6
CONTINUOUS
 62
     1
 10
370.5
 20
288.0
 11
369.949941525
 21
286.077128274
  0
LINE
  8
0
  6
CONTINUOUS
 62
     1
 10
370.5
 20
288.0
 11
355.5
 21
263.0
  0
LINE
  8
0
  6
CONTINUOUS
 62
     1
 10
355.5
 20
263.0
 11
302.1
 21
263.0
  0
TEXT
  8
0
  6
CONTINUOUS
 62
     1
 10
302.1
 20
265.0
 30
0.6
 40
6.0
  1
２－コードクランプ
 50
0.0
 41
0.9
 51
0.0
  7
KANJI2
  0
LINE
  8
0
  6
CONTINUOUS
 62
     1
 10
467.6
 20
240.5
 11
466.401913407
 21
238.898566731
  0
LINE
  8
0
  6
CONTINUOUS
 62
     1
 10
467.6
 20
240.5
 11
467.363143209
 21
238.51407481
  0
LINE
  8
0
  6
CONTINUOUS
 62
     1
 10
467.6
 20
240.5
 11
437.6
 21
165.5
  0
LINE
  8
0
  6
CONTINUOUS
 62
     1
 10
437.6
 20
165.5
 11
402.2
 21
165.5
  0
TEXT
  8
0
  6
CONTINUOUS
 62
     1
 10
402.2
 20
167.5
 30
0.6
 40
6.0
  1
２－φ８，８
 50
0.0
 41
0.9
 51
0.0
  7
KANJI2
  0
LINE
  8
0
  6
CONTINUOUS
 62
     1
 10
436.6
 20
236.5
 11
435.453330226
 21
234.861357748
  0
LINE
  8
0
  6
CONTINUOUS
 62
     1
 10
436.6
 20
236.5
 11
436.426275972
 21
234.507559295
  0
LINE
  8
0
  6
CONTINUOUS
 62
     1
 10
436.6
 20
236.5
 11
416.6
 21
181.5
  0
LINE
  8
0
  6
CONTINUOUS
 62
     1
 10
416.6
 20
181.5
 11
381.2
 21
181.5
  0
TEXT
  8
0
  6
CONTINUOUS
 62
     1
 10
381.2
 20
183.5
 30
0.6
 40
6.0
  1
６－φ６，８
 50
0.0
 41
0.9
 51
0.0
  7
KANJI2
  0
LINE
  8
0
  6
CONTINUOUS
 62
     1
 10
580.0
 20
27.0
 11
440.0
 21
27.0
  0
LINE
  8
0
  6
CONTINUOUS
 62
     1
 10
440.0
 20
39.0
 11
580.0
 21
39.0
  0
LINE
  8
0
  6
CONTINUOUS
 62
     1
 10
580.0
 20
51.0
 11
440.0
 21
51.0
  0
LINE
  8
0
  6
CONTINUOUS
 62
     1
 10
440.0
 20
63.0
 11
580.0
 21
63.0
  0
LINE
  8
0
  6
CONTINUOUS
 62
     1
 10
580.0
 20
75.0
 11
440.0
 21
75.0
  0
LINE
  8
0
  6
CONTINUOUS
 62
     1
 10
440.0
 20
87.0
 11
580.0
 21
87.0
  0
LINE
  8
0
  6
CONTINUOUS
 62
     1
 10
440.0
 20
87.0
 11
440.0
 21
15.0
  0
TEXT
  8
0
  6
CONTINUOUS
 62
     1
 10
450.0
 20
30.0
 30
0.6
 40
6.0
  1
耐荷重　　６ｋｇ（程度迄）
 50
0.0
 41
0.9
 51
0.0
  7
KANJI2
  0
TEXT
  8
0
  6
CONTINUOUS
 62
     1
 10
450.0
 20
42.0
 30
0.6
 40
6.0
  1
自重　　０，９６ｋｇ
 50
0.0
 41
0.9
 51
0.0
  7
KANJI2
  0
TEXT
  8
0
  6
CONTINUOUS
 62
     1
 10
450.0
 20
54.0
 30
0.6
 40
6.0
  1
黒色半艶消し焼付け塗装
 50
0.0
 41
0.9
 51
0.0
  7
KANJI2
  0
TEXT
  8
0
  6
CONTINUOUS
 62
     1
 10
450.0
 20
66.0
 30
0.6
 40
6.0
  1
スピーカ壁面取付金具
 50
0.0
 41
0.9
 51
0.0
  7
KANJI2
  0
TEXT
  8
0
  6
CONTINUOUS
 62
     1
 10
450.0
 20
77.0
 30
0.8
 40
8.0
  1
ＲＭ－２００
 50
0.0
 41
0.9
 51
0.0
  7
KANJI3
  0
LINE
  8
0
  6
CONTINUOUS
 62
     3
 10
90.0
 20
262.0
 11
120.0
 21
262.0
  0
ARC
  8
0
  6
CONTINUOUS
 62
     3
 10
120.0
 20
267.0
 40
5.0
 50
270.0
 51
0.0
  0
LINE
  8
0
  6
CONTINUOUS
 62
     3
 10
125.0
 20
267.0
 11
125.0
 21
343.0
  0
ARC
  8
0
  6
CONTINUOUS
 62
     3
 10
120.0
 20
343.0
 40
5.0
 50
0.0
 51
90.0
  0
LINE
  8
0
  6
CONTINUOUS
 62
     3
 10
120.0
 20
348.0
 11
90.0
 21
348.0
  0
ARC
  8
0
  6
CONTINUOUS
 62
     3
 10
90.0
 20
343.0
 40
5.0
 50
90.0
 51
180.0
  0
LINE
  8
0
  6
CONTINUOUS
 62
     3
 10
85.0
 20
343.0
 11
85.0
 21
267.0
  0
ARC
  8
0
  6
CONTINUOUS
 62
     3
 10
90.0
 20
267.0
 40
5.0
 50
180.0
 51
270.0
  0
CIRCLE
  8
0
  6
CONTINUOUS
 62
     3
 10
105.0
 20
275.0
 40
3.1
  0
CIRCLE
  8
0
  6
CONTINUOUS
 62
     3
 10
105.0
 20
335.0
 40
3.1
  0
LINE
  8
0
  6
CONTINUOUS
 62
     1
 10
105.0
 20
343.0
 11
105.0
 21
328.0
  0
LINE
  8
0
  6
CONTINUOUS
 62
     1
 10
105.0
 20
268.0
 11
105.0
 21
283.0
  0
CIRCLE
  8
0
  6
CONTINUOUS
 62
     1
 10
105.0
 20
305.0
 40
6.0
  0
LINE
  8
0
  6
CONTINUOUS
 62
     1
 10
125.0
 20
292.0
 11
85.0
 21
292.0
  0
LINE
  8
0
  6
CONTINUOUS
 62
     1
 10
85.0
 20
318.0
 11
125.0
 21
318.0
  0
LINE
  8
0
  6
CONTINUOUS
 62
     1
 10
97.0
 20
305.0
 11
114.0
 21
305.0
  0
LINE
  8
0
  6
CONTINUOUS
 62
     1
 10
105.0
 20
297.5
 11
105.0
 21
312.5
  0
LINE
  8
0
  6
CONTINUOUS
 62
     1
 10
85.0
 20
262.0
 11
42.0
 21
262.0
  0
LINE
  8
0
  6
CONTINUOUS
 62
     1
 10
44.0
 20
262.0
 11
44.51763809
 21
263.931851653
  0
LINE
  8
0
  6
CONTINUOUS
 62
     1
 10
44.0
 20
262.0
 11
43.48236191
 21
263.931851653
  0
LINE
  8
0
  6
CONTINUOUS
 62
     1
 10
44.0
 20
262.0
 11
44.0
 21
348.0
  0
LINE
  8
0
  6
CONTINUOUS
 62
     1
 10
44.0
 20
348.0
 11
43.48236191
 21
346.068148347
  0
LINE
  8
0
  6
CONTINUOUS
 62
     1
 10
44.0
 20
348.0
 11
44.51763809
 21
346.068148347
  0
LINE
  8
0
  6
CONTINUOUS
 62
     1
 10
85.0
 20
348.0
 11
42.0
 21
348.0
  0
TEXT
  8
0
  6
CONTINUOUS
 62
     1
 10
42.0
 20
298.6
 30
0.0
 40
6.0
  1
８６
 50
90.0
 41
0.666666667
 51
0.0
  7
KANJI0
  0
TEXT
  8
0
  6
CONTINUOUS
 62
     1
 10
42.0
 20
306.6
 30
0.0
 40
3.6
  1
±２
 50
90.0
 41
0.666666667
 51
0.0
  7
KANJI1
  0
LINE
  8
0
  6
CONTINUOUS
 62
     1
 10
85.0
 20
348.0
 11
85.0
 21
377.0
  0
LINE
  8
0
  6
CONTINUOUS
 62
     1
 10
85.0
 20
375.0
 11
86.931851653
 21
374.48236191
  0
LINE
  8
0
  6
CONTINUOUS
 62
     1
 10
85.0
 20
375.0
 11
86.931851653
 21
375.51763809
  0
LINE
  8
0
  6
CONTINUOUS
 62
     1
 10
85.0
 20
375.0
 11
125.0
 21
375.0
  0
LINE
  8
0
  6
CONTINUOUS
 62
     1
 10
125.0
 20
375.0
 11
123.068148347
 21
375.51763809
  0
LINE
  8
0
  6
CONTINUOUS
 62
     1
 10
125.0
 20
375.0
 11
123.068148347
 21
374.48236191
  0
LINE
  8
0
  6
CONTINUOUS
 62
     1
 10
125.0
 20
348.0
 11
125.0
 21
377.0
  0
TEXT
  8
0
  6
CONTINUOUS
 62
     1
 10
98.6
 20
377.0
 30
0.0
 40
6.0
  1
４０
 50
0.0
 41
0.666666667
 51
0.0
  7
KANJI0
  0
TEXT
  8
0
  6
CONTINUOUS
 62
     1
 10
106.6
 20
377.0
 30
0.0
 40
3.6
  1
±１
 50
0.0
 41
0.666666667
 51
0.0
  7
KANJI1
  0
LINE
  8
0
  6
CONTINUOUS
 62
     1
 10
110.0
 20
335.0
 11
58.0
 21
335.0
  0
LINE
  8
0
  6
CONTINUOUS
 62
     1
 10
60.0
 20
335.0
 11
59.48236191
 21
333.068148347
  0
LINE
  8
0
  6
CONTINUOUS
 62
     1
 10
60.0
 20
335.0
 11
60.51763809
 21
333.068148347
  0
LINE
  8
0
  6
CONTINUOUS
 62
     1
 10
60.0
 20
335.0
 11
60.0
 21
275.0
  0
LINE
  8
0
  6
CONTINUOUS
 62
     1
 10
60.0
 20
275.0
 11
60.51763809
 21
276.931851653
  0
LINE
  8
0
  6
CONTINUOUS
 62
     1
 10
60.0
 20
275.0
 11
59.48236191
 21
276.931851653
  0
LINE
  8
0
  6
CONTINUOUS
 62
     1
 10
110.0
 20
275.0
 11
58.0
 21
275.0
  0
TEXT
  8
0
  6
CONTINUOUS
 62
     1
 10
58.0
 20
298.6
 30
0.0
 40
6.0
  1
６０
 50
90.0
 41
0.666666667
 51
0.0
  7
KANJI0
  0
TEXT
  8
0
  6
CONTINUOUS
 62
     1
 10
58.0
 20
306.6
 30
0.0
 40
3.6
  1
±１
 50
90.0
 41
0.666666667
 51
0.0
  7
KANJI1
  0
POINT
  8
0
  6
CONTINUOUS
 62
     3
 10
105.0
 20
196.0
  0
LINE
  8
0
  6
CONTINUOUS
 62
     3
 10
119.0
 20
220.0
 11
91.0
 21
220.0
  0
LINE
  8
0
  6
CONTINUOUS
 62
     3
 10
119.0
 20
144.0
 11
91.0
 21
144.0
  0
LINE
  8
0
  6
CONTINUOUS
 62
     3
 10
105.0
 20
196.0
 11
117.0
 21
196.0
  0
ARC
  8
0
  6
CONTINUOUS
 62
     3
 10
117.0
 20
194.0
 40
2.0
 50
0.0
 51
90.0
  0
LINE
  8
0
  6
CONTINUOUS
 62
     3
 10
119.0
 20
194.0
 11
119.0
 21
144.0
  0
LINE
  8
0
  6
CONTINUOUS
 62
     3
 10
105.0
 20
196.0
 11
105.0
 21
163.0
  0
ARC
  8
0
  6
CONTINUOUS
 62
     3
 10
103.0
 20
163.0
 40
2.0
 50
270.0
 51
0.0
  0
LINE
  8
0
  6
CONTINUOUS
 62
     3
 10
91.0
 20
144.0
 11
91.0
 21
159.0
  0
ARC
  8
0
  6
CONTINUOUS
 62
     3
 10
93.0
 20
159.0
 40
2.0
 50
90.0
 51
180.0
  0
LINE
  8
0
  6
CONTINUOUS
 62
     3
 10
93.0
 20
161.0
 11
103.0
 21
161.0
  0
LINE
  8
0
  6
CONTINUOUS
 62
     3
 10
91.0
 20
220.0
 11
119.0
 21
220.0
  0
LINE
  8
0
  6
CONTINUOUS
 62
     3
 10
105.0
 20
196.0
 11
105.0
 21
201.0
  0
ARC
  8
0
  6
CONTINUOUS
 62
     3
 10
107.0
 20
201.0
 40
2.0
 50
90.0
 51
180.0
  0
LINE
  8
0
  6
CONTINUOUS
 62
     3
 10
119.0
 20
220.0
 11
119.0
 21
205.0
  0
ARC
  8
0
  6
CONTINUOUS
 62
     3
 10
117.0
 20
205.0
 40
2.0
 50
270.0
 51
0.0
  0
LINE
  8
0
  6
CONTINUOUS
 62
     3
 10
117.0
 20
203.0
 11
107.0
 21
203.0
  0
LINE
  8
0
  6
CONTINUOUS
 62
     3
 10
105.0
 20
168.0
 11
93.0
 21
168.0
  0
ARC
  8
0
  6
CONTINUOUS
 62
     3
 10
93.0
 20
170.0
 40
2.0
 50
180.0
 51
270.0
  0
LINE
  8
0
  6
CONTINUOUS
 62
     3
 10
91.0
 20
170.0
 11
91.0
 21
220.0
  0
LINE
  8
0
  6
CONTINUOUS
 62
     3
 10
119.0
 20
188.5
 11
122.0
 21
188.5
  0
ARC
  8
0
  6
CONTINUOUS
 62
     3
 10
122.0
 20
187.5
 40
1.0
 50
0.0
 51
90.0
  0
LINE
  8
0
  6
CONTINUOUS
 62
     3
 10
123.0
 20
187.5
 11
123.0
 21
176.5
  0
ARC
  8
0
  6
CONTINUOUS
 62
     3
 10
122.0
 20
176.5
 40
1.0
 50
270.0
 51
0.0
  0
LINE
  8
0
  6
CONTINUOUS
 62
     3
 10
122.0
 20
175.5
 11
119.0
 21
175.5
  0
LINE
  8
0
  6
CONTINUOUS
 62
     3
 10
118.5
 20
220.0
 11
116.0
 21
227.0
  0
LINE
  8
0
  6
CONTINUOUS
 62
     3
 10
116.0
 20
227.0
 11
94.0
 21
227.0
  0
LINE
  8
0
  6
CONTINUOUS
 62
     3
 10
94.0
 20
227.0
 11
91.5
 21
220.0
  0
LINE
  8
0
  6
CONTINUOUS
 62
     3
 10
112.0
 20
227.0
 11
112.0
 21
230.0
  0
LINE
  8
0
  6
CONTINUOUS
 62
     3
 10
112.0
 20
230.0
 11
98.0
 21
230.0
  0
LINE
  8
0
  6
CONTINUOUS
 62
     3
 10
98.0
 20
230.0
 11
98.0
 21
227.0
  0
LINE
  8
0
  6
CONTINUOUS
 62
     3
 10
112.0
 20
230.0
 11
125.0
 21
230.0
  0
LINE
  8
0
  6
CONTINUOUS
 62
     3
 10
85.0
 20
230.0
 11
98.0
 21
230.0
  0
LINE
  8
0
  6
CONTINUOUS
 62
     3
 10
91.5
 20
144.0
 11
94.0
 21
137.0
  0
LINE
  8
0
  6
CONTINUOUS
 62
     3
 10
94.0
 20
137.0
 11
116.0
 21
137.0
  0
LINE
  8
0
  6
CONTINUOUS
 62
     3
 10
116.0
 20
137.0
 11
118.5
 21
144.0
  0
LINE
  8
0
  6
CONTINUOUS
 62
     3
 10
115.0
 20
137.0
 11
115.0
 21
134.0
  0
LINE
  8
0
  6
CONTINUOUS
 62
     3
 10
95.0
 20
134.0
 11
95.0
 21
137.0
  0
LINE
  8
0
  6
CONTINUOUS
 62
     3
 10
125.0
 20
230.0
 11
125.0
 21
237.0
  0
LINE
  8
0
  6
CONTINUOUS
 62
     3
 10
125.0
 20
237.0
 11
85.0
 21
237.0
  0
LINE
  8
0
  6
CONTINUOUS
 62
     3
 10
85.0
 20
237.0
 11
85.0
 21
230.0
  0
LINE
  8
0
  6
CONTINUOUS
 62
     3
 10
85.0
 20
235.0
 11
125.0
 21
235.0
  0
LINE
  8
0
  6
CONTINUOUS
 62
     3
 10
113.5
 20
127.0
 11
96.5
 21
127.0
  0
LINE
  8
0
  6
CONTINUOUS
 62
     3
 10
96.5
 20
122.0
 11
113.5
 21
122.0
  0
LINE
  8
0
  6
CONTINUOUS
 62
     3
 10
115.0
 20
134.5
 11
115.0
 21
127.5
  0
POINT
  8
0
  6
CONTINUOUS
 62
     3
 10
95.0
 20
127.5
  0
LINE
  8
0
  6
CONTINUOUS
 62
     3
 10
95.0
 20
127.5
 11
95.0
 21
134.5
  0
POINT
  8
0
  6
CONTINUOUS
 62
     3
 10
119.0
 20
152.0
  0
LINE
  8
0
  6
CONTINUOUS
 62
     3
 10
119.0
 20
152.0
 11
120.0
 21
151.0
  0
LINE
  8
0
  6
CONTINUOUS
 62
     3
 10
120.0
 20
151.0
 11
120.0
 21
147.0
  0
LINE
  8
0
  6
CONTINUOUS
 62
     3
 10
120.0
 20
147.0
 11
119.0
 21
146.0
  0
LINE
  8
0
  6
CONTINUOUS
 62
     3
 10
91.0
 20
218.0
 11
90.0
 21
217.0
  0
LINE
  8
0
  6
CONTINUOUS
 62
     3
 10
90.0
 20
217.0
 11
90.0
 21
213.0
  0
LINE
  8
0
  6
CONTINUOUS
 62
     3
 10
90.0
 20
213.0
 11
91.0
 21
212.0
  0
CIRCLE
  8
0
  6
CONTINUOUS
 62
     3
 10
105.0
 20
215.0
 40
3.0
  0
CIRCLE
  8
0
  6
CONTINUOUS
 62
     3
 10
105.0
 20
149.0
 40
3.0
  0
LINE
  8
0
  6
CONTINUOUS
 62
     3
 10
91.0
 20
185.0
 11
83.5
 21
185.0
  0
LINE
  8
0
  6
CONTINUOUS
 62
     3
 10
83.5
 20
185.0
 11
83.0
 21
184.5
  0
LINE
  8
0
  6
CONTINUOUS
 62
     3
 10
83.0
 20
184.5
 11
83.0
 21
179.5
  0
LINE
  8
0
  6
CONTINUOUS
 62
     3
 10
83.0
 20
179.5
 11
83.5
 21
179.0
  0
LINE
  8
0
  6
CONTINUOUS
 62
     3
 10
83.5
 20
179.0
 11
91.0
 21
179.0
  0
CIRCLE
  8
0
  6
CONTINUOUS
 62
     1
 10
105.0
 20
149.0
 40
2.6
  0
CIRCLE
  8
0
  6
CONTINUOUS
 62
     1
 10
105.0
 20
215.0
 40
2.6
  0
LINE
  8
0
  6
CONTINUOUS
 62
     1
 10
105.9
 20
213.5
 11
106.7
 21
215.0
  0
LINE
  8
0
  6
CONTINUOUS
 62
     1
 10
106.7
 20
215.0
 11
105.9
 21
216.5
  0
LINE
  8
0
  6
CONTINUOUS
 62
     1
 10
105.9
 20
216.5
 11
104.1
 21
216.5
  0
LINE
  8
0
  6
CONTINUOUS
 62
     1
 10
104.1
 20
216.5
 11
103.3
 21
215.0
  0
LINE
  8
0
  6
CONTINUOUS
 62
     1
 10
103.3
 20
215.0
 11
104.1
 21
213.5
  0
LINE
  8
0
  6
CONTINUOUS
 62
     1
 10
104.1
 20
213.5
 11
105.9
 21
213.5
  0
LINE
  8
0
  6
CONTINUOUS
 62
     1
 10
105.9
 20
147.5
 11
106.7
 21
149.0
  0
LINE
  8
0
  6
CONTINUOUS
 62
     1
 10
106.7
 20
149.0
 11
105.9
 21
150.5
  0
LINE
  8
0
  6
CONTINUOUS
 62
     1
 10
105.9
 20
150.5
 11
104.1
 21
150.5
  0
LINE
  8
0
  6
CONTINUOUS
 62
     1
 10
104.1
 20
150.5
 11
103.3
 21
149.0
  0
LINE
  8
0
  6
CONTINUOUS
 62
     1
 10
103.3
 20
149.0
 11
104.1
 21
147.5
  0
LINE
  8
0
  6
CONTINUOUS
 62
     1
 10
104.1
 20
147.5
 11
105.9
 21
147.5
  0
LINE
  8
0
  6
LTYPE1
 62
     1
 10
127.0
 20
182.0
 11
79.0
 21
182.0
  0
LINE
  8
0
  6
CONTINUOUS
 62
     1
 10
87.0
 20
179.0
 11
87.0
 21
171.0
  0
LINE
  8
0
  6
CONTINUOUS
 62
     1
 10
87.0
 20
171.0
 11
86.0
 21
171.0
  0
LINE
  8
0
  6
CONTINUOUS
 62
     1
 10
86.0
 20
171.0
 11
86.0
 21
179.0
  0
LINE
  8
0
  6
CONTINUOUS
 62
     1
 10
86.0
 20
185.0
 11
86.0
 21
192.6
  0
ARC
  8
0
  6
CONTINUOUS
 62
     1
 10
86.4
 20
192.6
 40
0.4
 50
90.0
 51
180.0
  0
LINE
  8
0
  6
CONTINUOUS
 62
     1
 10
87.0
 20
192.6
 11
87.0
 21
185.0
  0
LINE
  8
0
  6
CONTINUOUS
 62
     1
 10
86.4
 20
193.0
 11
86.6
 21
193.0
  0
ARC
  8
0
  6
CONTINUOUS
 62
     1
 10
86.6
 20
192.6
 40
0.4
 50
0.0
 51
90.0
  0
LINE
  8
0
  6
CONTINUOUS
 62
     1
 10
96.5
 20
122.5
 11
93.0
 21
122.5
  0
LINE
  8
0
  6
CONTINUOUS
 62
     1
 10
93.0
 20
122.5
 11
93.0
 21
126.5
  0
LINE
  8
0
  6
CONTINUOUS
 62
     1
 10
93.0
 20
126.5
 11
96.5
 21
126.5
  0
LINE
  8
0
  6
CONTINUOUS
 62
     1
 10
96.3
 20
122.5
 11
99.0
 21
122.5
  0
LINE
  8
0
  6
CONTINUOUS
 62
     1
 10
99.0
 20
122.5
 11
99.0
 21
126.5
  0
LINE
  8
0
  6
CONTINUOUS
 62
     1
 10
99.0
 20
126.5
 11
96.1
 21
126.5
  0
LINE
  8
0
  6
CONTINUOUS
 62
     1
 10
96.5
 20
126.5
 11
96.5
 21
122.5
  0
LINE
  8
0
  6
CONTINUOUS
 62
     1
 10
115.0
 20
121.5
 11
95.0
 21
121.5
  0
LINE
  8
0
  6
CONTINUOUS
 62
     1
 10
113.5
 20
126.5
 11
111.0
 21
126.5
  0
LINE
  8
0
  6
CONTINUOUS
 62
     1
 10
111.0
 20
126.5
 11
111.0
 21
122.5
  0
LINE
  8
0
  6
CONTINUOUS
 62
     1
 10
111.0
 20
122.5
 11
117.0
 21
122.5
  0
LINE
  8
0
  6
CONTINUOUS
 62
     1
 10
117.0
 20
122.5
 11
117.0
 21
126.5
  0
LINE
  8
0
  6
CONTINUOUS
 62
     1
 10
117.0
 20
126.5
 11
113.5
 21
126.5
  0
LINE
  8
0
  6
CONTINUOUS
 62
     1
 10
115.0
 20
127.5
 11
95.0
 21
127.5
  0
ARC
  8
0
  6
CONTINUOUS
 62
     1
 10
105.0
 20
156.0
 40
12.0
 50
180.0
 51
270.0
  0
LINE
  8
0
  6
CONTINUOUS
 62
     1
 10
93.0
 20
161.0
 11
93.0
 21
156.0
  0
ARC
  8
0
  6
CONTINUOUS
 62
     1
 10
105.0
 20
156.0
 40
12.0
 50
270.0
 51
0.0
  0
LINE
  8
0
  6
CONTINUOUS
 62
     1
 10
117.0
 20
156.0
 11
117.0
 21
196.0
  0
LINE
  8
0
  6
CONTINUOUS
 62
     1
 10
93.0
 20
208.0
 11
93.0
 21
168.0
  0
LINE
  8
0
  6
CONTINUOUS
 62
     1
 10
117.0
 20
203.0
 11
117.0
 21
208.0
  0
ARC
  8
0
  6
CONTINUOUS
 62
     1
 10
105.0
 20
208.0
 40
12.0
 50
0.0
 51
180.0
  0
LINE
  8
0
  6
CONTINUOUS
 62
     3
 10
96.5
 20
126.5
 11
96.5
 21
127.0
  0
LINE
  8
0
  6
CONTINUOUS
 62
     3
 10
96.5
 20
122.5
 11
96.5
 21
122.0
  0
LINE
  8
0
  6
CONTINUOUS
 62
     3
 10
95.0
 20
127.5
 11
96.5
 21
127.0
  0
LINE
  8
0
  6
CONTINUOUS
 62
     3
 10
96.5
 20
122.0
 11
95.0
 21
121.5
  0
LINE
  8
0
  6
CONTINUOUS
 62
     3
 10
115.0
 20
127.5
 11
113.5
 21
127.0
  0
LINE
  8
0
  6
CONTINUOUS
 62
     3
 10
113.5
 20
122.0
 11
115.0
 21
121.5
  0
LINE
  8
0
  6
CONTINUOUS
 62
     1
 10
113.5
 20
122.5
 11
113.5
 21
126.5
  0
LINE
  8
0
  6
CONTINUOUS
 62
     3
 10
113.5
 20
126.5
 11
113.5
 21
127.0
  0
LINE
  8
0
  6
CONTINUOUS
 62
     3
 10
113.5
 20
122.0
 11
113.5
 21
122.5
  0
LINE
  8
0
  6
CONTINUOUS
 62
     3
 10
145.0
 20
27.0
 11
65.0
 21
27.0
  0
LINE
  8
0
  6
CONTINUOUS
 62
     3
 10
65.0
 20
27.0
 11
65.0
 21
29.6
  0
LINE
  8
0
  6
CONTINUOUS
 62
     3
 10
65.0
 20
29.6
 11
145.0
 21
29.6
  0
LINE
  8
0
  6
CONTINUOUS
 62
     3
 10
145.0
 20
29.6
 11
145.0
 21
27.0
  0
LINE
  8
0
  6
CONTINUOUS
 62
     3
 10
81.0
 20
29.6
 11
85.3
 21
35.9
  0
ARC
  8
0
  6
CONTINUOUS
 62
     3
 10
87.3
 20
34.5
 40
2.5
 50
90.0
 51
145.8
  0
LINE
  8
0
  6
CONTINUOUS
 62
     3
 10
87.3
 20
37.0
 11
122.7
 21
37.0
  0
ARC
  8
0
  6
CONTINUOUS
 62
     3
 10
122.7
 20
34.5
 40
2.5
 50
34.0
 51
90.0
  0
LINE
  8
0
  6
CONTINUOUS
 62
     3
 10
124.7
 20
35.9
 11
129.0
 21
29.6
  0
LINE
  8
0
  6
CONTINUOUS
 62
     3
 10
96.5
 20
47.0
 11
113.5
 21
47.0
  0
LINE
  8
0
  6
CONTINUOUS
 62
     3
 10
113.5
 20
52.0
 11
96.5
 21
52.0
  0
LINE
  8
0
  6
CONTINUOUS
 62
     1
 10
111.0
 20
47.5
 11
117.0
 21
47.5
  0
LINE
  8
0
  6
CONTINUOUS
 62
     1
 10
117.0
 20
47.5
 11
117.0
 21
51.5
  0
LINE
  8
0
  6
CONTINUOUS
 62
     1
 10
117.0
 20
51.5
 11
111.0
 21
51.5
  0
LINE
  8
0
  6
CONTINUOUS
 62
     1
 10
111.0
 20
51.5
 11
111.0
 21
47.5
  0
LINE
  8
0
  6
CONTINUOUS
 62
     1
 10
99.0
 20
47.5
 11
99.0
 21
51.5
  0
LINE
  8
0
  6
CONTINUOUS
 62
     1
 10
99.0
 20
51.5
 11
93.0
 21
51.5
  0
LINE
  8
0
  6
CONTINUOUS
 62
     1
 10
93.0
 20
51.5
 11
93.0
 21
47.5
  0
LINE
  8
0
  6
CONTINUOUS
 62
     1
 10
93.0
 20
47.5
 11
99.0
 21
47.5
  0
LINE
  8
0
  6
CONTINUOUS
 62
     1
 10
95.0
 20
52.5
 11
115.0
 21
52.5
  0
LINE
  8
0
  6
CONTINUOUS
 62
     3
 10
115.0
 20
37.0
 11
115.0
 21
46.5
  0
LINE
  8
0
  6
CONTINUOUS
 62
     1
 10
115.0
 20
46.5
 11
95.0
 21
46.5
  0
LINE
  8
0
  6
CONTINUOUS
 62
     3
 10
95.0
 20
46.5
 11
95.0
 21
37.1
  0
LINE
  8
0
  6
CONTINUOUS
 62
     3
 10
115.0
 20
46.5
 11
113.5
 21
47.0
  0
LINE
  8
0
  6
CONTINUOUS
 62
     3
 10
113.5
 20
52.0
 11
115.0
 21
52.5
  0
LINE
  8
0
  6
CONTINUOUS
 62
     1
 10
113.5
 20
47.5
 11
113.5
 21
51.5
  0
LINE
  8
0
  6
CONTINUOUS
 62
     3
 10
113.5
 20
47.0
 11
113.5
 21
47.5
  0
LINE
  8
0
  6
CONTINUOUS
 62
     3
 10
113.5
 20
51.5
 11
113.5
 21
52.0
  0
LINE
  8
0
  6
CONTINUOUS
 62
     3
 10
96.5
 20
52.0
 11
95.0
 21
52.5
  0
LINE
  8
0
  6
CONTINUOUS
 62
     3
 10
95.0
 20
46.5
 11
96.5
 21
47.0
  0
LINE
  8
0
  6
CONTINUOUS
 62
     1
 10
96.5
 20
51.5
 11
96.5
 21
47.5
  0
LINE
  8
0
  6
CONTINUOUS
 62
     3
 10
96.5
 20
47.0
 11
96.5
 21
47.5
  0
LINE
  8
0
  6
CONTINUOUS
 62
     3
 10
96.5
 20
51.5
 11
96.5
 21
52.0
  0
LINE
  8
0
  6
CONTINUOUS
 62
     3
 10
115.0
 20
121.5
 11
115.0
 21
52.5
  0
LINE
  8
0
  6
CONTINUOUS
 62
     3
 10
95.0
 20
52.5
 11
95.0
 21
121.5
  0
LINE
  8
0
  6
CONTINUOUS
 62
     1
 10
80.0
 20
237.0
 11
42.0
 21
237.0
  0
LINE
  8
0
  6
CONTINUOUS
 62
     1
 10
44.0
 20
237.0
 11
43.48236191
 21
235.068148347
  0
LINE
  8
0
  6
CONTINUOUS
 62
     1
 10
44.0
 20
237.0
 11
44.51763809
 21
235.068148347
  0
LINE
  8
0
  6
CONTINUOUS
 62
     1
 10
44.0
 20
237.0
 11
44.0
 21
27.0
  0
LINE
  8
0
  6
CONTINUOUS
 62
     1
 10
44.0
 20
27.0
 11
44.51763809
 21
28.931851653
  0
LINE
  8
0
  6
CONTINUOUS
 62
     1
 10
44.0
 20
27.0
 11
43.48236191
 21
28.931851653
  0
LINE
  8
0
  6
CONTINUOUS
 62
     1
 10
60.0
 20
27.0
 11
42.0
 21
27.0
  0
TEXT
  8
0
  6
CONTINUOUS
 62
     1
 10
42.0
 20
123.6
 30
0.0
 40
6.0
  1
２１０
 50
90.0
 41
0.666666667
 51
0.0
  7
KANJI0
  0
TEXT
  8
0
  6
CONTINUOUS
 62
     1
 10
42.0
 20
135.6
 30
0.0
 40
3.6
  1
±５
 50
90.0
 41
0.666666667
 51
0.0
  7
KANJI1
  0
LINE
  8
0
  6
CONTINUOUS
 62
     1
 10
123.0
 20
177.0
 11
124.0
 21
175.267949192
  0
LINE
  8
0
  6
CONTINUOUS
 62
     1
 10
123.0
 20
177.0
 11
124.732050808
 21
176.0
  0
LINE
  8
0
  6
CONTINUOUS
 62
     1
 10
123.0
 20
177.0
 11
143.0
 21
157.0
  0
LINE
  8
0
  6
CONTINUOUS
 62
     1
 10
143.0
 20
157.0
 11
196.4
 21
157.0
  0
TEXT
  8
0
  6
CONTINUOUS
 62
     1
 10
143.0
 20
159.0
 30
0.6
 40
6.0
  1
Ｍ８六角穴付ボルト
 50
0.0
 41
0.9
 51
0.0
  7
KANJI2
  0
LINE
  8
0
  6
CONTINUOUS
 62
     1
 10
148.0
 20
29.6
 11
167.0
 21
29.6
  0
LINE
  8
0
  6
CONTINUOUS
 62
     1
 10
165.0
 20
29.6
 11
165.51763809
 21
31.531851653
  0
LINE
  8
0
  6
CONTINUOUS
 62
     1
 10
165.0
 20
29.6
 11
164.48236191
 21
31.531851653
  0
LINE
  8
0
  6
CONTINUOUS
 62
     1
 10
165.0
 20
45.6
 11
165.0
 21
23.0
  0
LINE
  8
0
  6
CONTINUOUS
 62
     1
 10
165.0
 20
27.0
 11
164.48236191
 21
25.068148347
  0
LINE
  8
0
  6
CONTINUOUS
 62
     1
 10
165.0
 20
27.0
 11
165.51763809
 21
25.068148347
  0
LINE
  8
0
  6
CONTINUOUS
 62
     1
 10
148.0
 20
27.0
 11
167.0
 21
27.0
  0
TEXT
  8
0
  6
CONTINUOUS
 62
     1
 10
163.0
 20
33.6
 30
0.0
 40
6.0
  1
２．６
 50
90.0
 41
0.666666667
 51
0.0
  7
KANJI0
  0
LINE
  8
0
  6
CONTINUOUS
 62
     1
 10
128.0
 20
237.0
 11
147.0
 21
237.0
  0
LINE
  8
0
  6
CONTINUOUS
 62
     1
 10
145.0
 20
237.0
 11
145.51763809
 21
238.931851653
  0
LINE
  8
0
  6
CONTINUOUS
 62
     1
 10
145.0
 20
237.0
 11
144.48236191
 21
238.931851653
  0
LINE
  8
0
  6
CONTINUOUS
 62
     1
 10
145.0
 20
241.0
 11
145.0
 21
227.0
  0
LINE
  8
0
  6
CONTINUOUS
 62
     1
 10
145.0
 20
235.0
 11
144.48236191
 21
233.068148347
  0
LINE
  8
0
  6
CONTINUOUS
 62
     1
 10
145.0
 20
235.0
 11
145.51763809
 21
233.068148347
  0
LINE
  8
0
  6
CONTINUOUS
 62
     1
 10
128.0
 20
235.0
 11
147.0
 21
235.0
  0
TEXT
  8
0
  6
CONTINUOUS
 62
     1
 10
143.0
 20
227.0
 30
0.0
 40
6.0
  1
２
 50
90.0
 41
0.666666667
 51
0.0
  7
KANJI0
  0
LINE
  8
0
  6
CONTINUOUS
 62
     1
 10
153.0
 20
309.0
 11
157.0
 21
301.0
  0
LINE
  8
0
  6
CONTINUOUS
 62
     1
 10
153.0
 20
301.0
 11
157.0
 21
309.0
  0
TEXT
  8
0
  6
CONTINUOUS
 62
     1
 10
152.0
 20
296.0
 30
0.56
 40
5.6
  1
３６０゜
 50
90.0
 41
0.9
 51
0.0
  7
KANJI4
  0
ARC
  8
0
  6
CONTINUOUS
 62
     1
 10
148.01643606
 20
341.638056717
 40
3.401377492
 50
98.733076416
 51
174.650306316
  0
ARC
  8
0
  6
CONTINUOUS
 62
     1
 10
177.206187956
 20
328.136979257
 40
35.385857654
 50
157.014342246
 51
171.635975729
  0
ARC
  8
0
  6
CONTINUOUS
 62
     1
 10
256.939510375
 20
312.318581217
 40
116.642500352
 50
169.645200822
 51
176.072781292
  0
ARC
  8
0
  6
CONTINUOUS
 62
     1
 10
336.057014125
 20
305.352158974
 40
196.0573304
 50
175.625250323
 51
180.102914967
  0
ARC
  8
0
  6
CONTINUOUS
 62
     1
 10
343.59568583
 20
304.929003845
 40
203.595698209
 50
179.980020304
 51
184.291814405
  0
ARC
  8
0
  6
CONTINUOUS
 62
     1
 10
272.373727725
 20
299.615071469
 40
132.175786995
 50
184.305232365
 51
189.976785521
  0
ARC
  8
0
  6
CONTINUOUS
 62
     1
 10
187.544109161
 20
284.763981827
 40
46.056074225
 50
190.064051996
 51
201.285630029
  0
ARC
  8
0
  6
CONTINUOUS
 62
     1
 10
149.621130363
 20
269.874570104
 40
5.316072583
 50
200.132500331
 51
246.484116936
  0
ARC
  8
0
  6
CONTINUOUS
 62
     1
 10
146.98356394
 20
268.361943283
 40
3.401377492
 50
278.733076417
 51
354.650306316
  0
ARC
  8
0
  6
CONTINUOUS
 62
     1
 10
117.793812044
 20
281.863020743
 40
35.385857654
 50
337.014342246
 51
351.635975729
  0
ARC
  8
0
  6
CONTINUOUS
 62
     1
 10
38.060489625
 20
297.681418783
 40
116.642500352
 50
349.645200822
 51
356.072781292
  0
ARC
  8
0
  6
CONTINUOUS
 62
     1
 10
-41.057014125
 20
304.647841026
 40
196.0573304
 50
355.625250323
 51
0.102914967
  0
ARC
  8
0
  6
CONTINUOUS
 62
     1
 10
-48.59568583
 20
305.070996155
 40
203.595698209
 50
359.980020304
 51
4.291814405
  0
ARC
  8
0
  6
CONTINUOUS
 62
     1
 10
22.626272275
 20
310.384928531
 40
132.175786996
 50
4.305232365
 51
9.976785521
  0
ARC
  8
0
  6
CONTINUOUS
 62
     1
 10
107.455890839
 20
325.236018173
 40
46.056074225
 50
10.064051996
 51
21.285630029
  0
ARC
  8
0
  6
CONTINUOUS
 62
     1
 10
145.378869637
 20
340.125429896
 40
5.316072583
 50
20.132500331
 51
66.484116936
  0
LINE
  8
0
  6
CONTINUOUS
 62
     1
 10
108.0
 20
338.0
 11
109.732050808
 21
339.0
  0
LINE
  8
0
  6
CONTINUOUS
 62
     1
 10
108.0
 20
338.0
 11
109.0
 21
339.732050808
  0
LINE
  8
0
  6
CONTINUOUS
 62
     1
 10
108.0
 20
338.0
 11
138.0
 21
368.0
  0
LINE
  8
0
  6
CONTINUOUS
 62
     1
 10
138.0
 20
368.0
 11
171.04
 21
368.0
  0
TEXT
  8
0
  6
CONTINUOUS
 62
     1
 10
138.0
 20
370.0
 30
0.56
 40
5.6
  1
２－φ６，３
 50
0.0
 41
0.9
 51
0.0
  7
KANJI4
  0
TEXT
  8
0
  6
CONTINUOUS
 62
     1
 10
450.0
 20
18.0
 30
0.6
 40
6.0
  1
用紙　Ａ４　　尺度　　１／２
 50
0.0
 41
0.9
 51
0.0
  7
KANJI2
  0
ENDSEC
  0
EOF
