  0
SECTION
  2
HEADER
  9
$EXTMIN
 10
0.0
 20
0.0
 30
0.0
  9
$EXTMAX
 10
594.0
 20
420.0
 30
0.0
  9
$LIMMIN
 10
0.0
 20
0.0
  9
$LIMMAX
 10
594.0
 20
420.0
  9
$LTSCALE
 40
1.0
  9
$PDMODE
 70
     0
  0
ENDSEC
  0
SECTION
  2
TABLES
  0
TABLE
  2
LTYPE
 70
     2
  0
LTYPE
  2
CONTINUOUS
 70
    64
  3
Solid line
 72
    65
 73
     0
 40
0.0
  0
LTYPE
  2
LTYPE1
 70
    64
  3
CENTER
 72
    65
 73
     4
 40
20.0
 49
14.0
 49
-2.0
 49
2.0
 49
-2.0
  0
ENDTAB
  0
TABLE
  2
LAYER
 70
   128
  0
LAYER
  2
0
 70
     0
 62
     7
  6
CONTINUOUS
  0
LAYER
  2
1
 70
     0
 62
     7
  6
CONTINUOUS
  0
LAYER
  2
2
 70
     0
 62
     7
  6
CONTINUOUS
  0
LAYER
  2
3
 70
     0
 62
     7
  6
CONTINUOUS
  0
LAYER
  2
4
 70
     0
 62
     7
  6
CONTINUOUS
  0
LAYER
  2
5
 70
     0
 62
     7
  6
CONTINUOUS
  0
LAYER
  2
6
 70
     0
 62
     7
  6
CONTINUOUS
  0
LAYER
  2
7
 70
     0
 62
     7
  6
CONTINUOUS
  0
LAYER
  2
8
 70
     0
 62
     7
  6
CONTINUOUS
  0
LAYER
  2
9
 70
     0
 62
     7
  6
CONTINUOUS
  0
LAYER
  2
10
 70
     0
 62
     7
  6
CONTINUOUS
  0
LAYER
  2
11
 70
     0
 62
     7
  6
CONTINUOUS
  0
LAYER
  2
12
 70
     0
 62
     7
  6
CONTINUOUS
  0
LAYER
  2
13
 70
     0
 62
     7
  6
CONTINUOUS
  0
LAYER
  2
14
 70
     0
 62
     7
  6
CONTINUOUS
  0
LAYER
  2
15
 70
     0
 62
     7
  6
CONTINUOUS
  0
LAYER
  2
16
 70
     0
 62
     7
  6
CONTINUOUS
  0
LAYER
  2
17
 70
     0
 62
     7
  6
CONTINUOUS
  0
LAYER
  2
18
 70
     0
 62
     7
  6
CONTINUOUS
  0
LAYER
  2
19
 70
     0
 62
     7
  6
CONTINUOUS
  0
LAYER
  2
20
 70
     0
 62
     7
  6
CONTINUOUS
  0
LAYER
  2
21
 70
     0
 62
     7
  6
CONTINUOUS
  0
LAYER
  2
22
 70
     0
 62
     7
  6
CONTINUOUS
  0
LAYER
  2
23
 70
     0
 62
     7
  6
CONTINUOUS
  0
LAYER
  2
24
 70
     0
 62
     7
  6
CONTINUOUS
  0
LAYER
  2
25
 70
     0
 62
     7
  6
CONTINUOUS
  0
LAYER
  2
26
 70
     0
 62
     7
  6
CONTINUOUS
  0
LAYER
  2
27
 70
     0
 62
     7
  6
CONTINUOUS
  0
LAYER
  2
28
 70
     0
 62
     7
  6
CONTINUOUS
  0
LAYER
  2
29
 70
     0
 62
     7
  6
CONTINUOUS
  0
LAYER
  2
30
 70
     0
 62
     7
  6
CONTINUOUS
  0
LAYER
  2
31
 70
     0
 62
     7
  6
CONTINUOUS
  0
LAYER
  2
32
 70
     0
 62
     7
  6
CONTINUOUS
  0
LAYER
  2
33
 70
     0
 62
     7
  6
CONTINUOUS
  0
LAYER
  2
34
 70
     0
 62
     7
  6
CONTINUOUS
  0
LAYER
  2
35
 70
     0
 62
     7
  6
CONTINUOUS
  0
LAYER
  2
36
 70
     0
 62
     7
  6
CONTINUOUS
  0
LAYER
  2
37
 70
     0
 62
     7
  6
CONTINUOUS
  0
LAYER
  2
38
 70
     0
 62
     7
  6
CONTINUOUS
  0
LAYER
  2
39
 70
     0
 62
     7
  6
CONTINUOUS
  0
LAYER
  2
40
 70
     0
 62
     7
  6
CONTINUOUS
  0
LAYER
  2
41
 70
     0
 62
     7
  6
CONTINUOUS
  0
LAYER
  2
42
 70
     0
 62
     7
  6
CONTINUOUS
  0
LAYER
  2
43
 70
     0
 62
     7
  6
CONTINUOUS
  0
LAYER
  2
44
 70
     0
 62
     7
  6
CONTINUOUS
  0
LAYER
  2
45
 70
     0
 62
     7
  6
CONTINUOUS
  0
LAYER
  2
46
 70
     0
 62
     7
  6
CONTINUOUS
  0
LAYER
  2
47
 70
     0
 62
     7
  6
CONTINUOUS
  0
LAYER
  2
48
 70
     0
 62
     7
  6
CONTINUOUS
  0
LAYER
  2
49
 70
     0
 62
     7
  6
CONTINUOUS
  0
LAYER
  2
50
 70
     0
 62
     7
  6
CONTINUOUS
  0
LAYER
  2
51
 70
     0
 62
     7
  6
CONTINUOUS
  0
LAYER
  2
52
 70
     0
 62
     7
  6
CONTINUOUS
  0
LAYER
  2
53
 70
     0
 62
     7
  6
CONTINUOUS
  0
LAYER
  2
54
 70
     0
 62
     7
  6
CONTINUOUS
  0
LAYER
  2
55
 70
     0
 62
     7
  6
CONTINUOUS
  0
LAYER
  2
56
 70
     0
 62
     7
  6
CONTINUOUS
  0
LAYER
  2
57
 70
     0
 62
     7
  6
CONTINUOUS
  0
LAYER
  2
58
 70
     0
 62
     7
  6
CONTINUOUS
  0
LAYER
  2
59
 70
     0
 62
     7
  6
CONTINUOUS
  0
LAYER
  2
60
 70
     0
 62
     7
  6
CONTINUOUS
  0
LAYER
  2
61
 70
     0
 62
     7
  6
CONTINUOUS
  0
LAYER
  2
62
 70
     0
 62
     7
  6
CONTINUOUS
  0
LAYER
  2
63
 70
     0
 62
     7
  6
CONTINUOUS
  0
LAYER
  2
64
 70
     0
 62
     7
  6
CONTINUOUS
  0
LAYER
  2
65
 70
     0
 62
     7
  6
CONTINUOUS
  0
LAYER
  2
66
 70
     0
 62
     7
  6
CONTINUOUS
  0
LAYER
  2
67
 70
     0
 62
     7
  6
CONTINUOUS
  0
LAYER
  2
68
 70
     0
 62
     7
  6
CONTINUOUS
  0
LAYER
  2
69
 70
     0
 62
     7
  6
CONTINUOUS
  0
LAYER
  2
70
 70
     0
 62
     7
  6
CONTINUOUS
  0
LAYER
  2
71
 70
     0
 62
     7
  6
CONTINUOUS
  0
LAYER
  2
72
 70
     0
 62
     7
  6
CONTINUOUS
  0
LAYER
  2
73
 70
     0
 62
     7
  6
CONTINUOUS
  0
LAYER
  2
74
 70
     0
 62
     7
  6
CONTINUOUS
  0
LAYER
  2
75
 70
     0
 62
     7
  6
CONTINUOUS
  0
LAYER
  2
76
 70
     0
 62
     7
  6
CONTINUOUS
  0
LAYER
  2
77
 70
     0
 62
     7
  6
CONTINUOUS
  0
LAYER
  2
78
 70
     0
 62
     7
  6
CONTINUOUS
  0
LAYER
  2
79
 70
     0
 62
     7
  6
CONTINUOUS
  0
LAYER
  2
80
 70
     0
 62
     7
  6
CONTINUOUS
  0
LAYER
  2
81
 70
     0
 62
     7
  6
CONTINUOUS
  0
LAYER
  2
82
 70
     0
 62
     7
  6
CONTINUOUS
  0
LAYER
  2
83
 70
     0
 62
     7
  6
CONTINUOUS
  0
LAYER
  2
84
 70
     0
 62
     7
  6
CONTINUOUS
  0
LAYER
  2
85
 70
     0
 62
     7
  6
CONTINUOUS
  0
LAYER
  2
86
 70
     0
 62
     7
  6
CONTINUOUS
  0
LAYER
  2
87
 70
     0
 62
     7
  6
CONTINUOUS
  0
LAYER
  2
88
 70
     0
 62
     7
  6
CONTINUOUS
  0
LAYER
  2
89
 70
     0
 62
     7
  6
CONTINUOUS
  0
LAYER
  2
90
 70
     0
 62
     7
  6
CONTINUOUS
  0
LAYER
  2
91
 70
     0
 62
     7
  6
CONTINUOUS
  0
LAYER
  2
92
 70
     0
 62
     7
  6
CONTINUOUS
  0
LAYER
  2
93
 70
     0
 62
     7
  6
CONTINUOUS
  0
LAYER
  2
94
 70
     0
 62
     7
  6
CONTINUOUS
  0
LAYER
  2
95
 70
     0
 62
     7
  6
CONTINUOUS
  0
LAYER
  2
96
 70
     0
 62
     7
  6
CONTINUOUS
  0
LAYER
  2
97
 70
     0
 62
     7
  6
CONTINUOUS
  0
LAYER
  2
98
 70
     0
 62
     7
  6
CONTINUOUS
  0
LAYER
  2
99
 70
     0
 62
     7
  6
CONTINUOUS
  0
LAYER
  2
100
 70
     0
 62
     7
  6
CONTINUOUS
  0
LAYER
  2
101
 70
     0
 62
     7
  6
CONTINUOUS
  0
LAYER
  2
102
 70
     0
 62
     7
  6
CONTINUOUS
  0
LAYER
  2
103
 70
     0
 62
     7
  6
CONTINUOUS
  0
LAYER
  2
104
 70
     0
 62
     7
  6
CONTINUOUS
  0
LAYER
  2
105
 70
     0
 62
     7
  6
CONTINUOUS
  0
LAYER
  2
106
 70
     0
 62
     7
  6
CONTINUOUS
  0
LAYER
  2
107
 70
     0
 62
     7
  6
CONTINUOUS
  0
LAYER
  2
108
 70
     0
 62
     7
  6
CONTINUOUS
  0
LAYER
  2
109
 70
     0
 62
     7
  6
CONTINUOUS
  0
LAYER
  2
110
 70
     0
 62
     7
  6
CONTINUOUS
  0
LAYER
  2
111
 70
     0
 62
     7
  6
CONTINUOUS
  0
LAYER
  2
112
 70
     0
 62
     7
  6
CONTINUOUS
  0
LAYER
  2
113
 70
     0
 62
     7
  6
CONTINUOUS
  0
LAYER
  2
114
 70
     0
 62
     7
  6
CONTINUOUS
  0
LAYER
  2
115
 70
     0
 62
     7
  6
CONTINUOUS
  0
LAYER
  2
116
 70
     0
 62
     7
  6
CONTINUOUS
  0
LAYER
  2
117
 70
     0
 62
     7
  6
CONTINUOUS
  0
LAYER
  2
118
 70
     0
 62
     7
  6
CONTINUOUS
  0
LAYER
  2
119
 70
     0
 62
     7
  6
CONTINUOUS
  0
LAYER
  2
120
 70
     0
 62
     7
  6
CONTINUOUS
  0
LAYER
  2
121
 70
     0
 62
     7
  6
CONTINUOUS
  0
LAYER
  2
122
 70
     0
 62
     7
  6
CONTINUOUS
  0
LAYER
  2
123
 70
     0
 62
     7
  6
CONTINUOUS
  0
LAYER
  2
124
 70
     0
 62
     7
  6
CONTINUOUS
  0
LAYER
  2
125
 70
     0
 62
     7
  6
CONTINUOUS
  0
LAYER
  2
126
 70
     0
 62
     7
  6
CONTINUOUS
  0
LAYER
  2
127
 70
     0
 62
     7
  6
CONTINUOUS
  0
ENDTAB
  0
TABLE
  2
STYLE
 70
     6
  0
STYLE
  2
STANDARD
 70
     0
 40
0.0
 41
1.0
 50
0.0
 71
     0
 42
0.2
  3
txt
  4

  0
STYLE
  2
KANJI0
 70
     0
 40
6.0
 41
0.666666667
 50
0.0
 71
     0
 42
6.0
  3

  4
bigfont
  0
STYLE
  2
KANJI1
 70
     0
 40
3.6
 41
0.666666667
 50
0.0
 71
     0
 42
3.6
  3

  4
bigfont
  0
STYLE
  2
KANJI2
 70
     0
 40
6.0
 41
0.9
 50
0.0
 71
     0
 42
6.0
  3

  4
bigfont
  0
STYLE
  2
KANJI3
 70
     0
 40
8.0
 41
0.9
 50
0.0
 71
     0
 42
8.0
  3

  4
bigfont
  0
STYLE
  2
KANJI4
 70
     0
 40
5.6
 41
0.9
 50
0.0
 71
     0
 42
5.6
  3

  4
bigfont
  0
ENDTAB
  0
TABLE
  2
VIEW
 70
     0
  0
ENDTAB
  0
ENDSEC
  0
SECTION
  2
BLOCKS
  0
ENDSEC
  0
SECTION
  2
ENTITIES
  0
LINE
  8
0
  6
CONTINUOUS
 62
     1
 10
20.0
 20
20.0
 11
570.0
 21
20.0
  0
LINE
  8
0
  6
CONTINUOUS
 62
     1
 10
570.0
 20
20.0
 11
570.0
 21
400.0
  0
LINE
  8
0
  6
CONTINUOUS
 62
     1
 10
570.0
 20
400.0
 11
20.0
 21
400.0
  0
LINE
  8
0
  6
CONTINUOUS
 62
     1
 10
20.0
 20
400.0
 11
20.0
 21
20.0
  0
LINE
  8
0
  6
CONTINUOUS
 62
     3
 10
120.0
 20
237.0
 11
150.0
 21
237.0
  0
ARC
  8
0
  6
CONTINUOUS
 62
     3
 10
150.0
 20
242.0
 40
5.0
 50
270.0
 51
0.0
  0
LINE
  8
0
  6
CONTINUOUS
 62
     3
 10
155.0
 20
242.0
 11
155.0
 21
318.0
  0
ARC
  8
0
  6
CONTINUOUS
 62
     3
 10
150.0
 20
318.0
 40
5.0
 50
0.0
 51
90.0
  0
LINE
  8
0
  6
CONTINUOUS
 62
     3
 10
150.0
 20
323.0
 11
120.0
 21
323.0
  0
ARC
  8
0
  6
CONTINUOUS
 62
     3
 10
120.0
 20
318.0
 40
5.0
 50
90.0
 51
180.0
  0
LINE
  8
0
  6
CONTINUOUS
 62
     3
 10
115.0
 20
318.0
 11
115.0
 21
242.0
  0
ARC
  8
0
  6
CONTINUOUS
 62
     3
 10
120.0
 20
242.0
 40
5.0
 50
180.0
 51
270.0
  0
CIRCLE
  8
0
  6
CONTINUOUS
 62
     3
 10
135.0
 20
250.0
 40
3.1
  0
CIRCLE
  8
0
  6
CONTINUOUS
 62
     3
 10
135.0
 20
310.0
 40
3.1
  0
CIRCLE
  8
0
  6
CONTINUOUS
 62
     1
 10
135.0
 20
280.0
 40
6.0
  0
LINE
  8
0
  6
CONTINUOUS
 62
     1
 10
155.0
 20
267.0
 11
115.0
 21
267.0
  0
LINE
  8
0
  6
CONTINUOUS
 62
     1
 10
115.0
 20
293.0
 11
155.0
 21
293.0
  0
LINE
  8
0
  6
CONTINUOUS
 62
     1
 10
135.0
 20
305.0
 11
135.0
 21
315.0
  0
LINE
  8
0
  6
CONTINUOUS
 62
     1
 10
125.0
 20
280.0
 11
145.0
 21
280.0
  0
LINE
  8
0
  6
CONTINUOUS
 62
     1
 10
135.0
 20
270.0
 11
135.0
 21
290.0
  0
LINE
  8
0
  6
CONTINUOUS
 62
     1
 10
135.0
 20
245.0
 11
135.0
 21
255.0
  0
POINT
  8
0
  6
CONTINUOUS
 62
     3
 10
135.0
 20
134.0
  0
LINE
  8
0
  6
CONTINUOUS
 62
     3
 10
149.0
 20
158.0
 11
121.0
 21
158.0
  0
LINE
  8
0
  6
CONTINUOUS
 62
     3
 10
149.0
 20
82.0
 11
121.0
 21
82.0
  0
LINE
  8
0
  6
CONTINUOUS
 62
     3
 10
135.0
 20
134.0
 11
147.0
 21
134.0
  0
ARC
  8
0
  6
CONTINUOUS
 62
     3
 10
147.0
 20
132.0
 40
2.0
 50
0.0
 51
90.0
  0
LINE
  8
0
  6
CONTINUOUS
 62
     3
 10
149.0
 20
132.0
 11
149.0
 21
82.0
  0
LINE
  8
0
  6
CONTINUOUS
 62
     3
 10
135.0
 20
134.0
 11
135.0
 21
101.0
  0
ARC
  8
0
  6
CONTINUOUS
 62
     3
 10
133.0
 20
101.0
 40
2.0
 50
270.0
 51
0.0
  0
LINE
  8
0
  6
CONTINUOUS
 62
     3
 10
121.0
 20
82.0
 11
121.0
 21
97.0
  0
ARC
  8
0
  6
CONTINUOUS
 62
     3
 10
123.0
 20
97.0
 40
2.0
 50
90.0
 51
180.0
  0
LINE
  8
0
  6
CONTINUOUS
 62
     3
 10
123.0
 20
99.0
 11
133.0
 21
99.0
  0
LINE
  8
0
  6
CONTINUOUS
 62
     3
 10
121.0
 20
158.0
 11
149.0
 21
158.0
  0
LINE
  8
0
  6
CONTINUOUS
 62
     3
 10
135.0
 20
134.0
 11
135.0
 21
139.0
  0
ARC
  8
0
  6
CONTINUOUS
 62
     3
 10
137.0
 20
139.0
 40
2.0
 50
90.0
 51
180.0
  0
LINE
  8
0
  6
CONTINUOUS
 62
     3
 10
149.0
 20
158.0
 11
149.0
 21
143.0
  0
ARC
  8
0
  6
CONTINUOUS
 62
     3
 10
147.0
 20
143.0
 40
2.0
 50
270.0
 51
0.0
  0
LINE
  8
0
  6
CONTINUOUS
 62
     3
 10
147.0
 20
141.0
 11
137.0
 21
141.0
  0
LINE
  8
0
  6
CONTINUOUS
 62
     3
 10
135.0
 20
106.0
 11
123.0
 21
106.0
  0
ARC
  8
0
  6
CONTINUOUS
 62
     3
 10
123.0
 20
108.0
 40
2.0
 50
180.0
 51
270.0
  0
LINE
  8
0
  6
CONTINUOUS
 62
     3
 10
121.0
 20
108.0
 11
121.0
 21
158.0
  0
LINE
  8
0
  6
CONTINUOUS
 62
     3
 10
149.0
 20
126.5
 11
152.0
 21
126.5
  0
ARC
  8
0
  6
CONTINUOUS
 62
     3
 10
152.0
 20
125.5
 40
1.0
 50
0.0
 51
90.0
  0
LINE
  8
0
  6
CONTINUOUS
 62
     3
 10
153.0
 20
125.5
 11
153.0
 21
114.5
  0
ARC
  8
0
  6
CONTINUOUS
 62
     3
 10
152.0
 20
114.5
 40
1.0
 50
270.0
 51
0.0
  0
LINE
  8
0
  6
CONTINUOUS
 62
     3
 10
152.0
 20
113.5
 11
149.0
 21
113.5
  0
LINE
  8
0
  6
CONTINUOUS
 62
     3
 10
148.5
 20
158.0
 11
146.0
 21
165.0
  0
LINE
  8
0
  6
CONTINUOUS
 62
     3
 10
146.0
 20
165.0
 11
124.0
 21
165.0
  0
LINE
  8
0
  6
CONTINUOUS
 62
     3
 10
124.0
 20
165.0
 11
121.5
 21
158.0
  0
LINE
  8
0
  6
CONTINUOUS
 62
     3
 10
142.0
 20
165.0
 11
142.0
 21
168.0
  0
LINE
  8
0
  6
CONTINUOUS
 62
     3
 10
142.0
 20
168.0
 11
128.0
 21
168.0
  0
LINE
  8
0
  6
CONTINUOUS
 62
     3
 10
128.0
 20
168.0
 11
128.0
 21
165.0
  0
LINE
  8
0
  6
CONTINUOUS
 62
     3
 10
142.0
 20
168.0
 11
155.0
 21
168.0
  0
LINE
  8
0
  6
CONTINUOUS
 62
     3
 10
115.0
 20
168.0
 11
128.0
 21
168.0
  0
LINE
  8
0
  6
CONTINUOUS
 62
     3
 10
121.5
 20
82.0
 11
124.0
 21
75.0
  0
LINE
  8
0
  6
CONTINUOUS
 62
     3
 10
124.0
 20
75.0
 11
146.0
 21
75.0
  0
LINE
  8
0
  6
CONTINUOUS
 62
     3
 10
146.0
 20
75.0
 11
148.5
 21
82.0
  0
LINE
  8
0
  6
CONTINUOUS
 62
     3
 10
145.0
 20
75.0
 11
145.0
 21
72.0
  0
LINE
  8
0
  6
CONTINUOUS
 62
     3
 10
145.0
 20
72.0
 11
125.0
 21
72.0
  0
LINE
  8
0
  6
CONTINUOUS
 62
     3
 10
125.0
 20
72.0
 11
125.0
 21
75.0
  0
LINE
  8
0
  6
CONTINUOUS
 62
     3
 10
110.0
 20
69.0
 11
85.0
 21
69.0
  0
LINE
  8
0
  6
CONTINUOUS
 62
     3
 10
85.0
 20
69.0
 11
85.0
 21
67.0
  0
LINE
  8
0
  6
CONTINUOUS
 62
     3
 10
85.0
 20
67.0
 11
185.0
 21
67.0
  0
LINE
  8
0
  6
CONTINUOUS
 62
     3
 10
185.0
 20
67.0
 11
185.0
 21
69.0
  0
LINE
  8
0
  6
CONTINUOUS
 62
     3
 10
185.0
 20
69.0
 11
160.0
 21
69.0
  0
LINE
  8
0
  6
CONTINUOUS
 62
     3
 10
144.0
 20
72.0
 11
154.2
 21
72.0
  0
ARC
  8
0
  6
CONTINUOUS
 62
     3
 10
154.2
 20
69.0
 40
3.0
 50
59.0
 51
90.0
  0
LINE
  8
0
  6
CONTINUOUS
 62
     3
 10
155.7
 20
71.6
 11
160.0
 21
69.0
  0
LINE
  8
0
  6
CONTINUOUS
 62
     3
 10
110.0
 20
69.0
 11
114.3
 21
71.6
  0
ARC
  8
0
  6
CONTINUOUS
 62
     3
 10
115.8
 20
69.0
 40
3.0
 50
90.0
 51
120.5
  0
LINE
  8
0
  6
CONTINUOUS
 62
     3
 10
115.8
 20
72.0
 11
125.0
 21
72.0
  0
LINE
  8
0
  6
CONTINUOUS
 62
     3
 10
110.0
 20
69.0
 11
160.0
 21
69.0
  0
LINE
  8
0
  6
CONTINUOUS
 62
     3
 10
155.0
 20
168.0
 11
155.0
 21
175.0
  0
LINE
  8
0
  6
CONTINUOUS
 62
     3
 10
155.0
 20
175.0
 11
115.0
 21
175.0
  0
LINE
  8
0
  6
CONTINUOUS
 62
     3
 10
115.0
 20
175.0
 11
115.0
 21
168.0
  0
LINE
  8
0
  6
CONTINUOUS
 62
     3
 10
115.0
 20
173.0
 11
155.0
 21
173.0
  0
CIRCLE
  8
0
  6
CONTINUOUS
 62
     3
 10
135.0
 20
153.0
 40
3.0
  0
CIRCLE
  8
0
  6
CONTINUOUS
 62
     3
 10
135.0
 20
87.0
 40
3.0
  0
LINE
  8
0
  6
CONTINUOUS
 62
     3
 10
121.0
 20
156.0
 11
120.0
 21
155.0
  0
LINE
  8
0
  6
CONTINUOUS
 62
     3
 10
120.0
 20
155.0
 11
120.0
 21
151.0
  0
LINE
  8
0
  6
CONTINUOUS
 62
     3
 10
120.0
 20
151.0
 11
121.0
 21
150.0
  0
LINE
  8
0
  6
CONTINUOUS
 62
     3
 10
149.0
 20
90.0
 11
150.0
 21
89.0
  0
LINE
  8
0
  6
CONTINUOUS
 62
     3
 10
150.0
 20
89.0
 11
150.0
 21
85.0
  0
LINE
  8
0
  6
CONTINUOUS
 62
     3
 10
150.0
 20
85.0
 11
149.0
 21
84.0
  0
LINE
  8
0
  6
CONTINUOUS
 62
     3
 10
121.0
 20
123.0
 11
113.5
 21
123.0
  0
LINE
  8
0
  6
CONTINUOUS
 62
     3
 10
113.5
 20
123.0
 11
113.0
 21
122.5
  0
LINE
  8
0
  6
CONTINUOUS
 62
     3
 10
113.0
 20
122.5
 11
113.0
 21
117.5
  0
LINE
  8
0
  6
CONTINUOUS
 62
     3
 10
113.0
 20
117.5
 11
113.5
 21
117.0
  0
LINE
  8
0
  6
CONTINUOUS
 62
     3
 10
113.5
 20
117.0
 11
121.0
 21
117.0
  0
LINE
  8
0
  6
LTYPE1
 62
     1
 10
109.0
 20
120.0
 11
157.0
 21
120.0
  0
CIRCLE
  8
0
  6
CONTINUOUS
 62
     1
 10
135.0
 20
153.0
 40
2.6
  0
LINE
  8
0
  6
CONTINUOUS
 62
     1
 10
135.9
 20
151.5
 11
136.7
 21
153.0
  0
LINE
  8
0
  6
CONTINUOUS
 62
     1
 10
136.7
 20
153.0
 11
135.9
 21
154.5
  0
LINE
  8
0
  6
CONTINUOUS
 62
     1
 10
135.9
 20
154.5
 11
134.1
 21
154.5
  0
LINE
  8
0
  6
CONTINUOUS
 62
     1
 10
134.1
 20
154.5
 11
133.3
 21
153.0
  0
LINE
  8
0
  6
CONTINUOUS
 62
     1
 10
133.3
 20
153.0
 11
134.1
 21
151.5
  0
LINE
  8
0
  6
CONTINUOUS
 62
     1
 10
134.1
 20
151.5
 11
135.9
 21
151.5
  0
LINE
  8
0
  6
CONTINUOUS
 62
     1
 10
135.9
 20
85.5
 11
136.7
 21
87.0
  0
LINE
  8
0
  6
CONTINUOUS
 62
     1
 10
136.7
 20
87.0
 11
135.9
 21
88.5
  0
LINE
  8
0
  6
CONTINUOUS
 62
     1
 10
135.9
 20
88.5
 11
134.1
 21
88.5
  0
LINE
  8
0
  6
CONTINUOUS
 62
     1
 10
134.1
 20
88.5
 11
133.3
 21
87.0
  0
LINE
  8
0
  6
CONTINUOUS
 62
     1
 10
133.3
 20
87.0
 11
134.1
 21
85.5
  0
LINE
  8
0
  6
CONTINUOUS
 62
     1
 10
134.1
 20
85.5
 11
135.9
 21
85.5
  0
CIRCLE
  8
0
  6
CONTINUOUS
 62
     1
 10
135.0
 20
87.0
 40
2.6
  0
LINE
  8
0
  6
CONTINUOUS
 62
     1
 10
116.5
 20
117.0
 11
116.5
 21
109.0
  0
LINE
  8
0
  6
CONTINUOUS
 62
     1
 10
116.5
 20
109.0
 11
115.5
 21
109.0
  0
LINE
  8
0
  6
CONTINUOUS
 62
     1
 10
115.5
 20
109.0
 11
115.5
 21
117.0
  0
ARC
  8
0
  6
CONTINUOUS
 62
     1
 10
116.0
 20
130.5
 40
0.5
 50
0.0
 51
90.0
  0
LINE
  8
0
  6
CONTINUOUS
 62
     1
 10
116.5
 20
130.5
 11
116.5
 21
123.0
  0
LINE
  8
0
  6
CONTINUOUS
 62
     1
 10
115.5
 20
123.0
 11
115.5
 21
130.5
  0
ARC
  8
0
  6
CONTINUOUS
 62
     1
 10
116.0
 20
130.5
 40
0.5
 50
90.0
 51
180.0
  0
POINT
  8
0
  6
CONTINUOUS
 62
     1
 10
116.0
 20
131.0
  0
ARC
  8
0
  6
CONTINUOUS
 62
     1
 10
135.0
 20
146.0
 40
12.0
 50
0.0
 51
180.0
  0
LINE
  8
0
  6
CONTINUOUS
 62
     1
 10
147.0
 20
141.0
 11
147.0
 21
146.0
  0
LINE
  8
0
  6
CONTINUOUS
 62
     1
 10
123.0
 20
146.0
 11
123.0
 21
106.0
  0
ARC
  8
0
  6
CONTINUOUS
 62
     1
 10
135.0
 20
94.0
 40
12.0
 50
180.0
 51
270.0
  0
LINE
  8
0
  6
CONTINUOUS
 62
     1
 10
123.0
 20
99.0
 11
123.0
 21
94.0
  0
ARC
  8
0
  6
CONTINUOUS
 62
     1
 10
135.0
 20
94.0
 40
12.0
 50
270.0
 51
0.0
  0
LINE
  8
0
  6
CONTINUOUS
 62
     1
 10
147.0
 20
94.0
 11
147.0
 21
134.0
  0
CIRCLE
  8
0
  6
CONTINUOUS
 62
     3
 10
275.0
 20
280.0
 40
9.0
  0
CIRCLE
  8
0
  6
CONTINUOUS
 62
     3
 10
275.0
 20
280.0
 40
6.5
  0
ARC
  8
0
  6
CONTINUOUS
 62
     3
 10
275.0
 20
280.0
 40
14.0
 50
90.0
 51
270.0
  0
LINE
  8
0
  6
CONTINUOUS
 62
     3
 10
275.0
 20
294.0
 11
313.0
 21
294.0
  0
LINE
  8
0
  6
CONTINUOUS
 62
     3
 10
313.0
 20
266.0
 11
275.0
 21
266.0
  0
LINE
  8
0
  6
CONTINUOUS
 62
     3
 10
313.0
 20
266.0
 11
313.0
 21
294.0
  0
LINE
  8
0
  6
CONTINUOUS
 62
     3
 10
313.0
 20
293.5
 11
320.0
 21
291.0
  0
LINE
  8
0
  6
CONTINUOUS
 62
     3
 10
320.0
 20
291.0
 11
320.0
 21
269.0
  0
LINE
  8
0
  6
CONTINUOUS
 62
     3
 10
320.0
 20
269.0
 11
313.0
 21
266.5
  0
LINE
  8
0
  6
CONTINUOUS
 62
     3
 10
275.0
 20
266.0
 11
237.0
 21
266.0
  0
LINE
  8
0
  6
CONTINUOUS
 62
     3
 10
237.0
 20
294.0
 11
275.0
 21
294.0
  0
LINE
  8
0
  6
CONTINUOUS
 62
     3
 10
237.0
 20
294.0
 11
237.0
 21
266.0
  0
LINE
  8
0
  6
CONTINUOUS
 62
     3
 10
237.0
 20
266.5
 11
230.0
 21
269.0
  0
LINE
  8
0
  6
CONTINUOUS
 62
     3
 10
230.0
 20
291.0
 11
230.0
 21
269.0
  0
LINE
  8
0
  6
CONTINUOUS
 62
     3
 10
230.0
 20
291.0
 11
237.0
 21
293.5
  0
LINE
  8
0
  6
CONTINUOUS
 62
     3
 10
227.0
 20
287.0
 11
230.0
 21
287.0
  0
LINE
  8
0
  6
CONTINUOUS
 62
     3
 10
227.0
 20
287.0
 11
227.0
 21
273.0
  0
LINE
  8
0
  6
CONTINUOUS
 62
     3
 10
227.0
 20
273.0
 11
230.0
 21
273.0
  0
LINE
  8
0
  6
CONTINUOUS
 62
     3
 10
240.0
 20
295.0
 11
239.0
 21
294.0
  0
LINE
  8
0
  6
CONTINUOUS
 62
     3
 10
244.0
 20
295.0
 11
245.0
 21
294.0
  0
LINE
  8
0
  6
CONTINUOUS
 62
     3
 10
240.0
 20
295.0
 11
244.0
 21
295.0
  0
ARC
  8
0
  6
CONTINUOUS
 62
     3
 10
252.0
 20
292.0
 40
2.0
 50
0.0
 51
90.0
  0
ARC
  8
0
  6
CONTINUOUS
 62
     3
 10
252.0
 20
268.0
 40
2.0
 50
270.0
 51
0.0
  0
LINE
  8
0
  6
CONTINUOUS
 62
     3
 10
254.0
 20
268.0
 11
254.0
 21
292.0
  0
LINE
  8
0
  6
CONTINUOUS
 62
     3
 10
320.0
 20
290.0
 11
323.0
 21
290.0
  0
LINE
  8
0
  6
CONTINUOUS
 62
     3
 10
323.0
 20
290.0
 11
323.0
 21
270.0
  0
LINE
  8
0
  6
CONTINUOUS
 62
     3
 10
323.0
 20
270.0
 11
320.0
 21
270.0
  0
LINE
  8
0
  6
CONTINUOUS
 62
     3
 10
326.0
 20
255.0
 11
326.0
 21
230.0
  0
LINE
  8
0
  6
CONTINUOUS
 62
     3
 10
326.0
 20
230.0
 11
328.0
 21
230.0
  0
LINE
  8
0
  6
CONTINUOUS
 62
     3
 10
328.0
 20
230.0
 11
328.0
 21
330.0
  0
LINE
  8
0
  6
CONTINUOUS
 62
     3
 10
328.0
 20
330.0
 11
326.0
 21
330.0
  0
LINE
  8
0
  6
CONTINUOUS
 62
     3
 10
326.0
 20
330.0
 11
326.0
 21
254.0
  0
LINE
  8
0
  6
CONTINUOUS
 62
     3
 10
323.0
 20
280.0
 11
323.0
 21
299.2
  0
ARC
  8
0
  6
CONTINUOUS
 62
     3
 10
326.0
 20
299.2
 40
3.0
 50
149.0
 51
180.0
  0
LINE
  8
0
  6
CONTINUOUS
 62
     3
 10
323.4
 20
300.7
 11
326.0
 21
305.0
  0
LINE
  8
0
  6
CONTINUOUS
 62
     3
 10
326.0
 20
255.0
 11
323.4
 21
259.3
  0
ARC
  8
0
  6
CONTINUOUS
 62
     3
 10
326.0
 20
260.8
 40
3.0
 50
180.0
 51
210.5
  0
LINE
  8
0
  6
CONTINUOUS
 62
     3
 10
323.0
 20
260.8
 11
323.0
 21
280.0
  0
LINE
  8
0
  6
CONTINUOUS
 62
     3
 10
225.0
 20
280.0
 11
225.0
 21
292.5
  0
LINE
  8
0
  6
CONTINUOUS
 62
     3
 10
222.0
 20
296.5
 11
222.0
 21
323.0
  0
LINE
  8
0
  6
CONTINUOUS
 62
     3
 10
222.0
 20
323.0
 11
220.0
 21
323.0
  0
LINE
  8
0
  6
CONTINUOUS
 62
     3
 10
220.0
 20
237.0
 11
222.0
 21
237.0
  0
LINE
  8
0
  6
CONTINUOUS
 62
     3
 10
222.0
 20
237.0
 11
222.0
 21
263.5
  0
POINT
  8
0
  6
CONTINUOUS
 62
     3
 10
225.0
 20
280.0
  0
LINE
  8
0
  6
CONTINUOUS
 62
     3
 10
225.0
 20
280.0
 11
225.0
 21
267.5
  0
LINE
  8
0
  6
CONTINUOUS
 62
     3
 10
227.0
 20
293.5
 11
227.0
 21
268.2
  0
LINE
  8
0
  6
CONTINUOUS
 62
     3
 10
225.6
 20
265.6
 11
222.0
 21
263.5
  0
LINE
  8
0
  6
CONTINUOUS
 62
     3
 10
220.0
 20
237.0
 11
220.0
 21
262.8
  0
LINE
  8
0
  6
CONTINUOUS
 62
     3
 10
221.5
 20
265.4
 11
225.0
 21
267.5
  0
LINE
  8
0
  6
CONTINUOUS
 62
     3
 10
220.0
 20
262.0
 11
220.0
 21
263.4
  0
ARC
  8
0
  6
CONTINUOUS
 62
     3
 10
222.0
 20
263.4
 40
2.0
 50
121.0
 51
180.0
  0
LINE
  8
0
  6
CONTINUOUS
 62
     3
 10
221.0
 20
265.1
 11
225.0
 21
267.5
  0
LINE
  8
0
  6
CONTINUOUS
 62
     3
 10
227.0
 20
280.0
 11
227.0
 21
267.6
  0
ARC
  8
0
  6
CONTINUOUS
 62
     3
 10
225.0
 20
267.6
 40
2.0
 50
301.1
 51
0.0
  0
LINE
  8
0
  6
CONTINUOUS
 62
     3
 10
226.0
 20
265.9
 11
222.0
 21
263.5
  0
LINE
  8
0
  6
CONTINUOUS
 62
     3
 10
222.0
 20
296.5
 11
226.0
 21
294.1
  0
ARC
  8
0
  6
CONTINUOUS
 62
     3
 10
225.0
 20
292.4
 40
2.0
 50
0.0
 51
58.9
  0
LINE
  8
0
  6
CONTINUOUS
 62
     3
 10
227.0
 20
292.4
 11
227.0
 21
292.5
  0
LINE
  8
0
  6
CONTINUOUS
 62
     3
 10
225.0
 20
292.5
 11
221.0
 21
294.9
  0
ARC
  8
0
  6
CONTINUOUS
 62
     3
 10
222.0
 20
296.6
 40
2.0
 50
180.0
 51
238.9
  0
LINE
  8
0
  6
CONTINUOUS
 62
     3
 10
220.0
 20
296.6
 11
220.0
 21
323.0
  0
LINE
  8
0
  6
CONTINUOUS
 62
     3
 10
311.0
 20
294.0
 11
310.0
 21
295.0
  0
LINE
  8
0
  6
CONTINUOUS
 62
     3
 10
310.0
 20
295.0
 11
306.0
 21
295.0
  0
LINE
  8
0
  6
CONTINUOUS
 62
     3
 10
306.0
 20
295.0
 11
305.0
 21
294.0
  0
CIRCLE
  8
0
  6
CONTINUOUS
 62
     3
 10
308.0
 20
280.0
 40
3.0
  0
LINE
  8
0
  6
CONTINUOUS
 62
     3
 10
239.0
 20
266.0
 11
240.0
 21
265.0
  0
LINE
  8
0
  6
CONTINUOUS
 62
     3
 10
240.0
 20
265.0
 11
244.0
 21
265.0
  0
LINE
  8
0
  6
CONTINUOUS
 62
     3
 10
244.0
 20
265.0
 11
245.0
 21
266.0
  0
LINE
  8
0
  6
CONTINUOUS
 62
     3
 10
305.0
 20
266.0
 11
306.0
 21
265.0
  0
LINE
  8
0
  6
CONTINUOUS
 62
     3
 10
306.0
 20
265.0
 11
310.0
 21
265.0
  0
LINE
  8
0
  6
CONTINUOUS
 62
     3
 10
310.0
 20
265.0
 11
311.0
 21
266.0
  0
CIRCLE
  8
0
  6
CONTINUOUS
 62
     1
 10
308.0
 20
280.0
 40
2.6
  0
LINE
  8
0
  6
CONTINUOUS
 62
     1
 10
307.0
 20
279.0
 11
309.0
 21
279.0
  0
LINE
  8
0
  6
CONTINUOUS
 62
     1
 10
309.0
 20
279.0
 11
309.0
 21
281.0
  0
LINE
  8
0
  6
CONTINUOUS
 62
     1
 10
309.0
 20
281.0
 11
307.0
 21
281.0
  0
LINE
  8
0
  6
CONTINUOUS
 62
     1
 10
307.0
 20
281.0
 11
307.0
 21
279.0
  0
LINE
  8
0
  6
CONTINUOUS
 62
     1
 10
225.0
 20
286.5
 11
223.5
 21
280.0
  0
LINE
  8
0
  6
CONTINUOUS
 62
     1
 10
223.5
 20
280.0
 11
225.0
 21
273.5
  0
LINE
  8
0
  6
CONTINUOUS
 62
     1
 10
270.0
 20
280.0
 11
280.0
 21
280.0
  0
ARC
  8
0
  6
CONTINUOUS
 62
     1
 10
275.0
 20
280.0
 40
12.0
 50
90.0
 51
270.0
  0
LINE
  8
0
  6
CONTINUOUS
 62
     1
 10
301.0
 20
292.0
 11
275.0
 21
292.0
  0
LINE
  8
0
  6
CONTINUOUS
 62
     1
 10
275.0
 20
268.0
 11
301.0
 21
268.0
  0
ARC
  8
0
  6
CONTINUOUS
 62
     1
 10
301.0
 20
280.0
 40
12.0
 50
270.0
 51
0.0
  0
ARC
  8
0
  6
CONTINUOUS
 62
     1
 10
301.0
 20
280.0
 40
12.0
 50
0.0
 51
90.0
  0
ARC
  8
0
  6
CONTINUOUS
 62
     1
 10
249.0
 20
280.0
 40
12.0
 50
90.0
 51
270.0
  0
LINE
  8
0
  6
CONTINUOUS
 62
     1
 10
249.0
 20
292.0
 11
254.0
 21
292.0
  0
LINE
  8
0
  6
CONTINUOUS
 62
     1
 10
254.0
 20
268.0
 11
249.0
 21
268.0
  0
LINE
  8
0
  6
CONTINUOUS
 62
     1
 10
278.464101615
 20
280.0
 11
276.732050808
 21
283.0
  0
LINE
  8
0
  6
CONTINUOUS
 62
     1
 10
276.732050808
 20
283.0
 11
273.267949192
 21
283.0
  0
LINE
  8
0
  6
CONTINUOUS
 62
     1
 10
273.267949192
 20
283.0
 11
271.535898385
 21
280.0
  0
LINE
  8
0
  6
CONTINUOUS
 62
     1
 10
271.535898385
 20
280.0
 11
273.267949192
 21
277.0
  0
LINE
  8
0
  6
CONTINUOUS
 62
     1
 10
273.267949192
 20
277.0
 11
276.732050808
 21
277.0
  0
LINE
  8
0
  6
CONTINUOUS
 62
     1
 10
276.732050808
 20
277.0
 11
278.464101615
 21
280.0
  0
CIRCLE
  8
0
  6
CONTINUOUS
 62
     1
 10
275.0
 20
280.0
 40
7.0
  0
CIRCLE
  8
0
  6
CONTINUOUS
 62
     1
 10
275.0
 20
280.0
 40
8.0
  0
LINE
  8
0
  6
CONTINUOUS
 62
     1
 10
275.0
 20
285.0
 11
275.0
 21
275.0
  0
LINE
  8
0
  6
CONTINUOUS
 62
     1
 10
140.0
 20
310.0
 11
93.0
 21
310.0
  0
LINE
  8
0
  6
CONTINUOUS
 62
     1
 10
95.0
 20
310.0
 11
94.48236191
 21
308.068148347
  0
LINE
  8
0
  6
CONTINUOUS
 62
     1
 10
95.0
 20
310.0
 11
95.51763809
 21
308.068148347
  0
LINE
  8
0
  6
CONTINUOUS
 62
     1
 10
95.0
 20
310.0
 11
95.0
 21
250.0
  0
LINE
  8
0
  6
CONTINUOUS
 62
     1
 10
95.0
 20
250.0
 11
95.51763809
 21
251.931851653
  0
LINE
  8
0
  6
CONTINUOUS
 62
     1
 10
95.0
 20
250.0
 11
94.48236191
 21
251.931851653
  0
LINE
  8
0
  6
CONTINUOUS
 62
     1
 10
140.0
 20
250.0
 11
93.0
 21
250.0
  0
TEXT
  8
0
  6
CONTINUOUS
 62
     1
 10
93.0
 20
276.0
 30
0.0
 40
6.0
  1
６０
 50
90.0
 41
0.666666667
 51
0.0
  7
KANJI0
  0
LINE
  8
0
  6
CONTINUOUS
 62
     1
 10
160.0
 20
175.0
 11
217.0
 21
175.0
  0
LINE
  8
0
  6
CONTINUOUS
 62
     1
 10
215.0
 20
175.0
 11
214.48236191
 21
173.068148347
  0
LINE
  8
0
  6
CONTINUOUS
 62
     1
 10
215.0
 20
175.0
 11
215.51763809
 21
173.068148347
  0
LINE
  8
0
  6
CONTINUOUS
 62
     1
 10
215.0
 20
175.0
 11
215.0
 21
67.0
  0
LINE
  8
0
  6
CONTINUOUS
 62
     1
 10
215.0
 20
67.0
 11
215.51763809
 21
68.931851653
  0
LINE
  8
0
  6
CONTINUOUS
 62
     1
 10
215.0
 20
67.0
 11
214.48236191
 21
68.931851653
  0
LINE
  8
0
  6
CONTINUOUS
 62
     1
 10
190.0
 20
67.0
 11
217.0
 21
67.0
  0
TEXT
  8
0
  6
CONTINUOUS
 62
     1
 10
213.0
 20
112.6
 30
0.0
 40
6.0
  1
１０８
 50
90.0
 41
0.666666667
 51
0.0
  7
KANJI0
  0
TEXT
  8
0
  6
CONTINUOUS
 62
     1
 10
213.0
 20
124.6
 30
0.0
 40
3.6
  1
±５
 50
90.0
 41
0.666666667
 51
0.0
  7
KANJI1
  0
LINE
  8
0
  6
CONTINUOUS
 62
     1
 10
115.0
 20
180.0
 11
115.0
 21
199.0
  0
LINE
  8
0
  6
CONTINUOUS
 62
     1
 10
115.0
 20
197.0
 11
116.931851653
 21
196.48236191
  0
LINE
  8
0
  6
CONTINUOUS
 62
     1
 10
115.0
 20
197.0
 11
116.931851653
 21
197.51763809
  0
LINE
  8
0
  6
CONTINUOUS
 62
     1
 10
115.0
 20
197.0
 11
155.0
 21
197.0
  0
LINE
  8
0
  6
CONTINUOUS
 62
     1
 10
155.0
 20
197.0
 11
153.068148347
 21
197.51763809
  0
LINE
  8
0
  6
CONTINUOUS
 62
     1
 10
155.0
 20
197.0
 11
153.068148347
 21
196.48236191
  0
LINE
  8
0
  6
CONTINUOUS
 62
     1
 10
155.0
 20
180.0
 11
155.0
 21
199.0
  0
TEXT
  8
0
  6
CONTINUOUS
 62
     1
 10
128.6
 20
199.0
 30
0.0
 40
6.0
  1
４０
 50
0.0
 41
0.666666667
 51
0.0
  7
KANJI0
  0
TEXT
  8
0
  6
CONTINUOUS
 62
     1
 10
136.6
 20
199.0
 30
0.0
 40
3.6
  1
±１
 50
0.0
 41
0.666666667
 51
0.0
  7
KANJI1
  0
LINE
  8
0
  6
CONTINUOUS
 62
     1
 10
220.0
 20
327.0
 11
220.0
 21
354.0
  0
LINE
  8
0
  6
CONTINUOUS
 62
     1
 10
220.0
 20
352.0
 11
221.931851653
 21
351.48236191
  0
LINE
  8
0
  6
CONTINUOUS
 62
     1
 10
220.0
 20
352.0
 11
221.931851653
 21
352.51763809
  0
LINE
  8
0
  6
CONTINUOUS
 62
     1
 10
220.0
 20
352.0
 11
275.0
 21
352.0
  0
LINE
  8
0
  6
CONTINUOUS
 62
     1
 10
275.0
 20
352.0
 11
273.068148347
 21
352.51763809
  0
LINE
  8
0
  6
CONTINUOUS
 62
     1
 10
275.0
 20
352.0
 11
273.068148347
 21
351.48236191
  0
LINE
  8
0
  6
CONTINUOUS
 62
     1
 10
275.0
 20
280.0
 11
275.0
 21
354.0
  0
TEXT
  8
0
  6
CONTINUOUS
 62
     1
 10
241.1
 20
354.0
 30
0.0
 40
6.0
  1
５５
 50
0.0
 41
0.666666667
 51
0.0
  7
KANJI0
  0
TEXT
  8
0
  6
CONTINUOUS
 62
     1
 10
249.1
 20
354.0
 30
0.0
 40
3.6
  1
±２
 50
0.0
 41
0.666666667
 51
0.0
  7
KANJI1
  0
LINE
  8
0
  6
CONTINUOUS
 62
     1
 10
275.0
 20
352.0
 11
276.931851653
 21
351.48236191
  0
LINE
  8
0
  6
CONTINUOUS
 62
     1
 10
275.0
 20
352.0
 11
276.931851653
 21
352.51763809
  0
LINE
  8
0
  6
CONTINUOUS
 62
     1
 10
275.0
 20
352.0
 11
328.0
 21
352.0
  0
LINE
  8
0
  6
CONTINUOUS
 62
     1
 10
328.0
 20
352.0
 11
326.068148347
 21
352.51763809
  0
LINE
  8
0
  6
CONTINUOUS
 62
     1
 10
328.0
 20
352.0
 11
326.068148347
 21
351.48236191
  0
LINE
  8
0
  6
CONTINUOUS
 62
     1
 10
328.0
 20
334.0
 11
328.0
 21
354.0
  0
TEXT
  8
0
  6
CONTINUOUS
 62
     1
 10
295.1
 20
354.0
 30
0.0
 40
6.0
  1
５３
 50
0.0
 41
0.666666667
 51
0.0
  7
KANJI0
  0
TEXT
  8
0
  6
CONTINUOUS
 62
     1
 10
303.1
 20
354.0
 30
0.0
 40
3.6
  1
±２
 50
0.0
 41
0.666666667
 51
0.0
  7
KANJI1
  0
LINE
  8
0
  6
CONTINUOUS
 62
     3
 10
392.0
 20
230.0
 11
468.0
 21
230.0
  0
ARC
  8
0
  6
CONTINUOUS
 62
     3
 10
468.0
 20
242.0
 40
12.0
 50
270.0
 51
0.0
  0
LINE
  8
0
  6
CONTINUOUS
 62
     3
 10
480.0
 20
242.0
 11
480.0
 21
318.0
  0
ARC
  8
0
  6
CONTINUOUS
 62
     3
 10
468.0
 20
318.0
 40
12.0
 50
0.0
 51
90.0
  0
LINE
  8
0
  6
CONTINUOUS
 62
     3
 10
468.0
 20
330.0
 11
392.0
 21
330.0
  0
ARC
  8
0
  6
CONTINUOUS
 62
     3
 10
392.0
 20
318.0
 40
12.0
 50
90.0
 51
180.0
  0
LINE
  8
0
  6
CONTINUOUS
 62
     3
 10
380.0
 20
318.0
 11
380.0
 21
242.0
  0
ARC
  8
0
  6
CONTINUOUS
 62
     3
 10
392.0
 20
242.0
 40
12.0
 50
180.0
 51
270.0
  0
CIRCLE
  8
0
  6
CONTINUOUS
 62
     3
 10
392.0
 20
280.0
 40
5.0
  0
CIRCLE
  8
0
  6
CONTINUOUS
 62
     3
 10
468.0
 20
280.0
 40
5.0
  0
CIRCLE
  8
0
  6
CONTINUOUS
 62
     3
 10
468.0
 20
318.0
 40
3.1
  0
CIRCLE
  8
0
  6
CONTINUOUS
 62
     3
 10
468.0
 20
242.0
 40
3.1
  0
CIRCLE
  8
0
  6
CONTINUOUS
 62
     3
 10
392.0
 20
242.0
 40
3.1
  0
CIRCLE
  8
0
  6
CONTINUOUS
 62
     3
 10
392.0
 20
318.0
 40
3.1
  0
LINE
  8
0
  6
CONTINUOUS
 62
     1
 10
468.0
 20
323.0
 11
468.0
 21
313.0
  0
POINT
  8
0
  6
CONTINUOUS
 62
     1
 10
468.0
 20
287.0
  0
LINE
  8
0
  6
CONTINUOUS
 62
     1
 10
468.0
 20
287.0
 11
468.0
 21
273.0
  0
LINE
  8
0
  6
CONTINUOUS
 62
     1
 10
392.0
 20
273.0
 11
392.0
 21
286.0
  0
LINE
  8
0
  6
CONTINUOUS
 62
     1
 10
392.0
 20
313.0
 11
392.0
 21
322.0
  0
LINE
  8
0
  6
CONTINUOUS
 62
     1
 10
386.0
 20
242.0
 11
397.0
 21
242.0
  0
LINE
  8
0
  6
CONTINUOUS
 62
     1
 10
462.0
 20
242.0
 11
474.0
 21
242.0
  0
LINE
  8
0
  6
CONTINUOUS
 62
     1
 10
419.0
 20
280.0
 11
441.0
 21
280.0
  0
LINE
  8
0
  6
CONTINUOUS
 62
     1
 10
460.0
 20
280.0
 11
476.0
 21
280.0
  0
LINE
  8
0
  6
CONTINUOUS
 62
     1
 10
473.0
 20
318.0
 11
463.0
 21
318.0
  0
LINE
  8
0
  6
CONTINUOUS
 62
     1
 10
399.0
 20
280.0
 11
384.0
 21
280.0
  0
LINE
  8
0
  6
CONTINUOUS
 62
     1
 10
430.0
 20
270.0
 11
430.0
 21
290.0
  0
CIRCLE
  8
0
  6
CONTINUOUS
 62
     1
 10
430.0
 20
280.0
 40
20.0
  0
CIRCLE
  8
0
  6
CONTINUOUS
 62
     1
 10
430.0
 20
280.0
 40
25.0
  0
CIRCLE
  8
0
  6
CONTINUOUS
 62
     1
 10
430.0
 20
280.0
 40
6.5
  0
CIRCLE
  8
0
  6
CONTINUOUS
 62
     1
 10
439.0
 20
280.0
 40
1.0
  0
CIRCLE
  8
0
  6
CONTINUOUS
 62
     1
 10
430.0
 20
289.0
 40
1.0
  0
CIRCLE
  8
0
  6
CONTINUOUS
 62
     1
 10
421.0
 20
280.0
 40
1.0
  0
CIRCLE
  8
0
  6
CONTINUOUS
 62
     1
 10
430.0
 20
271.0
 40
1.0
  0
LINE
  8
0
  6
CONTINUOUS
 62
     1
 10
392.0
 20
313.0
 11
392.0
 21
347.0
  0
LINE
  8
0
  6
CONTINUOUS
 62
     1
 10
392.0
 20
345.0
 11
393.931851653
 21
344.48236191
  0
LINE
  8
0
  6
CONTINUOUS
 62
     1
 10
392.0
 20
345.0
 11
393.931851653
 21
345.51763809
  0
LINE
  8
0
  6
CONTINUOUS
 62
     1
 10
392.0
 20
345.0
 11
468.0
 21
345.0
  0
LINE
  8
0
  6
CONTINUOUS
 62
     1
 10
468.0
 20
345.0
 11
466.068148347
 21
345.51763809
  0
LINE
  8
0
  6
CONTINUOUS
 62
     1
 10
468.0
 20
345.0
 11
466.068148347
 21
344.48236191
  0
LINE
  8
0
  6
CONTINUOUS
 62
     1
 10
468.0
 20
313.0
 11
468.0
 21
347.0
  0
TEXT
  8
0
  6
CONTINUOUS
 62
     1
 10
423.6
 20
347.0
 30
0.0
 40
6.0
  1
７６
 50
0.0
 41
0.666666667
 51
0.0
  7
KANJI0
  0
TEXT
  8
0
  6
CONTINUOUS
 62
     1
 10
431.6
 20
347.0
 30
0.0
 40
3.6
  1
±１
 50
0.0
 41
0.666666667
 51
0.0
  7
KANJI1
  0
LINE
  8
0
  6
CONTINUOUS
 62
     1
 10
480.0
 20
325.0
 11
480.0
 21
362.0
  0
LINE
  8
0
  6
CONTINUOUS
 62
     1
 10
480.0
 20
360.0
 11
478.068148347
 21
360.51763809
  0
LINE
  8
0
  6
CONTINUOUS
 62
     1
 10
480.0
 20
360.0
 11
478.068148347
 21
359.48236191
  0
LINE
  8
0
  6
CONTINUOUS
 62
     1
 10
480.0
 20
360.0
 11
380.0
 21
360.0
  0
LINE
  8
0
  6
CONTINUOUS
 62
     1
 10
380.0
 20
360.0
 11
381.931851653
 21
359.48236191
  0
LINE
  8
0
  6
CONTINUOUS
 62
     1
 10
380.0
 20
360.0
 11
381.931851653
 21
360.51763809
  0
LINE
  8
0
  6
CONTINUOUS
 62
     1
 10
380.0
 20
325.0
 11
380.0
 21
362.0
  0
TEXT
  8
0
  6
CONTINUOUS
 62
     1
 10
421.6
 20
362.0
 30
0.0
 40
6.0
  1
１００
 50
0.0
 41
0.666666667
 51
0.0
  7
KANJI0
  0
TEXT
  8
0
  6
CONTINUOUS
 62
     1
 10
433.6
 20
362.0
 30
0.0
 40
3.6
  1
±１
 50
0.0
 41
0.666666667
 51
0.0
  7
KANJI1
  0
LINE
  8
0
  6
CONTINUOUS
 62
     1
 10
463.0
 20
318.0
 11
507.0
 21
318.0
  0
LINE
  8
0
  6
CONTINUOUS
 62
     1
 10
505.0
 20
318.0
 11
504.48236191
 21
316.068148347
  0
LINE
  8
0
  6
CONTINUOUS
 62
     1
 10
505.0
 20
318.0
 11
505.51763809
 21
316.068148347
  0
LINE
  8
0
  6
CONTINUOUS
 62
     1
 10
505.0
 20
318.0
 11
505.0
 21
280.0
  0
LINE
  8
0
  6
CONTINUOUS
 62
     1
 10
505.0
 20
280.0
 11
505.51763809
 21
281.931851653
  0
LINE
  8
0
  6
CONTINUOUS
 62
     1
 10
505.0
 20
280.0
 11
504.48236191
 21
281.931851653
  0
LINE
  8
0
  6
CONTINUOUS
 62
     1
 10
460.0
 20
280.0
 11
507.0
 21
280.0
  0
TEXT
  8
0
  6
CONTINUOUS
 62
     1
 10
503.0
 20
292.6
 30
0.0
 40
6.0
  1
３８
 50
90.0
 41
0.666666667
 51
0.0
  7
KANJI0
  0
TEXT
  8
0
  6
CONTINUOUS
 62
     1
 10
503.0
 20
300.6
 30
0.0
 40
3.6
  1
±１
 50
90.0
 41
0.666666667
 51
0.0
  7
KANJI1
  0
LINE
  8
0
  6
CONTINUOUS
 62
     1
 10
505.0
 20
280.0
 11
504.48236191
 21
278.068148347
  0
LINE
  8
0
  6
CONTINUOUS
 62
     1
 10
505.0
 20
280.0
 11
505.51763809
 21
278.068148347
  0
LINE
  8
0
  6
CONTINUOUS
 62
     1
 10
505.0
 20
280.0
 11
505.0
 21
242.0
  0
LINE
  8
0
  6
CONTINUOUS
 62
     1
 10
505.0
 20
242.0
 11
505.51763809
 21
243.931851653
  0
LINE
  8
0
  6
CONTINUOUS
 62
     1
 10
505.0
 20
242.0
 11
504.48236191
 21
243.931851653
  0
LINE
  8
0
  6
CONTINUOUS
 62
     1
 10
462.0
 20
242.0
 11
507.0
 21
242.0
  0
TEXT
  8
0
  6
CONTINUOUS
 62
     1
 10
503.0
 20
254.6
 30
0.0
 40
6.0
  1
３８
 50
90.0
 41
0.666666667
 51
0.0
  7
KANJI0
  0
TEXT
  8
0
  6
CONTINUOUS
 62
     1
 10
503.0
 20
262.6
 30
0.0
 40
3.6
  1
±１
 50
90.0
 41
0.666666667
 51
0.0
  7
KANJI1
  0
LINE
  8
0
  6
CONTINUOUS
 62
     1
 10
475.0
 20
230.0
 11
522.0
 21
230.0
  0
LINE
  8
0
  6
CONTINUOUS
 62
     1
 10
520.0
 20
230.0
 11
520.51763809
 21
231.931851653
  0
LINE
  8
0
  6
CONTINUOUS
 62
     1
 10
520.0
 20
230.0
 11
519.48236191
 21
231.931851653
  0
LINE
  8
0
  6
CONTINUOUS
 62
     1
 10
520.0
 20
230.0
 11
520.0
 21
330.0
  0
LINE
  8
0
  6
CONTINUOUS
 62
     1
 10
520.0
 20
330.0
 11
519.48236191
 21
328.068148347
  0
LINE
  8
0
  6
CONTINUOUS
 62
     1
 10
520.0
 20
330.0
 11
520.51763809
 21
328.068148347
  0
LINE
  8
0
  6
CONTINUOUS
 62
     1
 10
475.0
 20
330.0
 11
522.0
 21
330.0
  0
TEXT
  8
0
  6
CONTINUOUS
 62
     1
 10
518.0
 20
271.6
 30
0.0
 40
6.0
  1
１００
 50
90.0
 41
0.666666667
 51
0.0
  7
KANJI0
  0
TEXT
  8
0
  6
CONTINUOUS
 62
     1
 10
518.0
 20
283.6
 30
0.0
 40
3.6
  1
±１
 50
90.0
 41
0.666666667
 51
0.0
  7
KANJI1
  0
LINE
  8
0
  6
CONTINUOUS
 62
     1
 10
468.0
 20
247.0
 11
468.0
 21
237.0
  0
LINE
  8
0
  6
CONTINUOUS
 62
     1
 10
392.0
 20
237.0
 11
392.0
 21
247.0
  0
LINE
  8
0
  6
CONTINUOUS
 62
     1
 10
387.0
 20
318.0
 11
397.0
 21
318.0
  0
LINE
  8
0
  6
CONTINUOUS
 62
     1
 10
387.0
 20
275.0
 11
385.562199524
 21
273.609773475
  0
LINE
  8
0
  6
CONTINUOUS
 62
     1
 10
387.0
 20
275.0
 11
386.449941525
 21
273.077128274
  0
LINE
  8
0
  6
CONTINUOUS
 62
     1
 10
387.0
 20
275.0
 11
372.0
 21
250.0
  0
LINE
  8
0
  6
CONTINUOUS
 62
     1
 10
372.0
 20
250.0
 11
342.6
 21
250.0
  0
TEXT
  8
0
  6
CONTINUOUS
 62
     1
 10
342.6
 20
252.0
 30
0.6
 40
6.0
  1
２－φ１０
 50
0.0
 41
0.9
 51
0.0
  7
KANJI2
  0
LINE
  8
0
  6
CONTINUOUS
 62
     1
 10
389.0
 20
239.0
 11
387.562199524
 21
237.609773475
  0
LINE
  8
0
  6
CONTINUOUS
 62
     1
 10
389.0
 20
239.0
 11
388.449941525
 21
237.077128274
  0
LINE
  8
0
  6
CONTINUOUS
 62
     1
 10
389.0
 20
239.0
 11
374.0
 21
214.0
  0
LINE
  8
0
  6
CONTINUOUS
 62
     1
 10
374.0
 20
214.0
 11
338.6
 21
214.0
  0
TEXT
  8
0
  6
CONTINUOUS
 62
     1
 10
338.6
 20
216.0
 30
0.6
 40
6.0
  1
４－φ６．３
 50
0.0
 41
0.9
 51
0.0
  7
KANJI2
  0
LINE
  8
0
  6
CONTINUOUS
 62
     1
 10
138.0
 20
247.0
 11
139.0
 21
245.267949192
  0
LINE
  8
0
  6
CONTINUOUS
 62
     1
 10
138.0
 20
247.0
 11
139.732050808
 21
246.0
  0
LINE
  8
0
  6
CONTINUOUS
 62
     1
 10
138.0
 20
247.0
 11
168.0
 21
217.0
  0
LINE
  8
0
  6
CONTINUOUS
 62
     1
 10
168.0
 20
217.0
 11
203.4
 21
217.0
  0
TEXT
  8
0
  6
CONTINUOUS
 62
     1
 10
168.0
 20
219.0
 30
0.6
 40
6.0
  1
２－φ６．３
 50
0.0
 41
0.9
 51
0.0
  7
KANJI2
  0
LINE
  8
0
  6
CONTINUOUS
 62
     1
 10
80.0
 20
237.0
 11
80.51763809
 21
238.931851653
  0
LINE
  8
0
  6
CONTINUOUS
 62
     1
 10
80.0
 20
237.0
 11
79.48236191
 21
238.931851653
  0
LINE
  8
0
  6
CONTINUOUS
 62
     1
 10
80.0
 20
237.0
 11
80.0
 21
323.0
  0
LINE
  8
0
  6
CONTINUOUS
 62
     1
 10
80.0
 20
323.0
 11
79.48236191
 21
321.068148347
  0
LINE
  8
0
  6
CONTINUOUS
 62
     1
 10
80.0
 20
323.0
 11
80.51763809
 21
321.068148347
  0
TEXT
  8
0
  6
CONTINUOUS
 62
     1
 10
78.0
 20
273.6
 30
0.0
 40
6.0
  1
８６
 50
90.0
 41
0.666666667
 51
0.0
  7
KANJI0
  0
TEXT
  8
0
  6
CONTINUOUS
 62
     1
 10
78.0
 20
281.6
 30
0.0
 40
3.6
  1
±２
 50
90.0
 41
0.666666667
 51
0.0
  7
KANJI1
  0
LINE
  8
0
  6
CONTINUOUS
 62
     1
 10
115.0
 20
323.0
 11
78.0
 21
323.0
  0
LINE
  8
0
  6
CONTINUOUS
 62
     1
 10
115.0
 20
237.0
 11
78.0
 21
237.0
  0
ARC
  8
0
  6
CONTINUOUS
 62
     1
 10
275.0
 20
280.0
 40
70.0
 50
70.0
 51
290.0
  0
LINE
  8
0
  6
CONTINUOUS
 62
     1
 10
298.941410033
 20
345.778483455
 11
297.303105944
 21
346.925636328
  0
LINE
  8
0
  6
CONTINUOUS
 62
     1
 10
298.941410033
 20
345.778483455
 11
296.949020637
 21
345.952794941
  0
LINE
  8
0
  6
CONTINUOUS
 62
     1
 10
298.941410033
 20
214.221516545
 11
296.949020637
 21
214.047205059
  0
LINE
  8
0
  6
CONTINUOUS
 62
     1
 10
298.941410033
 20
214.221516545
 11
297.303105944
 21
213.074363672
  0
LINE
  8
0
  6
CONTINUOUS
 62
     1
 10
278.420201433
 20
289.396926208
 11
299.625450319
 21
347.657868697
  0
LINE
  8
0
  6
CONTINUOUS
 62
     1
 10
278.420201433
 20
270.603073792
 11
299.625450319
 21
212.342131303
  0
TEXT
  8
0
  6
CONTINUOUS
 62
     1
 10
203.0
 20
272.0
 30
0.0
 40
6.0
  1
２２０゜
 50
90.0
 41
0.666666667
 51
0.0
  7
KANJI0
  0
LINE
  8
0
  6
CONTINUOUS
 62
     1
 10
430.0
 20
32.0
 11
570.0
 21
32.0
  0
LINE
  8
0
  6
CONTINUOUS
 62
     1
 10
570.0
 20
44.0
 11
430.0
 21
44.0
  0
LINE
  8
0
  6
CONTINUOUS
 62
     1
 10
430.0
 20
56.0
 11
570.0
 21
56.0
  0
LINE
  8
0
  6
CONTINUOUS
 62
     1
 10
570.0
 20
68.0
 11
430.0
 21
68.0
  0
LINE
  8
0
  6
CONTINUOUS
 62
     1
 10
430.0
 20
80.0
 11
570.0
 21
80.0
  0
LINE
  8
0
  6
CONTINUOUS
 62
     1
 10
570.0
 20
92.0
 11
430.0
 21
92.0
  0
LINE
  8
0
  6
CONTINUOUS
 62
     1
 10
430.0
 20
92.0
 11
430.0
 21
20.0
  0
TEXT
  8
0
  6
CONTINUOUS
 62
     1
 10
435.0
 20
71.0
 30
0.6
 40
6.0
  1
スピーカ天井吊下げ金具
 50
0.0
 41
0.9
 51
0.0
  7
KANJI2
  0
TEXT
  8
0
  6
CONTINUOUS
 62
     1
 10
435.0
 20
59.0
 30
0.6
 40
6.0
  1
黒色半艶消し焼付け塗装
 50
0.0
 41
0.9
 51
0.0
  7
KANJI2
  0
TEXT
  8
0
  6
CONTINUOUS
 62
     1
 10
435.0
 20
47.0
 30
0.6
 40
6.0
  1
自重　　０，５７ｋｇ
 50
0.0
 41
0.9
 51
0.0
  7
KANJI2
  0
TEXT
  8
0
  6
CONTINUOUS
 62
     1
 10
435.0
 20
35.0
 30
0.6
 40
6.0
  1
耐荷重　　１０ｋｇ（程度迄）
 50
0.0
 41
0.9
 51
0.0
  7
KANJI2
  0
TEXT
  8
0
  6
CONTINUOUS
 62
     1
 10
435.0
 20
82.0
 30
0.8
 40
8.0
  1
ＲＭ－１００
 50
0.0
 41
0.9
 51
0.0
  7
KANJI3
  0
LINE
  8
0
  6
CONTINUOUS
 62
     1
 10
153.0
 20
123.0
 11
154.502299416
 21
124.320263786
  0
LINE
  8
0
  6
CONTINUOUS
 62
     1
 10
153.0
 20
123.0
 11
153.640897565
 21
124.894531686
  0
LINE
  8
0
  6
CONTINUOUS
 62
     1
 10
153.0
 20
123.0
 11
163.0
 21
138.0
  0
LINE
  8
0
  6
CONTINUOUS
 62
     1
 10
163.0
 20
138.0
 11
216.4
 21
138.0
  0
TEXT
  8
0
  6
CONTINUOUS
 62
     1
 10
163.0
 20
140.0
 30
0.6
 40
6.0
  1
Ｍ８六角穴付ボルト
 50
0.0
 41
0.9
 51
0.0
  7
KANJI2
  0
ARC
  8
0
  6
CONTINUOUS
 62
     1
 10
183.51643606
 20
316.638056717
 40
3.401377492
 50
98.733076416
 51
174.650306316
  0
ARC
  8
0
  6
CONTINUOUS
 62
     1
 10
212.706187956
 20
303.136979257
 40
35.385857654
 50
157.014342246
 51
171.635975729
  0
ARC
  8
0
  6
CONTINUOUS
 62
     1
 10
292.439510375
 20
287.318581217
 40
116.642500352
 50
169.645200822
 51
176.072781292
  0
ARC
  8
0
  6
CONTINUOUS
 62
     1
 10
371.557014125
 20
280.352158974
 40
196.0573304
 50
175.625250323
 51
180.102914967
  0
ARC
  8
0
  6
CONTINUOUS
 62
     1
 10
379.09568583
 20
279.929003845
 40
203.595698209
 50
179.980020304
 51
184.291814405
  0
ARC
  8
0
  6
CONTINUOUS
 62
     1
 10
307.873727725
 20
274.615071469
 40
132.175786996
 50
184.305232365
 51
189.976785521
  0
ARC
  8
0
  6
CONTINUOUS
 62
     1
 10
223.044109161
 20
259.763981827
 40
46.056074225
 50
190.064051996
 51
201.285630029
  0
ARC
  8
0
  6
CONTINUOUS
 62
     1
 10
185.121130363
 20
244.874570104
 40
5.316072583
 50
200.132500332
 51
246.484116936
  0
ARC
  8
0
  6
CONTINUOUS
 62
     1
 10
182.48356394
 20
243.361943283
 40
3.401377492
 50
278.733076417
 51
354.650306316
  0
ARC
  8
0
  6
CONTINUOUS
 62
     1
 10
153.293812044
 20
256.863020743
 40
35.385857654
 50
337.014342246
 51
351.635975729
  0
ARC
  8
0
  6
CONTINUOUS
 62
     1
 10
73.560489625
 20
272.681418783
 40
116.642500352
 50
349.645200822
 51
356.072781292
  0
ARC
  8
0
  6
CONTINUOUS
 62
     1
 10
-5.557014125
 20
279.647841026
 40
196.0573304
 50
355.625250323
 51
0.102914967
  0
ARC
  8
0
  6
CONTINUOUS
 62
     1
 10
-13.09568583
 20
280.070996155
 40
203.595698209
 50
359.980020304
 51
4.291814405
  0
ARC
  8
0
  6
CONTINUOUS
 62
     1
 10
58.126272275
 20
285.384928531
 40
132.175786996
 50
4.305232365
 51
9.976785521
  0
ARC
  8
0
  6
CONTINUOUS
 62
     1
 10
142.955890839
 20
300.236018173
 40
46.056074225
 50
10.064051996
 51
21.285630029
  0
ARC
  8
0
  6
CONTINUOUS
 62
     1
 10
180.878869637
 20
315.125429896
 40
5.316072583
 50
20.132500331
 51
66.484116936
  0
LINE
  8
0
  6
CONTINUOUS
 62
     1
 10
188.5
 20
284.0
 11
192.5
 21
276.0
  0
LINE
  8
0
  6
CONTINUOUS
 62
     1
 10
192.5
 20
284.0
 11
188.5
 21
276.0
  0
TEXT
  8
0
  6
CONTINUOUS
 62
     1
 10
185.5
 20
272.0
 30
0.56
 40
5.6
  1
３６０゜
 50
90.0
 41
0.9
 51
0.0
  7
KANJI4
  0
TEXT
  8
0
  6
CONTINUOUS
 62
     1
 10
435.0
 20
23.0
 30
0.6
 40
6.0
  1
用紙　Ａ４　　尺度　　１／２
 50
0.0
 41
0.9
 51
0.0
  7
KANJI2
  0
ENDSEC
  0
EOF
