  0
SECTION
  2
HEADER
  9
$EXTMIN
 10
0.0
 20
0.0
 30
0.0
  9
$EXTMAX
 10
445.5
 20
315.0
 30
0.0
  9
$LIMMIN
 10
0.0
 20
0.0
  9
$LIMMAX
 10
445.5
 20
315.0
  9
$LTSCALE
 40
1.0
  9
$PDMODE
 70
     0
  0
ENDSEC
  0
SECTION
  2
TABLES
  0
TABLE
  2
LTYPE
 70
     3
  0
LTYPE
  2
CONTINUOUS
 70
    64
  3
Solid line
 72
    65
 73
     0
 40
0.0
  0
LTYPE
  2
LTYPE1
 70
    64
  3
HIDDEN
 72
    65
 73
     2
 40
6.75
 49
4.05
 49
-2.7
  0
LTYPE
  2
LTYPE2
 70
    64
  3
CENTER
 72
    65
 73
     4
 40
27.0
 49
18.9
 49
-2.7
 49
2.7
 49
-2.7
  0
ENDTAB
  0
TABLE
  2
LAYER
 70
   128
  0
LAYER
  2
0
 70
     0
 62
     7
  6
CONTINUOUS
  0
LAYER
  2
1
 70
     0
 62
     7
  6
CONTINUOUS
  0
LAYER
  2
2
 70
     0
 62
     7
  6
CONTINUOUS
  0
LAYER
  2
3
 70
     0
 62
     7
  6
CONTINUOUS
  0
LAYER
  2
4
 70
     0
 62
     7
  6
CONTINUOUS
  0
LAYER
  2
5
 70
     0
 62
     7
  6
CONTINUOUS
  0
LAYER
  2
6
 70
     0
 62
     7
  6
CONTINUOUS
  0
LAYER
  2
7
 70
     0
 62
     7
  6
CONTINUOUS
  0
LAYER
  2
8
 70
     0
 62
     7
  6
CONTINUOUS
  0
LAYER
  2
9
 70
     0
 62
     7
  6
CONTINUOUS
  0
LAYER
  2
10
 70
     0
 62
     7
  6
CONTINUOUS
  0
LAYER
  2
11
 70
     0
 62
     7
  6
CONTINUOUS
  0
LAYER
  2
12
 70
     0
 62
     7
  6
CONTINUOUS
  0
LAYER
  2
13
 70
     0
 62
     7
  6
CONTINUOUS
  0
LAYER
  2
14
 70
     0
 62
     7
  6
CONTINUOUS
  0
LAYER
  2
15
 70
     0
 62
     7
  6
CONTINUOUS
  0
LAYER
  2
16
 70
     0
 62
     7
  6
CONTINUOUS
  0
LAYER
  2
17
 70
     0
 62
     7
  6
CONTINUOUS
  0
LAYER
  2
18
 70
     0
 62
     7
  6
CONTINUOUS
  0
LAYER
  2
19
 70
     0
 62
     7
  6
CONTINUOUS
  0
LAYER
  2
20
 70
     0
 62
     7
  6
CONTINUOUS
  0
LAYER
  2
21
 70
     0
 62
     7
  6
CONTINUOUS
  0
LAYER
  2
22
 70
     0
 62
     7
  6
CONTINUOUS
  0
LAYER
  2
23
 70
     0
 62
     7
  6
CONTINUOUS
  0
LAYER
  2
24
 70
     0
 62
     7
  6
CONTINUOUS
  0
LAYER
  2
25
 70
     0
 62
     7
  6
CONTINUOUS
  0
LAYER
  2
26
 70
     0
 62
     7
  6
CONTINUOUS
  0
LAYER
  2
27
 70
     0
 62
     7
  6
CONTINUOUS
  0
LAYER
  2
28
 70
     0
 62
     7
  6
CONTINUOUS
  0
LAYER
  2
29
 70
     0
 62
     7
  6
CONTINUOUS
  0
LAYER
  2
30
 70
     0
 62
     7
  6
CONTINUOUS
  0
LAYER
  2
31
 70
     0
 62
     7
  6
CONTINUOUS
  0
LAYER
  2
32
 70
     0
 62
     7
  6
CONTINUOUS
  0
LAYER
  2
33
 70
     0
 62
     7
  6
CONTINUOUS
  0
LAYER
  2
34
 70
     0
 62
     7
  6
CONTINUOUS
  0
LAYER
  2
35
 70
     0
 62
     7
  6
CONTINUOUS
  0
LAYER
  2
36
 70
     0
 62
     7
  6
CONTINUOUS
  0
LAYER
  2
37
 70
     0
 62
     7
  6
CONTINUOUS
  0
LAYER
  2
38
 70
     0
 62
     7
  6
CONTINUOUS
  0
LAYER
  2
39
 70
     0
 62
     7
  6
CONTINUOUS
  0
LAYER
  2
40
 70
     0
 62
     7
  6
CONTINUOUS
  0
LAYER
  2
41
 70
     0
 62
     7
  6
CONTINUOUS
  0
LAYER
  2
42
 70
     0
 62
     7
  6
CONTINUOUS
  0
LAYER
  2
43
 70
     0
 62
     7
  6
CONTINUOUS
  0
LAYER
  2
44
 70
     0
 62
     7
  6
CONTINUOUS
  0
LAYER
  2
45
 70
     0
 62
     7
  6
CONTINUOUS
  0
LAYER
  2
46
 70
     0
 62
     7
  6
CONTINUOUS
  0
LAYER
  2
47
 70
     0
 62
     7
  6
CONTINUOUS
  0
LAYER
  2
48
 70
     0
 62
     7
  6
CONTINUOUS
  0
LAYER
  2
49
 70
     0
 62
     7
  6
CONTINUOUS
  0
LAYER
  2
50
 70
     0
 62
     7
  6
CONTINUOUS
  0
LAYER
  2
51
 70
     0
 62
     7
  6
CONTINUOUS
  0
LAYER
  2
52
 70
     0
 62
     7
  6
CONTINUOUS
  0
LAYER
  2
53
 70
     0
 62
     7
  6
CONTINUOUS
  0
LAYER
  2
54
 70
     0
 62
     7
  6
CONTINUOUS
  0
LAYER
  2
55
 70
     0
 62
     7
  6
CONTINUOUS
  0
LAYER
  2
56
 70
     0
 62
     7
  6
CONTINUOUS
  0
LAYER
  2
57
 70
     0
 62
     7
  6
CONTINUOUS
  0
LAYER
  2
58
 70
     0
 62
     7
  6
CONTINUOUS
  0
LAYER
  2
59
 70
     0
 62
     7
  6
CONTINUOUS
  0
LAYER
  2
60
 70
     0
 62
     7
  6
CONTINUOUS
  0
LAYER
  2
61
 70
     0
 62
     7
  6
CONTINUOUS
  0
LAYER
  2
62
 70
     0
 62
     7
  6
CONTINUOUS
  0
LAYER
  2
63
 70
     0
 62
     7
  6
CONTINUOUS
  0
LAYER
  2
64
 70
     0
 62
     7
  6
CONTINUOUS
  0
LAYER
  2
65
 70
     0
 62
     7
  6
CONTINUOUS
  0
LAYER
  2
66
 70
     0
 62
     7
  6
CONTINUOUS
  0
LAYER
  2
67
 70
     0
 62
     7
  6
CONTINUOUS
  0
LAYER
  2
68
 70
     0
 62
     7
  6
CONTINUOUS
  0
LAYER
  2
69
 70
     0
 62
     7
  6
CONTINUOUS
  0
LAYER
  2
70
 70
     0
 62
     7
  6
CONTINUOUS
  0
LAYER
  2
71
 70
     0
 62
     7
  6
CONTINUOUS
  0
LAYER
  2
72
 70
     0
 62
     7
  6
CONTINUOUS
  0
LAYER
  2
73
 70
     0
 62
     7
  6
CONTINUOUS
  0
LAYER
  2
74
 70
     0
 62
     7
  6
CONTINUOUS
  0
LAYER
  2
75
 70
     0
 62
     7
  6
CONTINUOUS
  0
LAYER
  2
76
 70
     0
 62
     7
  6
CONTINUOUS
  0
LAYER
  2
77
 70
     0
 62
     7
  6
CONTINUOUS
  0
LAYER
  2
78
 70
     0
 62
     7
  6
CONTINUOUS
  0
LAYER
  2
79
 70
     0
 62
     7
  6
CONTINUOUS
  0
LAYER
  2
80
 70
     0
 62
     7
  6
CONTINUOUS
  0
LAYER
  2
81
 70
     0
 62
     7
  6
CONTINUOUS
  0
LAYER
  2
82
 70
     0
 62
     7
  6
CONTINUOUS
  0
LAYER
  2
83
 70
     0
 62
     7
  6
CONTINUOUS
  0
LAYER
  2
84
 70
     0
 62
     7
  6
CONTINUOUS
  0
LAYER
  2
85
 70
     0
 62
     7
  6
CONTINUOUS
  0
LAYER
  2
86
 70
     0
 62
     7
  6
CONTINUOUS
  0
LAYER
  2
87
 70
     0
 62
     7
  6
CONTINUOUS
  0
LAYER
  2
88
 70
     0
 62
     7
  6
CONTINUOUS
  0
LAYER
  2
89
 70
     0
 62
     7
  6
CONTINUOUS
  0
LAYER
  2
90
 70
     0
 62
     7
  6
CONTINUOUS
  0
LAYER
  2
91
 70
     0
 62
     7
  6
CONTINUOUS
  0
LAYER
  2
92
 70
     0
 62
     7
  6
CONTINUOUS
  0
LAYER
  2
93
 70
     0
 62
     7
  6
CONTINUOUS
  0
LAYER
  2
94
 70
     0
 62
     7
  6
CONTINUOUS
  0
LAYER
  2
95
 70
     0
 62
     7
  6
CONTINUOUS
  0
LAYER
  2
96
 70
     0
 62
     7
  6
CONTINUOUS
  0
LAYER
  2
97
 70
     0
 62
     7
  6
CONTINUOUS
  0
LAYER
  2
98
 70
     0
 62
     7
  6
CONTINUOUS
  0
LAYER
  2
99
 70
     0
 62
     7
  6
CONTINUOUS
  0
LAYER
  2
100
 70
     0
 62
     7
  6
CONTINUOUS
  0
LAYER
  2
101
 70
     0
 62
     7
  6
CONTINUOUS
  0
LAYER
  2
102
 70
     0
 62
     7
  6
CONTINUOUS
  0
LAYER
  2
103
 70
     0
 62
     7
  6
CONTINUOUS
  0
LAYER
  2
104
 70
     0
 62
     7
  6
CONTINUOUS
  0
LAYER
  2
105
 70
     0
 62
     7
  6
CONTINUOUS
  0
LAYER
  2
106
 70
     0
 62
     7
  6
CONTINUOUS
  0
LAYER
  2
107
 70
     0
 62
     7
  6
CONTINUOUS
  0
LAYER
  2
108
 70
     0
 62
     7
  6
CONTINUOUS
  0
LAYER
  2
109
 70
     0
 62
     7
  6
CONTINUOUS
  0
LAYER
  2
110
 70
     0
 62
     7
  6
CONTINUOUS
  0
LAYER
  2
111
 70
     0
 62
     7
  6
CONTINUOUS
  0
LAYER
  2
112
 70
     0
 62
     7
  6
CONTINUOUS
  0
LAYER
  2
113
 70
     0
 62
     7
  6
CONTINUOUS
  0
LAYER
  2
114
 70
     0
 62
     7
  6
CONTINUOUS
  0
LAYER
  2
115
 70
     0
 62
     7
  6
CONTINUOUS
  0
LAYER
  2
116
 70
     0
 62
     7
  6
CONTINUOUS
  0
LAYER
  2
117
 70
     0
 62
     7
  6
CONTINUOUS
  0
LAYER
  2
118
 70
     0
 62
     7
  6
CONTINUOUS
  0
LAYER
  2
119
 70
     0
 62
     7
  6
CONTINUOUS
  0
LAYER
  2
120
 70
     0
 62
     7
  6
CONTINUOUS
  0
LAYER
  2
121
 70
     0
 62
     7
  6
CONTINUOUS
  0
LAYER
  2
122
 70
     0
 62
     7
  6
CONTINUOUS
  0
LAYER
  2
123
 70
     0
 62
     7
  6
CONTINUOUS
  0
LAYER
  2
124
 70
     0
 62
     7
  6
CONTINUOUS
  0
LAYER
  2
125
 70
     0
 62
     7
  6
CONTINUOUS
  0
LAYER
  2
126
 70
     0
 62
     7
  6
CONTINUOUS
  0
LAYER
  2
127
 70
     0
 62
     7
  6
CONTINUOUS
  0
ENDTAB
  0
TABLE
  2
STYLE
 70
     5
  0
STYLE
  2
STANDARD
 70
     0
 40
0.0
 41
1.0
 50
0.0
 71
     0
 42
0.2
  3
txt
  4

  0
STYLE
  2
KANJI0
 70
     0
 40
4.5
 41
0.9
 50
0.0
 71
     0
 42
4.5
  3

  4
bigfont
  0
STYLE
  2
KANJI1
 70
     0
 40
4.5
 41
0.6
 50
0.0
 71
     0
 42
4.5
  3

  4
bigfont
  0
STYLE
  2
KANJI2
 70
     0
 40
4.5
 41
1.0
 50
0.0
 71
     0
 42
4.5
  3

  4
bigfont
  0
STYLE
  2
KANJI3
 70
     0
 40
6.0
 41
0.9
 50
0.0
 71
     0
 42
6.0
  3

  4
bigfont
  0
ENDTAB
  0
TABLE
  2
VIEW
 70
     0
  0
ENDTAB
  0
ENDSEC
  0
SECTION
  2
BLOCKS
  0
ENDSEC
  0
SECTION
  2
ENTITIES
  0
CIRCLE
  8
0
  6
CONTINUOUS
 62
     3
 10
74.3
 20
170.45
 40
50.0
  0
CIRCLE
  8
0
  6
CONTINUOUS
 62
     3
 10
74.3
 20
170.45
 40
30.0
  0
CIRCLE
  8
0
  6
CONTINUOUS
 62
     3
 10
74.3
 20
170.45
 40
6.5
  0
CIRCLE
  8
0
  6
CONTINUOUS
 62
     1
 10
74.3
 20
170.45
 40
8.5
  0
CIRCLE
  8
0
  6
CONTINUOUS
 62
     1
 10
74.3
 20
170.45
 40
19.0
  0
CIRCLE
  8
0
  6
CONTINUOUS
 62
     3
 10
74.3
 20
170.45
 40
12.5
  0
CIRCLE
  8
0
  6
CONTINUOUS
 62
     3
 10
46.015728753
 20
142.165728753
 40
5.0
  0
CIRCLE
  8
0
  6
CONTINUOUS
 62
     3
 10
102.584271247
 20
142.165728753
 40
5.0
  0
CIRCLE
  8
0
  6
CONTINUOUS
 62
     3
 10
102.584271247
 20
198.734271247
 40
5.0
  0
CIRCLE
  8
0
  6
CONTINUOUS
 62
     3
 10
46.015728753
 20
198.734271247
 40
5.0
  0
CIRCLE
  8
0
  6
CONTINUOUS
 62
     3
 10
34.3
 20
170.45
 40
3.1
  0
CIRCLE
  8
0
  6
CONTINUOUS
 62
     3
 10
74.3
 20
130.45
 40
3.1
  0
CIRCLE
  8
0
  6
CONTINUOUS
 62
     3
 10
114.3
 20
170.45
 40
3.1
  0
CIRCLE
  8
0
  6
CONTINUOUS
 62
     3
 10
74.3
 20
210.45
 40
3.1
  0
ARC
  8
0
  6
CONTINUOUS
 62
     3
 10
390.3
 20
126.95
 40
5.0
 50
270.0
 51
0.0
  0
LINE
  8
0
  6
CONTINUOUS
 62
     3
 10
395.3
 20
126.95
 11
395.3
 21
213.95
  0
ARC
  8
0
  6
CONTINUOUS
 62
     3
 10
390.3
 20
213.95
 40
5.0
 50
0.0
 51
90.0
  0
LINE
  8
0
  6
CONTINUOUS
 62
     3
 10
390.3
 20
218.95
 11
360.3
 21
218.95
  0
ARC
  8
0
  6
CONTINUOUS
 62
     3
 10
360.3
 20
213.95
 40
5.0
 50
90.0
 51
180.0
  0
LINE
  8
0
  6
CONTINUOUS
 62
     3
 10
355.3
 20
213.95
 11
355.3
 21
126.95
  0
ARC
  8
0
  6
CONTINUOUS
 62
     3
 10
360.3
 20
126.95
 40
5.0
 50
180.0
 51
270.0
  0
LINE
  8
0
  6
CONTINUOUS
 62
     3
 10
360.3
 20
121.95
 11
390.3
 21
121.95
  0
LINE
  8
0
  6
CONTINUOUS
 62
     3
 10
355.3
 20
157.95
 11
395.3
 21
157.95
  0
LINE
  8
0
  6
CONTINUOUS
 62
     3
 10
395.3
 20
182.95
 11
355.3
 21
182.95
  0
ARC
  8
0
  6
CONTINUOUS
 62
     3
 10
375.3
 20
130.45
 40
3.1
 50
180.0
 51
0.0
  0
ARC
  8
0
  6
CONTINUOUS
 62
     3
 10
375.3
 20
140.45
 40
3.1
 50
0.0
 51
180.0
  0
LINE
  8
0
  6
CONTINUOUS
 62
     3
 10
372.2
 20
140.45
 11
372.2
 21
130.45
  0
LINE
  8
0
  6
CONTINUOUS
 62
     3
 10
378.4
 20
130.45
 11
378.4
 21
140.45
  0
ARC
  8
0
  6
CONTINUOUS
 62
     3
 10
375.3
 20
210.45
 40
3.1
 50
0.0
 51
180.0
  0
ARC
  8
0
  6
CONTINUOUS
 62
     3
 10
375.3
 20
200.45
 40
3.1
 50
180.0
 51
0.0
  0
LINE
  8
0
  6
CONTINUOUS
 62
     3
 10
372.2
 20
200.45
 11
372.2
 21
210.45
  0
LINE
  8
0
  6
CONTINUOUS
 62
     3
 10
378.4
 20
210.45
 11
378.4
 21
200.45
  0
CIRCLE
  8
0
  6
CONTINUOUS
 62
     1
 10
375.3
 20
170.45
 40
5.5
  0
LINE
  8
0
  6
CONTINUOUS
 62
     1
 10
355.3
 20
186.95
 11
395.3
 21
186.95
  0
LINE
  8
0
  6
CONTINUOUS
 62
     1
 10
395.3
 20
153.95
 11
355.3
 21
153.95
  0
POLYLINE
  8
1
  6
CONTINUOUS
 62
     1
 66
     1
 70
     1
  0
VERTEX
  8
1
  6
CONTINUOUS
 62
     1
 10
15.0
 20
15.0
  0
VERTEX
  8
1
  6
CONTINUOUS
 62
     1
 10
427.5
 20
15.0
  0
VERTEX
  8
1
  6
CONTINUOUS
 62
     1
 10
427.5
 20
300.0
  0
VERTEX
  8
1
  6
CONTINUOUS
 62
     1
 10
15.0
 20
300.0
  0
SEQEND
  0
LINE
  8
1
  6
CONTINUOUS
 62
     1
 10
322.5
 20
24.0
 11
427.5
 21
24.0
  0
LINE
  8
1
  6
CONTINUOUS
 62
     1
 10
427.5
 20
33.0
 11
322.5
 21
33.0
  0
LINE
  8
1
  6
CONTINUOUS
 62
     1
 10
322.5
 20
42.0
 11
427.5
 21
42.0
  0
LINE
  8
1
  6
CONTINUOUS
 62
     1
 10
427.5
 20
51.0
 11
322.5
 21
51.0
  0
LINE
  8
1
  6
CONTINUOUS
 62
     1
 10
322.5
 20
60.0
 11
427.5
 21
60.0
  0
LINE
  8
1
  6
CONTINUOUS
 62
     1
 10
427.5
 20
69.0
 11
322.5
 21
69.0
  0
LINE
  8
1
  6
CONTINUOUS
 62
     1
 10
322.5
 20
69.0
 11
322.5
 21
15.0
  0
TEXT
  8
1
  6
CONTINUOUS
 62
     1
 10
326.25
 20
44.25
 30
0.45
 40
4.5
  1
黒色半艶消し焼付け塗装
 50
0.0
 41
0.9
 51
0.0
  7
KANJI0
  0
TEXT
  8
1
  6
CONTINUOUS
 62
     1
 10
326.25
 20
26.25
 30
0.45
 40
4.5
  1
耐荷重　　８ｋｇ（程度迄）
 50
0.0
 41
0.9
 51
0.0
  7
KANJI0
  0
LINE
  8
6
  6
CONTINUOUS
 62
     1
 10
383.8
 20
200.45
 11
342.3
 21
200.45
  0
LINE
  8
6
  6
CONTINUOUS
 62
     1
 10
345.3
 20
200.45
 11
344.329428581
 21
196.827778151
  0
LINE
  8
6
  6
CONTINUOUS
 62
     1
 10
345.3
 20
200.45
 11
346.270571419
 21
196.827778151
  0
LINE
  8
6
  6
CONTINUOUS
 62
     1
 10
345.3
 20
200.45
 11
345.3
 21
140.45
  0
LINE
  8
6
  6
CONTINUOUS
 62
     1
 10
345.3
 20
140.45
 11
346.270571419
 21
144.072221849
  0
LINE
  8
6
  6
CONTINUOUS
 62
     1
 10
345.3
 20
140.45
 11
344.329428581
 21
144.072221849
  0
LINE
  8
6
  6
CONTINUOUS
 62
     1
 10
383.8
 20
140.45
 11
342.3
 21
140.45
  0
TEXT
  8
6
  6
CONTINUOUS
 62
     1
 10
342.3
 20
167.525
 30
0.45
 40
4.5
  1
６０
 50
90.0
 41
0.6
 51
0.0
  7
KANJI1
  0
LINE
  8
6
  6
CONTINUOUS
 62
     1
 10
383.8
 20
210.45
 11
332.3
 21
210.45
  0
LINE
  8
6
  6
CONTINUOUS
 62
     1
 10
335.3
 20
210.45
 11
334.329428581
 21
206.827778151
  0
LINE
  8
6
  6
CONTINUOUS
 62
     1
 10
335.3
 20
210.45
 11
336.270571419
 21
206.827778151
  0
LINE
  8
6
  6
CONTINUOUS
 62
     1
 10
335.3
 20
210.45
 11
335.3
 21
130.45
  0
LINE
  8
6
  6
CONTINUOUS
 62
     1
 10
335.3
 20
130.45
 11
336.270571419
 21
134.072221849
  0
LINE
  8
6
  6
CONTINUOUS
 62
     1
 10
335.3
 20
130.45
 11
334.329428581
 21
134.072221849
  0
LINE
  8
6
  6
CONTINUOUS
 62
     1
 10
383.8
 20
130.45
 11
332.3
 21
130.45
  0
TEXT
  8
6
  6
CONTINUOUS
 62
     1
 10
332.3
 20
167.525
 30
0.45
 40
4.5
  1
８０
 50
90.0
 41
0.6
 51
0.0
  7
KANJI1
  0
LINE
  8
6
  6
CONTINUOUS
 62
     1
 10
391.8
 20
218.95
 11
408.3
 21
218.95
  0
LINE
  8
6
  6
CONTINUOUS
 62
     1
 10
405.3
 20
218.95
 11
404.329428581
 21
215.327778151
  0
LINE
  8
6
  6
CONTINUOUS
 62
     1
 10
405.3
 20
218.95
 11
406.270571419
 21
215.327778151
  0
LINE
  8
6
  6
CONTINUOUS
 62
     1
 10
405.3
 20
218.95
 11
405.3
 21
121.95
  0
LINE
  8
6
  6
CONTINUOUS
 62
     1
 10
405.3
 20
121.95
 11
406.270571419
 21
125.572221849
  0
LINE
  8
6
  6
CONTINUOUS
 62
     1
 10
405.3
 20
121.95
 11
404.329428581
 21
125.572221849
  0
LINE
  8
6
  6
CONTINUOUS
 62
     1
 10
391.8
 20
121.95
 11
408.3
 21
121.95
  0
TEXT
  8
6
  6
CONTINUOUS
 62
     1
 10
402.3
 20
167.525
 30
0.45
 40
4.5
  1
９７
 50
90.0
 41
0.6
 51
0.0
  7
KANJI1
  0
LINE
  8
6
  6
CONTINUOUS
 62
     1
 10
378.4
 20
211.95
 11
378.4
 21
231.95
  0
LINE
  8
6
  6
CONTINUOUS
 62
     1
 10
378.4
 20
228.95
 11
382.022221849
 21
227.979428581
  0
LINE
  8
6
  6
CONTINUOUS
 62
     1
 10
378.4
 20
228.95
 11
382.022221849
 21
229.920571419
  0
LINE
  8
6
  6
CONTINUOUS
 62
     1
 10
384.025
 20
228.95
 11
378.4
 21
228.95
  0
LINE
  8
6
  6
CONTINUOUS
 62
     1
 10
378.4
 20
228.95
 11
372.2
 21
228.95
  0
LINE
  8
6
  6
CONTINUOUS
 62
     1
 10
372.2
 20
228.95
 11
357.575
 21
228.95
  0
LINE
  8
6
  6
CONTINUOUS
 62
     1
 10
372.2
 20
228.95
 11
368.577778151
 21
229.920571419
  0
LINE
  8
6
  6
CONTINUOUS
 62
     1
 10
372.2
 20
228.95
 11
368.577778151
 21
227.979428581
  0
LINE
  8
6
  6
CONTINUOUS
 62
     1
 10
372.2
 20
211.95
 11
372.2
 21
231.95
  0
TEXT
  8
6
  6
CONTINUOUS
 62
     1
 10
357.575
 20
231.95
 30
0.45
 40
4.5
  1
６．２
 50
0.0
 41
0.6
 51
0.0
  7
KANJI1
  0
LINE
  8
6
  6
CONTINUOUS
 62
     1
 10
395.3
 20
215.45
 11
395.3
 21
241.95
  0
LINE
  8
6
  6
CONTINUOUS
 62
     1
 10
395.3
 20
238.95
 11
391.677778151
 21
239.920571419
  0
LINE
  8
6
  6
CONTINUOUS
 62
     1
 10
395.3
 20
238.95
 11
391.677778151
 21
237.979428581
  0
LINE
  8
6
  6
CONTINUOUS
 62
     1
 10
395.3
 20
238.95
 11
355.3
 21
238.95
  0
LINE
  8
6
  6
CONTINUOUS
 62
     1
 10
355.3
 20
238.95
 11
358.922221849
 21
237.979428581
  0
LINE
  8
6
  6
CONTINUOUS
 62
     1
 10
355.3
 20
238.95
 11
358.922221849
 21
239.920571419
  0
LINE
  8
6
  6
CONTINUOUS
 62
     1
 10
355.3
 20
215.45
 11
355.3
 21
241.95
  0
TEXT
  8
6
  6
CONTINUOUS
 62
     1
 10
372.375
 20
241.95
 30
0.45
 40
4.5
  1
４０
 50
0.0
 41
0.6
 51
0.0
  7
KANJI1
  0
POLYLINE
  8
0
  6
CONTINUOUS
 62
     3
 66
     1
  0
VERTEX
  8
0
  6
CONTINUOUS
 62
     3
 10
170.3
 20
170.45
  0
VERTEX
  8
0
  6
CONTINUOUS
 62
     3
 10
170.3
 20
220.45
  0
VERTEX
  8
0
  6
CONTINUOUS
 62
     3
 10
172.9
 20
220.45
  0
SEQEND
  0
LINE
  8
0
  6
CONTINUOUS
 62
     3
 10
179.585212857
 20
192.093483929
 11
172.9
 21
200.45
  0
ARC
  8
0
  6
CONTINUOUS
 62
     3
 10
174.9
 20
188.345313644
 40
6.0
 50
0.0
 51
38.659808254
  0
LINE
  8
0
  6
CONTINUOUS
 62
     3
 10
180.9
 20
170.45
 11
180.9
 21
188.345313644
  0
LINE
  8
0
  6
CONTINUOUS
 62
     3
 10
172.9
 20
220.45
 11
172.9
 21
170.45
  0
LINE
  8
0
  6
CONTINUOUS
 62
     3
 10
170.3
 20
120.45
 11
172.9
 21
120.45
  0
LINE
  8
0
  6
CONTINUOUS
 62
     3
 10
179.585212857
 20
148.806516071
 11
172.9
 21
140.45
  0
ARC
  8
0
  6
CONTINUOUS
 62
     3
 10
174.9
 20
152.554686356
 40
6.0
 50
321.340191746
 51
0.0
  0
LINE
  8
0
  6
CONTINUOUS
 62
     3
 10
170.3
 20
170.45
 11
170.3
 21
120.45
  0
LINE
  8
0
  6
CONTINUOUS
 62
     3
 10
172.9
 20
120.45
 11
172.9
 21
170.45
  0
LINE
  8
0
  6
CONTINUOUS
 62
     3
 10
180.9
 20
170.45
 11
180.9
 21
152.554686356
  0
POINT
  8
0
  6
CONTINUOUS
 62
     3
 10
313.3
 20
170.45
  0
POINT
  8
0
  6
CONTINUOUS
 62
     1
 10
313.3
 20
170.45
  0
CIRCLE
  8
0
  6
CONTINUOUS
 62
     1
 10
281.3
 20
156.95
 40
7.0
  0
CIRCLE
  8
0
  6
CONTINUOUS
 62
     1
 10
281.3
 20
183.95
 40
7.0
  0
CIRCLE
  8
0
  6
CONTINUOUS
 62
     1
 10
303.1
 20
187.45
 40
3.5
  0
CIRCLE
  8
0
  6
CONTINUOUS
 62
     1
 10
303.1
 20
187.45
 40
4.0
  0
LINE
  8
0
  6
CONTINUOUS
 62
     3
 10
273.8
 20
183.95
 11
273.8
 21
156.95
  0
ARC
  8
0
  6
CONTINUOUS
 62
     3
 10
281.3
 20
156.95
 40
7.5
 50
180.0
 51
0.0
  0
LINE
  8
0
  6
CONTINUOUS
 62
     3
 10
288.8
 20
156.95
 11
288.8
 21
183.95
  0
ARC
  8
0
  6
CONTINUOUS
 62
     3
 10
281.3
 20
183.95
 40
7.5
 50
0.0
 51
180.0
  0
ARC
  8
0
  6
CONTINUOUS
 62
     3
 10
274.311885782
 20
157.87000269
 40
3.5
 50
98.8359416
 51
255.0
  0
ARC
  8
0
  6
CONTINUOUS
 62
     3
 10
281.3
 20
183.95
 40
30.5
 50
255.0
 51
256.92087622
  0
ARC
  8
0
  6
CONTINUOUS
 62
     3
 10
274.311885782
 20
157.87000269
 40
30.5
 50
60.0
 51
61.83914486
  0
ARC
  8
0
  6
CONTINUOUS
 62
     3
 10
287.811885782
 20
181.252688592
 40
3.5
 50
286.702307676
 51
60.0
  0
LINE
  8
0
  6
CONTINUOUS
 62
     3
 10
266.3
 20
170.45
 11
266.3
 21
155.45
  0
ARC
  8
0
  6
CONTINUOUS
 62
     3
 10
272.3
 20
155.45
 40
6.0
 50
180.0
 51
270.0
  0
ARC
  8
0
  6
CONTINUOUS
 62
     3
 10
272.3
 20
185.45
 40
6.0
 50
90.0
 51
180.0
  0
LINE
  8
0
  6
CONTINUOUS
 62
     3
 10
266.3
 20
170.45
 11
266.3
 21
185.45
  0
LINE
  8
0
  6
CONTINUOUS
 62
     1
 10
301.117949192
 20
186.883012702
 11
301.617949192
 21
186.016987298
  0
LINE
  8
0
  6
CONTINUOUS
 62
     1
 10
303.666987298
 20
185.467949192
 11
304.533012702
 21
185.967949192
  0
LINE
  8
0
  6
CONTINUOUS
 62
     1
 10
305.082050808
 20
188.016987298
 11
304.582050808
 21
188.883012702
  0
LINE
  8
0
  6
CONTINUOUS
 62
     1
 10
302.533012702
 20
189.432050808
 11
301.666987298
 21
188.932050808
  0
LINE
  8
0
  6
CONTINUOUS
 62
     1
 10
301.983974596
 20
187.383012702
 11
301.117949192
 21
186.883012702
  0
LINE
  8
0
  6
CONTINUOUS
 62
     1
 10
301.666987298
 20
188.932050808
 11
302.166987298
 21
188.066025404
  0
ARC
  8
0
  6
CONTINUOUS
 62
     1
 10
301.733974596
 20
187.816025404
 40
0.5
 50
300.0
 51
30.0
  0
LINE
  8
0
  6
CONTINUOUS
 62
     1
 10
301.617949192
 20
186.016987298
 11
302.483974596
 21
186.516987298
  0
LINE
  8
0
  6
CONTINUOUS
 62
     1
 10
303.166987298
 20
186.333974596
 11
303.666987298
 21
185.467949192
  0
ARC
  8
0
  6
CONTINUOUS
 62
     1
 10
302.733974596
 20
186.083974596
 40
0.5
 50
30.0
 51
120.0
  0
LINE
  8
0
  6
CONTINUOUS
 62
     1
 10
304.533012702
 20
185.967949192
 11
304.033012702
 21
186.833974596
  0
LINE
  8
0
  6
CONTINUOUS
 62
     1
 10
304.216025404
 20
187.516987298
 11
305.082050808
 21
188.016987298
  0
ARC
  8
0
  6
CONTINUOUS
 62
     1
 10
304.466025404
 20
187.083974596
 40
0.5
 50
120.0
 51
210.0
  0
LINE
  8
0
  6
CONTINUOUS
 62
     1
 10
304.582050808
 20
188.883012702
 11
303.716025404
 21
188.383012702
  0
LINE
  8
0
  6
CONTINUOUS
 62
     1
 10
303.033012702
 20
188.566025404
 11
302.533012702
 21
189.432050808
  0
ARC
  8
0
  6
CONTINUOUS
 62
     1
 10
303.466025404
 20
188.816025404
 40
0.5
 50
210.0
 51
300.0
  0
LINE
  8
0
  6
CONTINUOUS
 62
     3
 10
266.3
 20
158.95
 11
180.8
 21
158.95
  0
LINE
  8
0
  6
CONTINUOUS
 62
     3
 10
180.8
 20
181.95
 11
266.3
 21
181.95
  0
LINE
  8
0
  6
CONTINUOUS
 62
     3
 10
300.8
 20
170.45
 11
302.3
 21
170.45
  0
LINE
  8
0
  6
CONTINUOUS
 62
     3
 10
302.3
 20
170.45
 11
299.3
 21
167.45
  0
LINE
  8
0
  6
CONTINUOUS
 62
     3
 10
299.3
 20
167.45
 11
296.3
 21
170.45
  0
LINE
  8
0
  6
CONTINUOUS
 62
     3
 10
296.3
 20
170.45
 11
297.8
 21
170.45
  0
LINE
  8
0
  6
CONTINUOUS
 62
     3
 10
300.8
 20
172.45
 11
300.8
 21
170.45
  0
LINE
  8
0
  6
CONTINUOUS
 62
     3
 10
297.8
 20
170.45
 11
297.8
 21
172.45
  0
LINE
  8
0
  6
CONTINUOUS
 62
     3
 10
297.8
 20
172.45
 11
300.8
 21
172.45
  0
LINE
  8
0
  6
CONTINUOUS
 62
     3
 10
312.3
 20
170.45
 11
312.3
 21
191.45
  0
LINE
  8
0
  6
CONTINUOUS
 62
     3
 10
272.3
 20
191.45
 11
312.3
 21
191.45
  0
ARC
  8
0
  6
LTYPE1
 62
     1
 10
303.1
 20
187.45
 40
4.0
 50
90.0
 51
180.0
  0
LINE
  8
0
  6
CONTINUOUS
 62
     3
 10
315.3
 20
172.95
 11
315.3
 21
173.95
  0
LINE
  8
0
  6
CONTINUOUS
 62
     3
 10
315.3
 20
165.45
 11
315.3
 21
170.45
  0
LINE
  8
0
  6
CONTINUOUS
 62
     3
 10
318.3
 20
186.95
 11
314.271008489
 21
184.532605093
  0
ARC
  8
0
  6
CONTINUOUS
 62
     3
 10
315.3
 20
182.817619242
 40
2.0
 50
120.963756532
 51
180.0
  0
LINE
  8
0
  6
CONTINUOUS
 62
     3
 10
315.3
 20
182.95
 11
319.328991511
 21
185.367394907
  0
ARC
  8
0
  6
CONTINUOUS
 62
     3
 10
318.3
 20
187.082380758
 40
2.0
 50
300.963756532
 51
0.0
  0
ARC
  8
0
  6
CONTINUOUS
 62
     3
 10
315.3
 20
182.817619242
 40
2.0
 50
120.963756532
 51
180.0
  0
LINE
  8
0
  6
CONTINUOUS
 62
     3
 10
315.3
 20
170.45
 11
315.3
 21
157.95
  0
LINE
  8
0
  6
CONTINUOUS
 62
     3
 10
318.3
 20
153.95
 11
314.271008489
 21
156.367394907
  0
ARC
  8
0
  6
CONTINUOUS
 62
     3
 10
315.3
 20
158.082380758
 40
2.0
 50
180.0
 51
239.036243468
  0
LINE
  8
0
  6
CONTINUOUS
 62
     3
 10
315.3
 20
157.95
 11
319.328991511
 21
155.532605093
  0
ARC
  8
0
  6
CONTINUOUS
 62
     3
 10
318.3
 20
153.817619242
 40
2.0
 50
0.0
 51
59.036243468
  0
LINE
  8
0
  6
CONTINUOUS
 62
     3
 10
315.3
 20
170.4
 11
315.3
 21
182.95
  0
LINE
  8
0
  6
CONTINUOUS
 62
     3
 10
320.3
 20
218.95
 11
318.3
 21
218.95
  0
LINE
  8
0
  6
CONTINUOUS
 62
     3
 10
318.3
 20
218.95
 11
318.3
 21
186.95
  0
LINE
  8
0
  6
CONTINUOUS
 62
     3
 10
320.3
 20
187.05
 11
320.3
 21
218.95
  0
LINE
  8
0
  6
CONTINUOUS
 62
     3
 10
320.3
 20
121.95
 11
318.3
 21
121.95
  0
LINE
  8
0
  6
CONTINUOUS
 62
     3
 10
318.3
 20
121.95
 11
318.3
 21
153.95
  0
LINE
  8
0
  6
CONTINUOUS
 62
     3
 10
320.3
 20
153.85
 11
320.3
 21
121.95
  0
LINE
  8
0
  6
CONTINUOUS
 62
     1
 10
315.3
 20
164.95
 11
315.8
 21
164.95
  0
LINE
  8
0
  6
CONTINUOUS
 62
     1
 10
315.8
 20
164.95
 11
316.3
 21
170.45
  0
LINE
  8
0
  6
CONTINUOUS
 62
     1
 10
316.3
 20
170.45
 11
315.8
 21
175.95
  0
LINE
  8
0
  6
CONTINUOUS
 62
     1
 10
315.8
 20
175.95
 11
315.3
 21
175.95
  0
LINE
  8
0
  6
CONTINUOUS
 62
     3
 10
313.3
 20
158.05
 11
313.3
 21
182.75
  0
LINE
  8
0
  6
CONTINUOUS
 62
     3
 10
313.3
 20
162.45
 11
312.3
 21
162.45
  0
LINE
  8
0
  6
CONTINUOUS
 62
     3
 10
312.3
 20
178.45
 11
313.3
 21
178.45
  0
LINE
  8
0
  6
CONTINUOUS
 62
     3
 10
272.3
 20
149.45
 11
310.3
 21
149.45
  0
LINE
  8
0
  6
CONTINUOUS
 62
     3
 10
310.3
 20
151.55
 11
310.3
 21
149.45
  0
LINE
  8
0
  6
CONTINUOUS
 62
     3
 10
312.3
 20
151.55
 11
310.3
 21
151.55
  0
LINE
  8
0
  6
CONTINUOUS
 62
     3
 10
308.2
 20
149.45
 11
308.2
 21
147.45
  0
ARC
  8
0
  6
CONTINUOUS
 62
     3
 10
310.3
 20
149.45
 40
2.1
 50
90.0
 51
180.0
  0
LINE
  8
0
  6
CONTINUOUS
 62
     3
 10
285.3
 20
147.45
 11
285.3
 21
149.45
  0
LINE
  8
0
  6
CONTINUOUS
 62
     3
 10
312.3
 20
170.45
 11
312.3
 21
149.45
  0
LINE
  8
0
  6
CONTINUOUS
 62
     3
 10
310.3
 20
147.45
 11
285.3
 21
147.45
  0
ARC
  8
0
  6
CONTINUOUS
 62
     3
 10
310.3
 20
149.45
 40
2.0
 50
270.0
 51
0.0
  0
LINE
  8
6
  6
CONTINUOUS
 62
     1
 10
320.3
 20
220.45
 11
320.3
 21
231.95
  0
LINE
  8
6
  6
CONTINUOUS
 62
     1
 10
320.3
 20
228.95
 11
316.677778151
 21
229.920571419
  0
LINE
  8
6
  6
CONTINUOUS
 62
     1
 10
320.3
 20
228.95
 11
316.677778151
 21
227.979428581
  0
LINE
  8
6
  6
CONTINUOUS
 62
     1
 10
320.3
 20
228.95
 11
170.3
 21
228.95
  0
LINE
  8
6
  6
CONTINUOUS
 62
     1
 10
170.3
 20
228.95
 11
173.922221849
 21
227.979428581
  0
LINE
  8
6
  6
CONTINUOUS
 62
     1
 10
170.3
 20
228.95
 11
173.922221849
 21
229.920571419
  0
LINE
  8
6
  6
CONTINUOUS
 62
     1
 10
170.3
 20
221.95
 11
170.3
 21
231.95
  0
TEXT
  8
6
  6
CONTINUOUS
 62
     1
 10
240.8
 20
231.95
 30
0.45
 40
4.5
  1
１５０
 50
0.0
 41
0.6
 51
0.0
  7
KANJI1
  0
LINE
  8
0
  6
LTYPE2
 62
     1
 10
281.3
 20
156.95
 11
281.3
 21
183.95
  0
LINE
  8
0
  6
LTYPE2
 62
     1
 10
274.311885782
 20
157.87000269
 11
281.3
 21
183.95
  0
LINE
  8
0
  6
LTYPE2
 62
     1
 10
274.311885782
 20
157.87000269
 11
287.811885782
 21
181.252688592
  0
LINE
  8
6
  6
CONTINUOUS
 62
     1
 10
281.688228568
 20
185.398888739
 11
287.744895387
 21
208.002677035
  0
LINE
  8
6
  6
CONTINUOUS
 62
     1
 10
298.762467587
 20
200.219652651
 11
296.110817158
 21
202.87130308
  0
LINE
  8
6
  6
CONTINUOUS
 62
     1
 10
298.762467587
 20
200.219652651
 11
295.140245738
 21
201.19022407
  0
ARC
  8
6
  6
CONTINUOUS
 62
     1
 10
274.311885782
 20
157.87000269
 40
48.90116361
 50
60.0
 51
75.0
  0
LINE
  8
6
  6
CONTINUOUS
 62
     1
 10
286.968438252
 20
205.104899556
 11
290.216033516
 21
203.229899556
  0
LINE
  8
6
  6
CONTINUOUS
 62
     1
 10
286.968438252
 20
205.104899556
 11
290.718438252
 21
205.104899556
  0
LINE
  8
6
  6
CONTINUOUS
 62
     1
 10
288.561885782
 20
182.551726698
 11
300.262467587
 21
202.817728862
  0
TEXT
  8
6
  6
CONTINUOUS
 62
     1
 10
290.01614332
 20
207.542500908
 30
0.45
 40
4.5
  1
１５゜
 50
337.5
 41
0.6
 51
0.0
  7
KANJI1
  0
LINE
  8
6
  6
CONTINUOUS
 62
     1
 10
273.923657215
 20
156.421113951
 11
267.154822866
 21
131.159480255
  0
LINE
  8
6
  6
CONTINUOUS
 62
     1
 10
267.931280002
 20
134.057257734
 11
271.681280002
 21
134.057257734
  0
LINE
  8
6
  6
CONTINUOUS
 62
     1
 10
267.931280002
 20
134.057257734
 11
271.178875266
 21
132.182257734
  0
ARC
  8
6
  6
CONTINUOUS
 62
     1
 10
281.3
 20
183.95
 40
51.652767643
 50
255.0
 51
270.0
  0
LINE
  8
6
  6
CONTINUOUS
 62
     1
 10
281.3
 20
132.297232357
 11
277.677778151
 21
131.326660938
  0
LINE
  8
6
  6
CONTINUOUS
 62
     1
 10
281.3
 20
132.297232357
 11
277.677778151
 21
133.267803776
  0
LINE
  8
6
  6
CONTINUOUS
 62
     1
 10
281.3
 20
155.45
 11
281.3
 21
129.297232357
  0
TEXT
  8
6
  6
CONTINUOUS
 62
     1
 10
270.513672162
 20
136.495545055
 30
0.45
 40
4.5
  1
１５゜
 50
352.5
 41
0.6
 51
0.0
  7
KANJI1
  0
LINE
  8
6
  6
CONTINUOUS
 62
     1
 10
168.8
 20
120.45
 11
157.3
 21
120.45
  0
LINE
  8
6
  6
CONTINUOUS
 62
     1
 10
160.3
 20
120.45
 11
161.270571419
 21
124.072221849
  0
LINE
  8
6
  6
CONTINUOUS
 62
     1
 10
160.3
 20
120.45
 11
159.329428581
 21
124.072221849
  0
LINE
  8
6
  6
CONTINUOUS
 62
     1
 10
160.3
 20
120.45
 11
160.3
 21
220.45
  0
LINE
  8
6
  6
CONTINUOUS
 62
     1
 10
160.3
 20
220.45
 11
159.329428581
 21
216.827778151
  0
LINE
  8
6
  6
CONTINUOUS
 62
     1
 10
160.3
 20
220.45
 11
161.270571419
 21
216.827778151
  0
LINE
  8
6
  6
CONTINUOUS
 62
     1
 10
168.8
 20
220.45
 11
157.3
 21
220.45
  0
TEXT
  8
6
  6
CONTINUOUS
 62
     1
 10
157.3
 20
164.375
 30
0.45
 40
4.5
  1
φ１００
 50
90.0
 41
0.6
 51
0.0
  7
KANJI1
  0
LINE
  8
6
  6
CONTINUOUS
 62
     1
 10
47.076388924
 20
141.105068581
 11
90.563455967
 21
97.618001538
  0
LINE
  8
6
  6
CONTINUOUS
 62
     1
 10
88.442135624
 20
99.739321881
 11
91.689730888
 21
101.614321881
  0
LINE
  8
6
  6
CONTINUOUS
 62
     1
 10
88.442135624
 20
99.739321881
 11
90.317135624
 21
102.986917146
  0
LINE
  8
6
  6
CONTINUOUS
 62
     1
 10
88.442135624
 20
99.739321881
 11
145.010678119
 21
156.307864376
  0
LINE
  8
6
  6
CONTINUOUS
 62
     1
 10
145.010678119
 20
156.307864376
 11
141.763082854
 21
154.432864376
  0
LINE
  8
6
  6
CONTINUOUS
 62
     1
 10
145.010678119
 20
156.307864376
 11
143.135678119
 21
153.060269112
  0
LINE
  8
6
  6
CONTINUOUS
 62
     1
 10
103.644931419
 20
197.673611076
 11
147.131998462
 21
154.186544033
  0
LINE
  8
6
  6
CONTINUOUS
 62
     1
 10
47.076388924
 20
199.794931419
 11
90.563455967
 21
243.281998462
  0
LINE
  8
6
  6
CONTINUOUS
 62
     1
 10
88.442135624
 20
241.160678119
 11
90.317135624
 21
237.913082854
  0
LINE
  8
6
  6
CONTINUOUS
 62
     1
 10
88.442135624
 20
241.160678119
 11
91.689730888
 21
239.285678119
  0
LINE
  8
6
  6
CONTINUOUS
 62
     1
 10
88.442135624
 20
241.160678119
 11
145.010678119
 21
184.592135624
  0
LINE
  8
6
  6
CONTINUOUS
 62
     1
 10
145.010678119
 20
184.592135624
 11
143.135678119
 21
187.839730888
  0
LINE
  8
6
  6
CONTINUOUS
 62
     1
 10
145.010678119
 20
184.592135624
 11
141.763082854
 21
186.467135624
  0
LINE
  8
6
  6
CONTINUOUS
 62
     1
 10
103.644931419
 20
143.226388924
 11
147.131998462
 21
186.713455967
  0
TEXT
  8
6
  6
CONTINUOUS
 62
     1
 10
116.77943988
 20
217.06601455
 30
0.45
 40
4.5
  1
８０
 50
315.0
 41
0.6
 51
0.0
  7
KANJI1
  0
LINE
  8
6
  6
CONTINUOUS
 62
     1
 10
34.3
 20
178.95
 11
34.3
 21
92.45
  0
LINE
  8
6
  6
CONTINUOUS
 62
     1
 10
34.3
 20
95.45
 11
37.922221849
 21
94.479428581
  0
LINE
  8
6
  6
CONTINUOUS
 62
     1
 10
34.3
 20
95.45
 11
37.922221849
 21
96.420571419
  0
LINE
  8
6
  6
CONTINUOUS
 62
     1
 10
34.3
 20
95.45
 11
114.3
 21
95.45
  0
LINE
  8
6
  6
CONTINUOUS
 62
     1
 10
114.3
 20
95.45
 11
110.677778151
 21
96.420571419
  0
LINE
  8
6
  6
CONTINUOUS
 62
     1
 10
114.3
 20
95.45
 11
110.677778151
 21
94.479428581
  0
LINE
  8
6
  6
CONTINUOUS
 62
     1
 10
114.3
 20
178.95
 11
114.3
 21
92.45
  0
TEXT
  8
6
  6
CONTINUOUS
 62
     1
 10
71.375
 20
98.45
 30
0.45
 40
4.5
  1
８０
 50
0.0
 41
0.6
 51
0.0
  7
KANJI1
  0
LINE
  8
6
  6
CONTINUOUS
 62
     1
 10
65.8
 20
210.45
 11
152.3
 21
210.45
  0
LINE
  8
6
  6
CONTINUOUS
 62
     1
 10
149.3
 20
210.45
 11
148.329428581
 21
206.827778151
  0
LINE
  8
6
  6
CONTINUOUS
 62
     1
 10
149.3
 20
210.45
 11
150.270571419
 21
206.827778151
  0
LINE
  8
6
  6
CONTINUOUS
 62
     1
 10
149.3
 20
210.45
 11
149.3
 21
130.45
  0
LINE
  8
6
  6
CONTINUOUS
 62
     1
 10
149.3
 20
130.45
 11
150.270571419
 21
134.072221849
  0
LINE
  8
6
  6
CONTINUOUS
 62
     1
 10
149.3
 20
130.45
 11
148.329428581
 21
134.072221849
  0
LINE
  8
6
  6
CONTINUOUS
 62
     1
 10
65.8
 20
130.45
 11
152.3
 21
130.45
  0
TEXT
  8
6
  6
CONTINUOUS
 62
     1
 10
146.3
 20
167.525
 30
0.45
 40
4.5
  1
８０
 50
90.0
 41
0.6
 51
0.0
  7
KANJI1
  0
TEXT
  8
6
  6
CONTINUOUS
 62
     1
 10
101.930197475
 20
117.47002442
 30
0.45
 40
4.5
  1
８０
 50
45.0
 41
0.6
 51
0.0
  7
KANJI1
  0
LINE
  8
6
  6
CONTINUOUS
 62
     1
 10
70.742135624
 20
213.789321881
 11
69.781965357
 21
217.414314717
  0
LINE
  8
6
  6
CONTINUOUS
 62
     1
 10
70.742135624
 20
213.789321881
 11
68.098107363
 21
216.448572632
  0
LINE
  8
6
  6
CONTINUOUS
 62
     1
 10
70.742135624
 20
213.789321881
 11
57.092135624
 21
237.589321881
  0
LINE
  8
6
  6
CONTINUOUS
 62
     1
 10
57.092135624
 20
237.589321881
 11
39.092135624
 21
237.589321881
  0
TEXT
  8
6
  6
CONTINUOUS
 62
     1
 10
39.092135624
 20
240.589321881
 30
0.45
 40
4.5
  1
４－φ６．２
 50
0.0
 41
1.0
 51
0.0
  7
KANJI2
  0
LINE
  8
6
  6
CONTINUOUS
 62
     1
 10
107.442135624
 20
137.689321881
 11
109.225261499
 21
134.3903884
  0
LINE
  8
6
  6
CONTINUOUS
 62
     1
 10
107.442135624
 20
137.689321881
 11
110.63583467
 21
135.723924619
  0
LINE
  8
6
  6
CONTINUOUS
 62
     1
 10
107.442135624
 20
137.689321881
 11
132.542135624
 21
111.139321881
  0
LINE
  8
6
  6
CONTINUOUS
 62
     1
 10
132.542135624
 20
111.139321881
 11
147.842135624
 21
111.139321881
  0
TEXT
  8
6
  6
CONTINUOUS
 62
     1
 10
132.542135624
 20
114.139321881
 30
0.45
 40
4.5
  1
４－φ１０
 50
0.0
 41
1.0
 51
0.0
  7
KANJI2
  0
TEXT
  8
1
  6
CONTINUOUS
 62
     1
 10
326.25
 20
53.25
 30
0.45
 40
4.5
  1
スピーカ天井吊り下げ金具
 50
0.0
 41
0.9
 51
0.0
  7
KANJI0
  0
TEXT
  8
1
  6
CONTINUOUS
 62
     1
 10
326.25
 20
35.25
 30
0.45
 40
4.5
  1
自重　　０．６１ｋｇ
 50
0.0
 41
0.9
 51
0.0
  7
KANJI0
  0
TEXT
  8
1
  6
CONTINUOUS
 62
     1
 10
326.25
 20
17.25
 30
0.45
 40
4.5
  1
用紙　Ａ４　　尺度　　２／３
 50
0.0
 41
0.9
 51
0.0
  7
KANJI0
  0
TEXT
  8
1
  6
CONTINUOUS
 62
     1
 10
326.25
 20
61.5
 30
0.6
 40
6.0
  1
ＰＬ－Ｈ１５
 50
0.0
 41
0.9
 51
0.0
  7
KANJI3
  0
ENDSEC
  0
EOF
