  0
SECTION
  2
HEADER
  9
$ACADVER
  1
AC1015
  9
$ACADMAINTVER
 70
     6
  9
$DWGCODEPAGE
  3
ANSI_932
  9
$INSBASE
 10
0.0
 20
0.0
 30
0.0
  9
$EXTMIN
 10
0.0
 20
0.0
 30
0.0
  9
$EXTMAX
 10
1470.0
 20
2079.0
 30
0.0
  9
$LIMMIN
 10
0.0
 20
0.0
  9
$LIMMAX
 10
1470.0
 20
2079.0
  9
$ORTHOMODE
 70
     0
  9
$REGENMODE
 70
     1
  9
$FILLMODE
 70
     1
  9
$QTEXTMODE
 70
     0
  9
$MIRRTEXT
 70
     1
  9
$LTSCALE
 40
7.0
  9
$ATTMODE
 70
     1
  9
$TEXTSIZE
 40
2.5
  9
$TRACEWID
 40
1.0
  9
$TEXTSTYLE
  7
Standard
  9
$CLAYER
  8
0
  9
$CELTYPE
  6
ByLayer
  9
$CECOLOR
 62
   256
  9
$CELTSCALE
 40
1.0
  9
$DISPSILH
 70
     0
  9
$DIMSCALE
 40
1.0
  9
$DIMASZ
 40
2.5
  9
$DIMEXO
 40
0.625
  9
$DIMDLI
 40
3.75
  9
$DIMRND
 40
0.0
  9
$DIMDLE
 40
0.0
  9
$DIMEXE
 40
1.25
  9
$DIMTP
 40
0.0
  9
$DIMTM
 40
0.0
  9
$DIMTXT
 40
2.5
  9
$DIMCEN
 40
2.5
  9
$DIMTSZ
 40
0.0
  9
$DIMTOL
 70
     0
  9
$DIMLIM
 70
     0
  9
$DIMTIH
 70
     0
  9
$DIMTOH
 70
     0
  9
$DIMSE1
 70
     0
  9
$DIMSE2
 70
     0
  9
$DIMTAD
 70
     1
  9
$DIMZIN
 70
     8
  9
$DIMBLK
  1

  9
$DIMASO
 70
     1
  9
$DIMSHO
 70
     1
  9
$DIMPOST
  1

  9
$DIMAPOST
  1

  9
$DIMALT
 70
     0
  9
$DIMALTD
 70
     3
  9
$DIMALTF
 40
0.03937007874016
  9
$DIMLFAC
 40
1.0
  9
$DIMTOFL
 70
     1
  9
$DIMTVP
 40
0.0
  9
$DIMTIX
 70
     0
  9
$DIMSOXD
 70
     0
  9
$DIMSAH
 70
     0
  9
$DIMBLK1
  1

  9
$DIMBLK2
  1

  9
$DIMSTYLE
  2
ISO-25
  9
$DIMCLRD
 70
     0
  9
$DIMCLRE
 70
     0
  9
$DIMCLRT
 70
     0
  9
$DIMTFAC
 40
1.0
  9
$DIMGAP
 40
0.625
  9
$DIMJUST
 70
     0
  9
$DIMSD1
 70
     0
  9
$DIMSD2
 70
     0
  9
$DIMTOLJ
 70
     0
  9
$DIMTZIN
 70
     8
  9
$DIMALTZ
 70
     0
  9
$DIMALTTZ
 70
     0
  9
$DIMUPT
 70
     0
  9
$DIMDEC
 70
     2
  9
$DIMTDEC
 70
     2
  9
$DIMALTU
 70
     2
  9
$DIMALTTD
 70
     3
  9
$DIMTXSTY
  7
Standard
  9
$DIMAUNIT
 70
     0
  9
$DIMADEC
 70
     0
  9
$DIMALTRND
 40
0.0
  9
$DIMAZIN
 70
     0
  9
$DIMDSEP
 70
    46
  9
$DIMATFIT
 70
     3
  9
$DIMFRAC
 70
     0
  9
$DIMLDRBLK
  1

  9
$DIMLUNIT
 70
     2
  9
$DIMLWD
 70
    -2
  9
$DIMLWE
 70
    -2
  9
$DIMTMOVE
 70
     0
  9
$LUNITS
 70
     2
  9
$LUPREC
 70
     4
  9
$SKETCHINC
 40
1.0
  9
$FILLETRAD
 40
10.0
  9
$AUNITS
 70
     0
  9
$AUPREC
 70
     0
  9
$MENU
  1
.
  9
$ELEVATION
 40
0.0
  9
$PELEVATION
 40
0.0
  9
$THICKNESS
 40
0.0
  9
$LIMCHECK
 70
     0
  9
$CHAMFERA
 40
10.0
  9
$CHAMFERB
 40
10.0
  9
$CHAMFERC
 40
20.0
  9
$CHAMFERD
 40
0.0
  9
$SKPOLY
 70
     0
  9
$TDCREATE
 40
2456786.000000
  9
$TDUCREATE
 40
0.000000000
  9
$TDUPDATE
 40
2456786.000000
  9
$TDUUPDATE
 40
2456786.000000
  9
$TDINDWG
 40
0.0
  9
$TDUSRTIMER
 40
0.0
  9
$USRTIMER
 70
     1
  9
$ANGBASE
 50
0.0
  9
$ANGDIR
 70
     0
  9
$PDMODE
 70
     0
  9
$PDSIZE
 40
0.0
  9
$PLINEWID
 40
0.0
  9
$SPLFRAME
 70
     0
  9
$SPLINETYPE
 70
     6
  9
$SPLINESEGS
 70
     8
  9
$HANDSEED
  5
022D
  9
$SURFTAB1
 70
     6
  9
$SURFTAB2
 70
     6
  9
$SURFTYPE
 70
     6
  9
$SURFU
 70
     6
  9
$SURFV
 70
     6
  9
$UCSBASE
  2

  9
$UCSNAME
  2

  9
$UCSORG
 10
0.0
 20
0.0
 30
0.0
  9
$UCSXDIR
 10
1.0
 20
0.0
 30
0.0
  9
$UCSYDIR
 10
0.0
 20
1.0
 30
0.0
  9
$UCSORTHOREF
  2

  9
$UCSORTHOVIEW
 70
     0
  9
$UCSORGTOP
 10
0.0
 20
0.0
 30
0.0
  9
$UCSORGBOTTOM
 10
0.0
 20
0.0
 30
0.0
  9
$UCSORGLEFT
 10
0.0
 20
0.0
 30
0.0
  9
$UCSORGRIGHT
 10
0.0
 20
0.0
 30
0.0
  9
$UCSORGFRONT
 10
0.0
 20
0.0
 30
0.0
  9
$UCSORGBACK
 10
0.0
 20
0.0
 30
0.0
  9
$PUCSBASE
  2

  9
$PUCSNAME
  2

  9
$PUCSORG
 10
0.0
 20
0.0
 30
0.0
  9
$PUCSXDIR
 10
1.0
 20
0.0
 30
0.0
  9
$PUCSYDIR
 10
0.0
 20
1.0
 30
0.0
  9
$PUCSORTHOREF
  2

  9
$PUCSORTHOVIEW
 70
     0
  9
$PUCSORGTOP
 10
0.0
 20
0.0
 30
0.0
  9
$PUCSORGBOTTOM
 10
0.0
 20
0.0
 30
0.0
  9
$PUCSORGLEFT
 10
0.0
 20
0.0
 30
0.0
  9
$PUCSORGRIGHT
 10
0.0
 20
0.0
 30
0.0
  9
$PUCSORGFRONT
 10
0.0
 20
0.0
 30
0.0
  9
$PUCSORGBACK
 10
0.0
 20
0.0
 30
0.0
  9
$USERI1
 70
     0
  9
$USERI2
 70
     0
  9
$USERI3
 70
     0
  9
$USERI4
 70
     0
  9
$USERI5
 70
     0
  9
$USERR1
 40
0.0
  9
$USERR2
 40
0.0
  9
$USERR3
 40
0.0
  9
$USERR4
 40
0.0
  9
$USERR5
 40
0.0
  9
$WORLDVIEW
 70
     1
  9
$SHADEDGE
 70
     3
  9
$SHADEDIF
 70
    70
  9
$TILEMODE
 70
     1
  9
$MAXACTVP
 70
    64
  9
$PINSBASE
 10
0.0
 20
0.0
 30
0.0
  9
$PLIMCHECK
 70
     0
  9
$PEXTMIN
 10
1.000000E+20
 20
1.000000E+20
 30
1.000000E+20
  9
$PEXTMAX
 10
-1.000000E+20
 20
-1.000000E+20
 30
-1.000000E+20
  9
$PLIMMIN
 10
0.0
 20
0.0
  9
$PLIMMAX
 10
0.0
 20
0.0
  9
$UNITMODE
 70
     0
  9
$VISRETAIN
 70
     0
  9
$PLINEGEN
 70
     0
  9
$PSLTSCALE
 70
     1
  9
$TREEDEPTH
 70
  3020
  9
$CMLSTYLE
  2
STANDARD
  9
$CMLJUST
 70
     0
  9
$CMLSCALE
 40
20.0
  9
$PROXYGRAPHICS
 70
     1
  9
$MEASUREMENT
 70
     1
  9
$CELWEIGHT
370
    -1
  9
$ENDCAPS
280
     0
  9
$JOINSTYLE
280
     0
  9
$LWDISPLAY
290
     0
  9
$INSUNITS
 70
     4
  9
$HYPERLINKBASE
  1

  9
$STYLESHEET
  1

  9
$XEDIT
290
     1
  9
$CEPSNTYPE
380
     0
  9
$PSTYLEMODE
290
     1
  9
$FINGERPRINTGUID
  2
{40C1DD5E-4C62-EC9B-9AAB-BC69B604E591}
  9
$VERSIONGUID
  2
{A68D302F-AD2F-6871-6E9C-55530A3F4245}
  9
$EXTNAMES
290
     1
  9
$PSVPSCALE
 40
0.0
  0
ENDSEC
  0
SECTION
  2
CLASSES
  0
ENDSEC
  0
SECTION
  2
TABLES
  0
TABLE
  2
VPORT
  5
8
330
0
100
AcDbSymbolTable
 70
     3
  0
VPORT
  5
29
330
8
100
AcDbSymbolTableRecord
100
AcDbViewportTableRecord
  2
*Active
 70
     0
 10
0.0
 20
0.0
 11
1.0
 21
1.0
 12
735.0
 22
1039.5
 13
0.0
 23
0.0
 14
10.0
 24
10.0
 15
0.0
 25
0.0
 16
0.0
 26
0.0
 36
1.0
 17
0.0
 27
0.0
 37
0.0
 40
2079.0
 41
0.707070707
 42
50.0
 43
0.0
 44
0.0
 50
0.0
 51
0.0
 71
     0
 72
  1000
 73
     1
 74
     3
 75
     0
 76
     0
 77
     0
 78
     0
281
     0
 65
     0
110
0.0
120
0.0
130
0.0
111
1.0
121
0.0
131
0.0
112
0.0
122
1.0
132
0.0
 79
     0
146
0.0
  0
ENDTAB
  0
TABLE
  2
LTYPE
  5
5
330
0
100
AcDbSymbolTable
 70
     5
  0
LTYPE
  5
14
330
5
100
AcDbSymbolTableRecord
100
AcDbLinetypeTableRecord
  2
ByBlock
 70
     0
  3

 72
    65
 73
     0
 40
0.0
  0
LTYPE
  5
15
330
5
100
AcDbSymbolTableRecord
100
AcDbLinetypeTableRecord
  2
ByLayer
 70
     0
  3

 72
    65
 73
     0
 40
0.0
  0
LTYPE
  5
16
330
5
100
AcDbSymbolTableRecord
100
AcDbLinetypeTableRecord
  2
Continuous
 70
     0
  3
Solid line
 72
    65
 73
     0
 40
0.0
  0
LTYPE
  5
BB
330
5
100
AcDbSymbolTableRecord
100
AcDbLinetypeTableRecord
  2
LTYPE1
 70
     0
  3
HIDDEN
 72
    65
 73
     2
 40
2.0
 49
1.2
 74
     0
 49
-0.8
 74
     0
  0
LTYPE
  5
C3
330
5
100
AcDbSymbolTableRecord
100
AcDbLinetypeTableRecord
  2
LTYPE2
 70
     0
  3
CENTER
 72
    65
 73
     4
 40
15.0
 49
10.5
 74
     0
 49
-1.5
 74
     0
 49
1.5
 74
     0
 49
-1.5
 74
     0
  0
ENDTAB
  0
TABLE
  2
LAYER
  5
2
330
0
100
AcDbSymbolTable
 70
   128
  0
LAYER
  5
10
330
2
100
AcDbSymbolTableRecord
100
AcDbLayerTableRecord
  2
0
 70
     0
 62
     7
  6
Continuous
290
     1
370
    -3
390
F
  0
LAYER
  5
2A
330
2
100
AcDbSymbolTableRecord
100
AcDbLayerTableRecord
  2
2
 70
     0
 62
     7
  6
Continuous
290
     1
370
    -3
390
F
  0
LAYER
  5
2B
330
2
100
AcDbSymbolTableRecord
100
AcDbLayerTableRecord
  2
3
 70
     0
 62
     7
  6
Continuous
290
     1
370
    -3
390
F
  0
LAYER
  5
2C
330
2
100
AcDbSymbolTableRecord
100
AcDbLayerTableRecord
  2
4
 70
     0
 62
     7
  6
Continuous
290
     1
370
    -3
390
F
  0
LAYER
  5
2D
330
2
100
AcDbSymbolTableRecord
100
AcDbLayerTableRecord
  2
5
 70
     0
 62
     7
  6
Continuous
290
     1
370
    -3
390
F
  0
LAYER
  5
2E
330
2
100
AcDbSymbolTableRecord
100
AcDbLayerTableRecord
  2
6
 70
     0
 62
     7
  6
Continuous
290
     1
370
    -3
390
F
  0
LAYER
  5
2F
330
2
100
AcDbSymbolTableRecord
100
AcDbLayerTableRecord
  2
7
 70
     0
 62
     7
  6
Continuous
290
     1
370
    -3
390
F
  0
LAYER
  5
30
330
2
100
AcDbSymbolTableRecord
100
AcDbLayerTableRecord
  2
8
 70
     0
 62
     7
  6
Continuous
290
     1
370
    -3
390
F
  0
LAYER
  5
31
330
2
100
AcDbSymbolTableRecord
100
AcDbLayerTableRecord
  2
9
 70
     0
 62
     7
  6
Continuous
290
     1
370
    -3
390
F
  0
LAYER
  5
32
330
2
100
AcDbSymbolTableRecord
100
AcDbLayerTableRecord
  2
10
 70
     0
 62
     7
  6
Continuous
290
     1
370
    -3
390
F
  0
LAYER
  5
33
330
2
100
AcDbSymbolTableRecord
100
AcDbLayerTableRecord
  2
11
 70
     0
 62
     7
  6
Continuous
290
     1
370
    -3
390
F
  0
LAYER
  5
34
330
2
100
AcDbSymbolTableRecord
100
AcDbLayerTableRecord
  2
12
 70
     0
 62
     7
  6
Continuous
290
     1
370
    -3
390
F
  0
LAYER
  5
35
330
2
100
AcDbSymbolTableRecord
100
AcDbLayerTableRecord
  2
13
 70
     0
 62
     7
  6
Continuous
290
     1
370
    -3
390
F
  0
LAYER
  5
36
330
2
100
AcDbSymbolTableRecord
100
AcDbLayerTableRecord
  2
14
 70
     0
 62
     7
  6
Continuous
290
     1
370
    -3
390
F
  0
LAYER
  5
37
330
2
100
AcDbSymbolTableRecord
100
AcDbLayerTableRecord
  2
15
 70
     0
 62
     7
  6
Continuous
290
     1
370
    -3
390
F
  0
LAYER
  5
38
330
2
100
AcDbSymbolTableRecord
100
AcDbLayerTableRecord
  2
16
 70
     0
 62
     7
  6
Continuous
290
     1
370
    -3
390
F
  0
LAYER
  5
39
330
2
100
AcDbSymbolTableRecord
100
AcDbLayerTableRecord
  2
17
 70
     0
 62
     7
  6
Continuous
290
     1
370
    -3
390
F
  0
LAYER
  5
3A
330
2
100
AcDbSymbolTableRecord
100
AcDbLayerTableRecord
  2
18
 70
     0
 62
     7
  6
Continuous
290
     1
370
    -3
390
F
  0
LAYER
  5
3B
330
2
100
AcDbSymbolTableRecord
100
AcDbLayerTableRecord
  2
19
 70
     0
 62
     7
  6
Continuous
290
     1
370
    -3
390
F
  0
LAYER
  5
3C
330
2
100
AcDbSymbolTableRecord
100
AcDbLayerTableRecord
  2
20
 70
     0
 62
     7
  6
Continuous
290
     1
370
    -3
390
F
  0
LAYER
  5
3D
330
2
100
AcDbSymbolTableRecord
100
AcDbLayerTableRecord
  2
21
 70
     0
 62
     7
  6
Continuous
290
     1
370
    -3
390
F
  0
LAYER
  5
3E
330
2
100
AcDbSymbolTableRecord
100
AcDbLayerTableRecord
  2
22
 70
     0
 62
     7
  6
Continuous
290
     1
370
    -3
390
F
  0
LAYER
  5
3F
330
2
100
AcDbSymbolTableRecord
100
AcDbLayerTableRecord
  2
23
 70
     0
 62
     7
  6
Continuous
290
     1
370
    -3
390
F
  0
LAYER
  5
40
330
2
100
AcDbSymbolTableRecord
100
AcDbLayerTableRecord
  2
24
 70
     0
 62
     7
  6
Continuous
290
     1
370
    -3
390
F
  0
LAYER
  5
41
330
2
100
AcDbSymbolTableRecord
100
AcDbLayerTableRecord
  2
25
 70
     0
 62
     7
  6
Continuous
290
     1
370
    -3
390
F
  0
LAYER
  5
42
330
2
100
AcDbSymbolTableRecord
100
AcDbLayerTableRecord
  2
26
 70
     0
 62
     7
  6
Continuous
290
     1
370
    -3
390
F
  0
LAYER
  5
43
330
2
100
AcDbSymbolTableRecord
100
AcDbLayerTableRecord
  2
27
 70
     0
 62
     7
  6
Continuous
290
     1
370
    -3
390
F
  0
LAYER
  5
44
330
2
100
AcDbSymbolTableRecord
100
AcDbLayerTableRecord
  2
28
 70
     0
 62
     7
  6
Continuous
290
     1
370
    -3
390
F
  0
LAYER
  5
45
330
2
100
AcDbSymbolTableRecord
100
AcDbLayerTableRecord
  2
29
 70
     0
 62
     7
  6
Continuous
290
     1
370
    -3
390
F
  0
LAYER
  5
46
330
2
100
AcDbSymbolTableRecord
100
AcDbLayerTableRecord
  2
30
 70
     0
 62
     7
  6
Continuous
290
     1
370
    -3
390
F
  0
LAYER
  5
47
330
2
100
AcDbSymbolTableRecord
100
AcDbLayerTableRecord
  2
31
 70
     0
 62
     7
  6
Continuous
290
     1
370
    -3
390
F
  0
LAYER
  5
48
330
2
100
AcDbSymbolTableRecord
100
AcDbLayerTableRecord
  2
32
 70
     0
 62
     7
  6
Continuous
290
     1
370
    -3
390
F
  0
LAYER
  5
49
330
2
100
AcDbSymbolTableRecord
100
AcDbLayerTableRecord
  2
33
 70
     0
 62
     7
  6
Continuous
290
     1
370
    -3
390
F
  0
LAYER
  5
4A
330
2
100
AcDbSymbolTableRecord
100
AcDbLayerTableRecord
  2
34
 70
     0
 62
     7
  6
Continuous
290
     1
370
    -3
390
F
  0
LAYER
  5
4B
330
2
100
AcDbSymbolTableRecord
100
AcDbLayerTableRecord
  2
35
 70
     0
 62
     7
  6
Continuous
290
     1
370
    -3
390
F
  0
LAYER
  5
4C
330
2
100
AcDbSymbolTableRecord
100
AcDbLayerTableRecord
  2
36
 70
     0
 62
     7
  6
Continuous
290
     1
370
    -3
390
F
  0
LAYER
  5
4D
330
2
100
AcDbSymbolTableRecord
100
AcDbLayerTableRecord
  2
37
 70
     0
 62
     7
  6
Continuous
290
     1
370
    -3
390
F
  0
LAYER
  5
4E
330
2
100
AcDbSymbolTableRecord
100
AcDbLayerTableRecord
  2
38
 70
     0
 62
     7
  6
Continuous
290
     1
370
    -3
390
F
  0
LAYER
  5
4F
330
2
100
AcDbSymbolTableRecord
100
AcDbLayerTableRecord
  2
39
 70
     0
 62
     7
  6
Continuous
290
     1
370
    -3
390
F
  0
LAYER
  5
50
330
2
100
AcDbSymbolTableRecord
100
AcDbLayerTableRecord
  2
40
 70
     0
 62
     7
  6
Continuous
290
     1
370
    -3
390
F
  0
LAYER
  5
51
330
2
100
AcDbSymbolTableRecord
100
AcDbLayerTableRecord
  2
41
 70
     0
 62
     7
  6
Continuous
290
     1
370
    -3
390
F
  0
LAYER
  5
52
330
2
100
AcDbSymbolTableRecord
100
AcDbLayerTableRecord
  2
42
 70
     0
 62
     7
  6
Continuous
290
     1
370
    -3
390
F
  0
LAYER
  5
53
330
2
100
AcDbSymbolTableRecord
100
AcDbLayerTableRecord
  2
43
 70
     0
 62
     7
  6
Continuous
290
     1
370
    -3
390
F
  0
LAYER
  5
54
330
2
100
AcDbSymbolTableRecord
100
AcDbLayerTableRecord
  2
44
 70
     0
 62
     7
  6
Continuous
290
     1
370
    -3
390
F
  0
LAYER
  5
55
330
2
100
AcDbSymbolTableRecord
100
AcDbLayerTableRecord
  2
45
 70
     0
 62
     7
  6
Continuous
290
     1
370
    -3
390
F
  0
LAYER
  5
56
330
2
100
AcDbSymbolTableRecord
100
AcDbLayerTableRecord
  2
46
 70
     0
 62
     7
  6
Continuous
290
     1
370
    -3
390
F
  0
LAYER
  5
57
330
2
100
AcDbSymbolTableRecord
100
AcDbLayerTableRecord
  2
47
 70
     0
 62
     7
  6
Continuous
290
     1
370
    -3
390
F
  0
LAYER
  5
58
330
2
100
AcDbSymbolTableRecord
100
AcDbLayerTableRecord
  2
48
 70
     0
 62
     7
  6
Continuous
290
     1
370
    -3
390
F
  0
LAYER
  5
59
330
2
100
AcDbSymbolTableRecord
100
AcDbLayerTableRecord
  2
49
 70
     0
 62
     7
  6
Continuous
290
     1
370
    -3
390
F
  0
LAYER
  5
5A
330
2
100
AcDbSymbolTableRecord
100
AcDbLayerTableRecord
  2
50
 70
     0
 62
     7
  6
Continuous
290
     1
370
    -3
390
F
  0
LAYER
  5
5B
330
2
100
AcDbSymbolTableRecord
100
AcDbLayerTableRecord
  2
51
 70
     0
 62
     7
  6
Continuous
290
     1
370
    -3
390
F
  0
LAYER
  5
5C
330
2
100
AcDbSymbolTableRecord
100
AcDbLayerTableRecord
  2
52
 70
     0
 62
     7
  6
Continuous
290
     1
370
    -3
390
F
  0
LAYER
  5
5D
330
2
100
AcDbSymbolTableRecord
100
AcDbLayerTableRecord
  2
53
 70
     0
 62
     7
  6
Continuous
290
     1
370
    -3
390
F
  0
LAYER
  5
5E
330
2
100
AcDbSymbolTableRecord
100
AcDbLayerTableRecord
  2
54
 70
     0
 62
     7
  6
Continuous
290
     1
370
    -3
390
F
  0
LAYER
  5
5F
330
2
100
AcDbSymbolTableRecord
100
AcDbLayerTableRecord
  2
55
 70
     0
 62
     7
  6
Continuous
290
     1
370
    -3
390
F
  0
LAYER
  5
60
330
2
100
AcDbSymbolTableRecord
100
AcDbLayerTableRecord
  2
56
 70
     0
 62
     7
  6
Continuous
290
     1
370
    -3
390
F
  0
LAYER
  5
61
330
2
100
AcDbSymbolTableRecord
100
AcDbLayerTableRecord
  2
57
 70
     0
 62
     7
  6
Continuous
290
     1
370
    -3
390
F
  0
LAYER
  5
62
330
2
100
AcDbSymbolTableRecord
100
AcDbLayerTableRecord
  2
58
 70
     0
 62
     7
  6
Continuous
290
     1
370
    -3
390
F
  0
LAYER
  5
63
330
2
100
AcDbSymbolTableRecord
100
AcDbLayerTableRecord
  2
59
 70
     0
 62
     7
  6
Continuous
290
     1
370
    -3
390
F
  0
LAYER
  5
64
330
2
100
AcDbSymbolTableRecord
100
AcDbLayerTableRecord
  2
60
 70
     0
 62
     7
  6
Continuous
290
     1
370
    -3
390
F
  0
LAYER
  5
65
330
2
100
AcDbSymbolTableRecord
100
AcDbLayerTableRecord
  2
61
 70
     0
 62
     7
  6
Continuous
290
     1
370
    -3
390
F
  0
LAYER
  5
66
330
2
100
AcDbSymbolTableRecord
100
AcDbLayerTableRecord
  2
62
 70
     0
 62
     7
  6
Continuous
290
     1
370
    -3
390
F
  0
LAYER
  5
67
330
2
100
AcDbSymbolTableRecord
100
AcDbLayerTableRecord
  2
63
 70
     0
 62
     7
  6
Continuous
290
     1
370
    -3
390
F
  0
LAYER
  5
68
330
2
100
AcDbSymbolTableRecord
100
AcDbLayerTableRecord
  2
64
 70
     0
 62
     7
  6
Continuous
290
     1
370
    -3
390
F
  0
LAYER
  5
69
330
2
100
AcDbSymbolTableRecord
100
AcDbLayerTableRecord
  2
65
 70
     0
 62
     7
  6
Continuous
290
     1
370
    -3
390
F
  0
LAYER
  5
6A
330
2
100
AcDbSymbolTableRecord
100
AcDbLayerTableRecord
  2
66
 70
     0
 62
     7
  6
Continuous
290
     1
370
    -3
390
F
  0
LAYER
  5
6B
330
2
100
AcDbSymbolTableRecord
100
AcDbLayerTableRecord
  2
67
 70
     0
 62
     7
  6
Continuous
290
     1
370
    -3
390
F
  0
LAYER
  5
6C
330
2
100
AcDbSymbolTableRecord
100
AcDbLayerTableRecord
  2
68
 70
     0
 62
     7
  6
Continuous
290
     1
370
    -3
390
F
  0
LAYER
  5
6D
330
2
100
AcDbSymbolTableRecord
100
AcDbLayerTableRecord
  2
69
 70
     0
 62
     7
  6
Continuous
290
     1
370
    -3
390
F
  0
LAYER
  5
6E
330
2
100
AcDbSymbolTableRecord
100
AcDbLayerTableRecord
  2
70
 70
     0
 62
     7
  6
Continuous
290
     1
370
    -3
390
F
  0
LAYER
  5
6F
330
2
100
AcDbSymbolTableRecord
100
AcDbLayerTableRecord
  2
71
 70
     0
 62
     7
  6
Continuous
290
     1
370
    -3
390
F
  0
LAYER
  5
70
330
2
100
AcDbSymbolTableRecord
100
AcDbLayerTableRecord
  2
72
 70
     0
 62
     7
  6
Continuous
290
     1
370
    -3
390
F
  0
LAYER
  5
71
330
2
100
AcDbSymbolTableRecord
100
AcDbLayerTableRecord
  2
73
 70
     0
 62
     7
  6
Continuous
290
     1
370
    -3
390
F
  0
LAYER
  5
72
330
2
100
AcDbSymbolTableRecord
100
AcDbLayerTableRecord
  2
74
 70
     0
 62
     7
  6
Continuous
290
     1
370
    -3
390
F
  0
LAYER
  5
73
330
2
100
AcDbSymbolTableRecord
100
AcDbLayerTableRecord
  2
75
 70
     0
 62
     7
  6
Continuous
290
     1
370
    -3
390
F
  0
LAYER
  5
74
330
2
100
AcDbSymbolTableRecord
100
AcDbLayerTableRecord
  2
76
 70
     0
 62
     7
  6
Continuous
290
     1
370
    -3
390
F
  0
LAYER
  5
75
330
2
100
AcDbSymbolTableRecord
100
AcDbLayerTableRecord
  2
77
 70
     0
 62
     7
  6
Continuous
290
     1
370
    -3
390
F
  0
LAYER
  5
76
330
2
100
AcDbSymbolTableRecord
100
AcDbLayerTableRecord
  2
78
 70
     0
 62
     7
  6
Continuous
290
     1
370
    -3
390
F
  0
LAYER
  5
77
330
2
100
AcDbSymbolTableRecord
100
AcDbLayerTableRecord
  2
79
 70
     0
 62
     7
  6
Continuous
290
     1
370
    -3
390
F
  0
LAYER
  5
78
330
2
100
AcDbSymbolTableRecord
100
AcDbLayerTableRecord
  2
80
 70
     0
 62
     7
  6
Continuous
290
     1
370
    -3
390
F
  0
LAYER
  5
79
330
2
100
AcDbSymbolTableRecord
100
AcDbLayerTableRecord
  2
81
 70
     0
 62
     7
  6
Continuous
290
     1
370
    -3
390
F
  0
LAYER
  5
7A
330
2
100
AcDbSymbolTableRecord
100
AcDbLayerTableRecord
  2
82
 70
     0
 62
     7
  6
Continuous
290
     1
370
    -3
390
F
  0
LAYER
  5
7B
330
2
100
AcDbSymbolTableRecord
100
AcDbLayerTableRecord
  2
83
 70
     0
 62
     7
  6
Continuous
290
     1
370
    -3
390
F
  0
LAYER
  5
7C
330
2
100
AcDbSymbolTableRecord
100
AcDbLayerTableRecord
  2
84
 70
     0
 62
     7
  6
Continuous
290
     1
370
    -3
390
F
  0
LAYER
  5
7D
330
2
100
AcDbSymbolTableRecord
100
AcDbLayerTableRecord
  2
85
 70
     0
 62
     7
  6
Continuous
290
     1
370
    -3
390
F
  0
LAYER
  5
7E
330
2
100
AcDbSymbolTableRecord
100
AcDbLayerTableRecord
  2
86
 70
     0
 62
     7
  6
Continuous
290
     1
370
    -3
390
F
  0
LAYER
  5
7F
330
2
100
AcDbSymbolTableRecord
100
AcDbLayerTableRecord
  2
87
 70
     0
 62
     7
  6
Continuous
290
     1
370
    -3
390
F
  0
LAYER
  5
80
330
2
100
AcDbSymbolTableRecord
100
AcDbLayerTableRecord
  2
88
 70
     0
 62
     7
  6
Continuous
290
     1
370
    -3
390
F
  0
LAYER
  5
81
330
2
100
AcDbSymbolTableRecord
100
AcDbLayerTableRecord
  2
89
 70
     0
 62
     7
  6
Continuous
290
     1
370
    -3
390
F
  0
LAYER
  5
82
330
2
100
AcDbSymbolTableRecord
100
AcDbLayerTableRecord
  2
90
 70
     0
 62
     7
  6
Continuous
290
     1
370
    -3
390
F
  0
LAYER
  5
83
330
2
100
AcDbSymbolTableRecord
100
AcDbLayerTableRecord
  2
91
 70
     0
 62
     7
  6
Continuous
290
     1
370
    -3
390
F
  0
LAYER
  5
84
330
2
100
AcDbSymbolTableRecord
100
AcDbLayerTableRecord
  2
92
 70
     0
 62
     7
  6
Continuous
290
     1
370
    -3
390
F
  0
LAYER
  5
85
330
2
100
AcDbSymbolTableRecord
100
AcDbLayerTableRecord
  2
93
 70
     0
 62
     7
  6
Continuous
290
     1
370
    -3
390
F
  0
LAYER
  5
86
330
2
100
AcDbSymbolTableRecord
100
AcDbLayerTableRecord
  2
94
 70
     0
 62
     7
  6
Continuous
290
     1
370
    -3
390
F
  0
LAYER
  5
87
330
2
100
AcDbSymbolTableRecord
100
AcDbLayerTableRecord
  2
95
 70
     0
 62
     7
  6
Continuous
290
     1
370
    -3
390
F
  0
LAYER
  5
88
330
2
100
AcDbSymbolTableRecord
100
AcDbLayerTableRecord
  2
96
 70
     0
 62
     7
  6
Continuous
290
     1
370
    -3
390
F
  0
LAYER
  5
89
330
2
100
AcDbSymbolTableRecord
100
AcDbLayerTableRecord
  2
97
 70
     0
 62
     7
  6
Continuous
290
     1
370
    -3
390
F
  0
LAYER
  5
8A
330
2
100
AcDbSymbolTableRecord
100
AcDbLayerTableRecord
  2
98
 70
     0
 62
     7
  6
Continuous
290
     1
370
    -3
390
F
  0
LAYER
  5
8B
330
2
100
AcDbSymbolTableRecord
100
AcDbLayerTableRecord
  2
99
 70
     0
 62
     7
  6
Continuous
290
     1
370
    -3
390
F
  0
LAYER
  5
8C
330
2
100
AcDbSymbolTableRecord
100
AcDbLayerTableRecord
  2
100
 70
     0
 62
     7
  6
Continuous
290
     1
370
    -3
390
F
  0
LAYER
  5
8D
330
2
100
AcDbSymbolTableRecord
100
AcDbLayerTableRecord
  2
101
 70
     0
 62
     7
  6
Continuous
290
     1
370
    -3
390
F
  0
LAYER
  5
8E
330
2
100
AcDbSymbolTableRecord
100
AcDbLayerTableRecord
  2
102
 70
     0
 62
     7
  6
Continuous
290
     1
370
    -3
390
F
  0
LAYER
  5
8F
330
2
100
AcDbSymbolTableRecord
100
AcDbLayerTableRecord
  2
103
 70
     0
 62
     7
  6
Continuous
290
     1
370
    -3
390
F
  0
LAYER
  5
90
330
2
100
AcDbSymbolTableRecord
100
AcDbLayerTableRecord
  2
104
 70
     0
 62
     7
  6
Continuous
290
     1
370
    -3
390
F
  0
LAYER
  5
91
330
2
100
AcDbSymbolTableRecord
100
AcDbLayerTableRecord
  2
105
 70
     0
 62
     7
  6
Continuous
290
     1
370
    -3
390
F
  0
LAYER
  5
92
330
2
100
AcDbSymbolTableRecord
100
AcDbLayerTableRecord
  2
106
 70
     0
 62
     7
  6
Continuous
290
     1
370
    -3
390
F
  0
LAYER
  5
93
330
2
100
AcDbSymbolTableRecord
100
AcDbLayerTableRecord
  2
107
 70
     0
 62
     7
  6
Continuous
290
     1
370
    -3
390
F
  0
LAYER
  5
94
330
2
100
AcDbSymbolTableRecord
100
AcDbLayerTableRecord
  2
108
 70
     0
 62
     7
  6
Continuous
290
     1
370
    -3
390
F
  0
LAYER
  5
95
330
2
100
AcDbSymbolTableRecord
100
AcDbLayerTableRecord
  2
109
 70
     0
 62
     7
  6
Continuous
290
     1
370
    -3
390
F
  0
LAYER
  5
96
330
2
100
AcDbSymbolTableRecord
100
AcDbLayerTableRecord
  2
110
 70
     0
 62
     7
  6
Continuous
290
     1
370
    -3
390
F
  0
LAYER
  5
97
330
2
100
AcDbSymbolTableRecord
100
AcDbLayerTableRecord
  2
111
 70
     0
 62
     7
  6
Continuous
290
     1
370
    -3
390
F
  0
LAYER
  5
98
330
2
100
AcDbSymbolTableRecord
100
AcDbLayerTableRecord
  2
112
 70
     0
 62
     7
  6
Continuous
290
     1
370
    -3
390
F
  0
LAYER
  5
99
330
2
100
AcDbSymbolTableRecord
100
AcDbLayerTableRecord
  2
113
 70
     0
 62
     7
  6
Continuous
290
     1
370
    -3
390
F
  0
LAYER
  5
9A
330
2
100
AcDbSymbolTableRecord
100
AcDbLayerTableRecord
  2
114
 70
     0
 62
     7
  6
Continuous
290
     1
370
    -3
390
F
  0
LAYER
  5
9B
330
2
100
AcDbSymbolTableRecord
100
AcDbLayerTableRecord
  2
115
 70
     0
 62
     7
  6
Continuous
290
     1
370
    -3
390
F
  0
LAYER
  5
9C
330
2
100
AcDbSymbolTableRecord
100
AcDbLayerTableRecord
  2
116
 70
     0
 62
     7
  6
Continuous
290
     1
370
    -3
390
F
  0
LAYER
  5
9D
330
2
100
AcDbSymbolTableRecord
100
AcDbLayerTableRecord
  2
117
 70
     0
 62
     7
  6
Continuous
290
     1
370
    -3
390
F
  0
LAYER
  5
9E
330
2
100
AcDbSymbolTableRecord
100
AcDbLayerTableRecord
  2
118
 70
     0
 62
     7
  6
Continuous
290
     1
370
    -3
390
F
  0
LAYER
  5
9F
330
2
100
AcDbSymbolTableRecord
100
AcDbLayerTableRecord
  2
119
 70
     0
 62
     7
  6
Continuous
290
     1
370
    -3
390
F
  0
LAYER
  5
A0
330
2
100
AcDbSymbolTableRecord
100
AcDbLayerTableRecord
  2
120
 70
     0
 62
     7
  6
Continuous
290
     1
370
    -3
390
F
  0
LAYER
  5
A1
330
2
100
AcDbSymbolTableRecord
100
AcDbLayerTableRecord
  2
121
 70
     0
 62
     7
  6
Continuous
290
     1
370
    -3
390
F
  0
LAYER
  5
A2
330
2
100
AcDbSymbolTableRecord
100
AcDbLayerTableRecord
  2
122
 70
     0
 62
     7
  6
Continuous
290
     1
370
    -3
390
F
  0
LAYER
  5
A3
330
2
100
AcDbSymbolTableRecord
100
AcDbLayerTableRecord
  2
123
 70
     0
 62
     7
  6
Continuous
290
     1
370
    -3
390
F
  0
LAYER
  5
A4
330
2
100
AcDbSymbolTableRecord
100
AcDbLayerTableRecord
  2
124
 70
     0
 62
     7
  6
Continuous
290
     1
370
    -3
390
F
  0
LAYER
  5
A5
330
2
100
AcDbSymbolTableRecord
100
AcDbLayerTableRecord
  2
125
 70
     0
 62
     7
  6
Continuous
290
     1
370
    -3
390
F
  0
LAYER
  5
A6
330
2
100
AcDbSymbolTableRecord
100
AcDbLayerTableRecord
  2
126
 70
     0
 62
     7
  6
Continuous
290
     1
370
    -3
390
F
  0
LAYER
  5
A7
330
2
100
AcDbSymbolTableRecord
100
AcDbLayerTableRecord
  2
127
 70
     0
 62
     7
  6
Continuous
290
     1
370
    -3
390
F
  0
LAYER
  5
A8
330
2
100
AcDbSymbolTableRecord
100
AcDbLayerTableRecord
  2
128
 70
     0
 62
     7
  6
Continuous
290
     1
370
    -3
390
F
  0
ENDTAB
  0
TABLE
  2
STYLE
  5
3
330
0
100
AcDbSymbolTable
 70
     7
  0
STYLE
  5
11
330
3
100
AcDbSymbolTableRecord
100
AcDbTextStyleTableRecord
  2
Standard
 70
     0
 40
0.0
 41
1.0
 50
0.0
 71
     0
 42
2.5
  3
txt.shx
  4
extfont.shx
  0
STYLE
  5
AA
330
3
100
AcDbSymbolTableRecord
100
AcDbTextStyleTableRecord
  2
KANJI0
 70
     0
 40
15.0
 41
0.9
 50
0.0
 71
     0
 42
15.0
  3
txt.shx
  4
extfont.shx
  0
STYLE
  5
AC
330
3
100
AcDbSymbolTableRecord
100
AcDbTextStyleTableRecord
  2
KANJI1
 70
     0
 40
20.0
 41
0.9
 50
0.0
 71
     0
 42
20.0
  3
txt.shx
  4
extfont.shx
  0
STYLE
  5
175
330
3
100
AcDbSymbolTableRecord
100
AcDbTextStyleTableRecord
  2
KANJI2
 70
     0
 40
15.0
 41
0.666666667
 50
0.0
 71
     0
 42
15.0
  3
txt.shx
  4
extfont.shx
  0
STYLE
  5
209
330
3
100
AcDbSymbolTableRecord
100
AcDbTextStyleTableRecord
  2
KANJI3
 70
     0
 40
15.0
 41
0.45
 50
0.0
 71
     0
 42
15.0
  3
txt.shx
  4
extfont.shx
  0
STYLE
  5
20C
330
3
100
AcDbSymbolTableRecord
100
AcDbTextStyleTableRecord
  2
KANJI4
 70
     0
 40
35.0
 41
0.94
 50
0.0
 71
     0
 42
35.0
  3
txt.shx
  4
extfont.shx
  0
STYLE
  5
22C
330
3
100
AcDbSymbolTableRecord
100
AcDbTextStyleTableRecord
  2
KANJI5
 70
     0
 40
10.5
 41
0.866666667
 50
0.0
 71
     0
 42
10.5
  3
txt.shx
  4
extfont.shx
  0
ENDTAB
  0
TABLE
  2
VIEW
  5
6
330
0
100
AcDbSymbolTable
 70
     0
  0
ENDTAB
  0
TABLE
  2
UCS
  5
7
330
0
100
AcDbSymbolTable
 70
     0
  0
ENDTAB
  0
TABLE
  2
APPID
  5
9
330
0
100
AcDbSymbolTable
 70
     1
  0
APPID
  5
12
330
9
100
AcDbSymbolTableRecord
100
AcDbRegAppTableRecord
  2
ACAD
 70
     0
  0
ENDTAB
  0
TABLE
  2
DIMSTYLE
  5
A
330
0
100
AcDbSymbolTable
 70
     1
100
AcDbDimStyleTable
 71
     0
  0
DIMSTYLE
105
27
330
A
100
AcDbSymbolTableRecord
100
AcDbDimStyleTableRecord
  2
ISO-25
 70
    64
  3

  4

 40
1.0
 41
2.5
 42
0.625
 43
3.75
 44
1.25
 45
0.0
 46
0.0
 47
0.0
 48
0.0
 71
     0
 72
     0
 73
     0
 74
     0
 75
     0
 76
     0
 77
     1
 78
     8
 79
     0
140
2.5
141
2.5
142
0.0
143
0.039370079
144
1.0
145
0.0
146
1.0
147
0.625
148
0.0
170
     0
171
     3
172
     1
173
     0
174
     0
175
     0
176
     0
177
     0
178
     0
179
     0
270
     2
271
     2
272
     2
273
     2
274
     3
275
     0
276
     0
277
     2
278
    46
279
     0
280
     0
281
     0
282
     0
283
     1
284
     8
285
     0
286
     0
288
     0
289
     3
340
11
341
0
342
0
343
0
344
0
371
    -2
372
    -2
  0
ENDTAB
  0
TABLE
  2
BLOCK_RECORD
  5
1
330
0
100
AcDbSymbolTable
 70
     3
  0
BLOCK_RECORD
  5
1F
330
1
100
AcDbSymbolTableRecord
100
AcDbBlockTableRecord
  2
*Model_Space
340
22
  0
BLOCK_RECORD
  5
1B
330
1
100
AcDbSymbolTableRecord
100
AcDbBlockTableRecord
  2
*Paper_Space
340
1E
  0
BLOCK_RECORD
  5
23
330
1
100
AcDbSymbolTableRecord
100
AcDbBlockTableRecord
  2
*Paper_Space0
340
26
  0
ENDTAB
  0
ENDSEC
  0
SECTION
  2
BLOCKS
  0
BLOCK
  5
1C
330
1B
100
AcDbEntity
 67
     1
  8
0
100
AcDbBlockBegin
  2
*Paper_Space
 70
     0
 10
0.0
 20
0.0
 30
0.0
  3
*Paper_Space
  1

  0
ENDBLK
  5
1D
330
1B
100
AcDbEntity
  8
0
100
AcDbBlockEnd
  0
BLOCK
  5
20
330
1F
100
AcDbEntity
  8
0
100
AcDbBlockBegin
  2
*Model_Space
 70
     0
 10
0.0
 20
0.0
 30
0.0
  3
*Model_Space
  1

  0
ENDBLK
  5
21
330
1F
100
AcDbEntity
  8
0
100
AcDbBlockEnd
  0
BLOCK
  5
24
330
23
100
AcDbEntity
 67
     1
  8
0
100
AcDbBlockBegin
  2
*Paper_Space0
 70
     0
 10
0.0
 20
0.0
 30
0.0
  3
*Paper_Space0
  1

  0
ENDBLK
  5
25
330
23
100
AcDbEntity
  8
0
100
AcDbBlockEnd
  0
ENDSEC
  0
SECTION
  2
ENTITIES
  0
MTEXT
  5
A9
330
1F
100
AcDbEntity
  8
0
  6
Continuous
 62
     2
100
AcDbMText
 10
128.625
 20
142.675
 30
0.0
 40
15.0
 41
297.0
 71
     7
 72
     1
  1
\W0.900;スタンド自重　２７ｋｇ
  7
KANJI0
 73
     1
 44
1.0
  0
MTEXT
  5
AB
330
1F
100
AcDbEntity
  8
0
  6
Continuous
 62
     2
100
AcDbMText
 10
128.625
 20
162.675
 30
0.0
 40
20.0
 41
288.0
 71
     7
 72
     1
  1
\W0.900;ＭＸＳ－Ｈ６１０
  7
KANJI1
 73
     1
 44
1.0
  0
LINE
  5
AD
330
1F
100
AcDbEntity
  8
0
  6
Continuous
 62
     1
100
AcDbLine
 10
866.225
 20
757.675
 30
0.0
 11
686.025
 21
757.675
 31
0.0
  0
LINE
  5
AE
330
1F
100
AcDbEntity
  8
0
  6
Continuous
 62
     1
100
AcDbLine
 10
916.225
 20
820.275
 30
0.0
 11
316.225
 21
820.275
 31
0.0
  0
LINE
  5
AF
330
1F
100
AcDbEntity
  8
0
  6
Continuous
 62
     1
100
AcDbLine
 10
366.225
 20
777.675
 30
0.0
 11
324.263838649
 21
786.06723227
 31
0.0
  0
LINE
  5
B0
330
1F
100
AcDbEntity
  8
0
  6
Continuous
 62
     1
100
AcDbLine
 10
316.225
 20
795.873039027
 30
0.0
 11
316.225
 21
820.275
 31
0.0
  0
ARC
  5
B1
330
1F
100
AcDbEntity
  8
0
  6
Continuous
 62
     1
100
AcDbCircle
 10
326.225
 20
795.873039027
 30
0.0
 40
10.0
100
AcDbArc
 50
180.0
 51
258.690067526
  0
LINE
  5
B2
330
1F
100
AcDbEntity
  8
0
  6
Continuous
 62
     2
100
AcDbLine
 10
886.225
 20
825.275
 30
0.0
 11
886.225
 21
815.275
 31
0.0
  0
LINE
  5
B3
330
1F
100
AcDbEntity
  8
0
  6
Continuous
 62
     2
100
AcDbLine
 10
346.225
 20
825.275
 30
0.0
 11
346.225
 21
815.275
 31
0.0
  0
LINE
  5
B4
330
1F
100
AcDbEntity
  8
0
  6
Continuous
 62
     1
100
AcDbLine
 10
906.225
 20
777.675
 30
0.0
 11
366.225
 21
777.675
 31
0.0
  0
LINE
  5
B5
330
1F
100
AcDbEntity
  8
0
  6
Continuous
 62
     1
100
AcDbLine
 10
916.225
 20
820.275
 30
0.0
 11
916.225
 21
787.675
 31
0.0
  0
ARC
  5
B6
330
1F
100
AcDbEntity
  8
0
  6
Continuous
 62
     1
100
AcDbCircle
 10
906.225
 20
787.675
 30
0.0
 40
10.0
100
AcDbArc
 50
270.0
 51
0.0
  0
LINE
  5
B7
330
1F
100
AcDbEntity
  8
0
  6
Continuous
 62
     2
100
AcDbLine
 10
882.725
 20
820.275
 30
0.0
 11
882.725
 21
817.675
 31
0.0
  0
LINE
  5
B8
330
1F
100
AcDbEntity
  8
0
  6
Continuous
 62
     2
100
AcDbLine
 10
889.725
 20
817.675
 30
0.0
 11
889.725
 21
820.275
 31
0.0
  0
LINE
  5
B9
330
1F
100
AcDbEntity
  8
0
  6
Continuous
 62
     2
100
AcDbLine
 10
342.725
 20
820.275
 30
0.0
 11
342.725
 21
817.675
 31
0.0
  0
LINE
  5
BA
330
1F
100
AcDbEntity
  8
0
  6
Continuous
 62
     2
100
AcDbLine
 10
349.725
 20
817.675
 30
0.0
 11
349.725
 21
820.275
 31
0.0
  0
LINE
  5
BC
330
1F
100
AcDbEntity
  8
0
  6
LTYPE1
 62
     2
100
AcDbLine
 10
916.225
 20
817.675
 30
0.0
 11
316.225
 21
817.675
 31
0.0
  0
LINE
  5
BD
330
1F
100
AcDbEntity
  8
0
  6
LTYPE1
 62
     2
100
AcDbLine
 10
388.225
 20
787.675
 30
0.0
 11
873.225
 21
787.675
 31
0.0
  0
LINE
  5
BE
330
1F
100
AcDbEntity
  8
0
  6
LTYPE1
 62
     2
100
AcDbLine
 10
388.225
 20
817.675
 30
0.0
 11
388.225
 21
787.675
 31
0.0
  0
LINE
  5
BF
330
1F
100
AcDbEntity
  8
0
  6
LTYPE1
 62
     2
100
AcDbLine
 10
873.225
 20
787.675
 30
0.0
 11
873.225
 21
817.675
 31
0.0
  0
LINE
  5
C0
330
1F
100
AcDbEntity
  8
0
  6
Continuous
 62
     1
100
AcDbLine
 10
689.025
 20
777.675
 30
0.0
 11
689.025
 21
757.675
 31
0.0
  0
LINE
  5
C1
330
1F
100
AcDbEntity
  8
0
  6
Continuous
 62
     1
100
AcDbLine
 10
863.225
 20
757.675
 30
0.0
 11
863.225
 21
777.675
 31
0.0
  0
LINE
  5
C2
330
1F
100
AcDbEntity
  8
0
  6
LTYPE1
 62
     2
100
AcDbLine
 10
689.025
 20
787.675
 30
0.0
 11
689.025
 21
777.675
 31
0.0
  0
LINE
  5
C4
330
1F
100
AcDbEntity
  8
0
  6
LTYPE2
 62
     2
100
AcDbLine
 10
628.225
 20
1227.675
 30
0.0
 11
628.225
 21
1207.675
 31
0.0
  0
LINE
  5
C5
330
1F
100
AcDbEntity
  8
0
  6
LTYPE2
 62
     2
100
AcDbLine
 10
848.225
 20
1227.675
 30
0.0
 11
848.225
 21
1207.675
 31
0.0
  0
LINE
  5
C6
330
1F
100
AcDbEntity
  8
0
  6
LTYPE1
 62
     2
100
AcDbLine
 10
388.225
 20
1192.675
 30
0.0
 11
873.225
 21
1192.675
 31
0.0
  0
LINE
  5
C7
330
1F
100
AcDbEntity
  8
0
  6
LTYPE1
 62
     2
100
AcDbLine
 10
873.225
 20
1192.675
 30
0.0
 11
873.225
 21
1242.675
 31
0.0
  0
LINE
  5
C8
330
1F
100
AcDbEntity
  8
0
  6
LTYPE1
 62
     2
100
AcDbLine
 10
873.225
 20
1242.675
 30
0.0
 11
388.225
 21
1242.675
 31
0.0
  0
LINE
  5
C9
330
1F
100
AcDbEntity
  8
0
  6
LTYPE1
 62
     2
100
AcDbLine
 10
388.225
 20
1242.675
 30
0.0
 11
388.225
 21
1192.675
 31
0.0
  0
LINE
  5
CA
330
1F
100
AcDbEntity
  8
0
  6
LTYPE2
 62
     2
100
AcDbLine
 10
408.225
 20
1227.675
 30
0.0
 11
408.225
 21
1207.675
 31
0.0
  0
LINE
  5
CB
330
1F
100
AcDbEntity
  8
0
  6
Continuous
 62
     1
100
AcDbLine
 10
316.225
 20
1187.675
 30
0.0
 11
916.225
 21
1187.675
 31
0.0
  0
LINE
  5
CC
330
1F
100
AcDbEntity
  8
0
  6
Continuous
 62
     1
100
AcDbLine
 10
916.225
 20
1187.675
 30
0.0
 11
916.225
 21
1247.675
 31
0.0
  0
LINE
  5
CD
330
1F
100
AcDbEntity
  8
0
  6
Continuous
 62
     1
100
AcDbLine
 10
316.225
 20
1247.675
 30
0.0
 11
316.225
 21
1187.675
 31
0.0
  0
LINE
  5
CE
330
1F
100
AcDbEntity
  8
0
  6
LTYPE1
 62
     2
100
AcDbLine
 10
916.225
 20
1245.075
 30
0.0
 11
916.225
 21
1245.075
 31
0.0
  0
LINE
  5
CF
330
1F
100
AcDbEntity
  8
0
  6
LTYPE1
 62
     2
100
AcDbLine
 10
916.225
 20
1245.075
 30
0.0
 11
916.225
 21
1245.075
 31
0.0
  0
LINE
  5
D0
330
1F
100
AcDbEntity
  8
0
  6
LTYPE1
 62
     2
100
AcDbLine
 10
916.225
 20
1245.075
 30
0.0
 11
916.225
 21
1245.075
 31
0.0
  0
LINE
  5
D1
330
1F
100
AcDbEntity
  8
0
  6
LTYPE1
 62
     2
100
AcDbLine
 10
916.225
 20
1245.075
 30
0.0
 11
916.225
 21
1245.075
 31
0.0
  0
CIRCLE
  5
D2
330
1F
100
AcDbEntity
  8
0
  6
Continuous
 62
     1
100
AcDbCircle
 10
346.225
 20
1217.675
 30
0.0
 40
3.5
  0
CIRCLE
  5
D3
330
1F
100
AcDbEntity
  8
0
  6
Continuous
 62
     1
100
AcDbCircle
 10
886.225
 20
1217.675
 30
0.0
 40
3.5
  0
LINE
  5
D4
330
1F
100
AcDbEntity
  8
0
  6
Continuous
 62
     2
100
AcDbLine
 10
346.225
 20
1212.675
 30
0.0
 11
346.225
 21
1222.675
 31
0.0
  0
LINE
  5
D5
330
1F
100
AcDbEntity
  8
0
  6
Continuous
 62
     2
100
AcDbLine
 10
886.225
 20
1212.675
 30
0.0
 11
886.225
 21
1222.675
 31
0.0
  0
CIRCLE
  5
D6
330
1F
100
AcDbEntity
  8
0
  6
Continuous
 62
     1
100
AcDbCircle
 10
408.225
 20
1217.675
 30
0.0
 40
6.0
  0
LINE
  5
D7
330
1F
100
AcDbEntity
  8
0
  6
Continuous
 62
     2
100
AcDbLine
 10
408.225
 20
1227.675
 30
0.0
 11
408.225
 21
1207.675
 31
0.0
  0
CIRCLE
  5
D8
330
1F
100
AcDbEntity
  8
0
  6
Continuous
 62
     1
100
AcDbCircle
 10
628.225
 20
1217.675
 30
0.0
 40
6.0
  0
LINE
  5
D9
330
1F
100
AcDbEntity
  8
0
  6
Continuous
 62
     2
100
AcDbLine
 10
628.225
 20
1227.675
 30
0.0
 11
628.225
 21
1207.675
 31
0.0
  0
CIRCLE
  5
DA
330
1F
100
AcDbEntity
  8
0
  6
Continuous
 62
     1
100
AcDbCircle
 10
848.225
 20
1217.675
 30
0.0
 40
6.0
  0
LINE
  5
DB
330
1F
100
AcDbEntity
  8
0
  6
Continuous
 62
     2
100
AcDbLine
 10
848.225
 20
1227.675
 30
0.0
 11
848.225
 21
1207.675
 31
0.0
  0
LINE
  5
DC
330
1F
100
AcDbEntity
  8
0
  6
LTYPE2
 62
     2
100
AcDbLine
 10
970.225
 20
1217.675
 30
0.0
 11
306.225
 21
1217.675
 31
0.0
  0
LINE
  5
DD
330
1F
100
AcDbEntity
  8
0
  6
LTYPE2
 62
     2
100
AcDbLine
 10
628.225
 20
1757.675
 30
0.0
 11
628.225
 21
1777.675
 31
0.0
  0
LINE
  5
DE
330
1F
100
AcDbEntity
  8
0
  6
LTYPE2
 62
     2
100
AcDbLine
 10
848.225
 20
1757.675
 30
0.0
 11
848.225
 21
1777.675
 31
0.0
  0
LINE
  5
DF
330
1F
100
AcDbEntity
  8
0
  6
LTYPE1
 62
     2
100
AcDbLine
 10
388.225
 20
1792.675
 30
0.0
 11
873.225
 21
1792.675
 31
0.0
  0
LINE
  5
E0
330
1F
100
AcDbEntity
  8
0
  6
LTYPE1
 62
     2
100
AcDbLine
 10
873.225
 20
1792.675
 30
0.0
 11
873.225
 21
1742.675
 31
0.0
  0
LINE
  5
E1
330
1F
100
AcDbEntity
  8
0
  6
LTYPE1
 62
     2
100
AcDbLine
 10
873.225
 20
1742.675
 30
0.0
 11
388.225
 21
1742.675
 31
0.0
  0
LINE
  5
E2
330
1F
100
AcDbEntity
  8
0
  6
LTYPE1
 62
     2
100
AcDbLine
 10
388.225
 20
1742.675
 30
0.0
 11
388.225
 21
1792.675
 31
0.0
  0
LINE
  5
E3
330
1F
100
AcDbEntity
  8
0
  6
LTYPE2
 62
     2
100
AcDbLine
 10
408.225
 20
1757.675
 30
0.0
 11
408.225
 21
1777.675
 31
0.0
  0
LINE
  5
E4
330
1F
100
AcDbEntity
  8
0
  6
Continuous
 62
     1
100
AcDbLine
 10
316.225
 20
1797.675
 30
0.0
 11
916.225
 21
1797.675
 31
0.0
  0
LINE
  5
E5
330
1F
100
AcDbEntity
  8
0
  6
Continuous
 62
     1
100
AcDbLine
 10
916.225
 20
1797.675
 30
0.0
 11
916.225
 21
1737.675
 31
0.0
  0
LINE
  5
E6
330
1F
100
AcDbEntity
  8
0
  6
Continuous
 62
     1
100
AcDbLine
 10
316.225
 20
1737.675
 30
0.0
 11
316.225
 21
1797.675
 31
0.0
  0
LINE
  5
E7
330
1F
100
AcDbEntity
  8
0
  6
LTYPE1
 62
     2
100
AcDbLine
 10
916.225
 20
1740.275
 30
0.0
 11
916.225
 21
1740.275
 31
0.0
  0
LINE
  5
E8
330
1F
100
AcDbEntity
  8
0
  6
LTYPE1
 62
     2
100
AcDbLine
 10
916.225
 20
1740.275
 30
0.0
 11
916.225
 21
1740.275
 31
0.0
  0
LINE
  5
E9
330
1F
100
AcDbEntity
  8
0
  6
LTYPE1
 62
     2
100
AcDbLine
 10
916.225
 20
1740.275
 30
0.0
 11
916.225
 21
1740.275
 31
0.0
  0
LINE
  5
EA
330
1F
100
AcDbEntity
  8
0
  6
LTYPE1
 62
     2
100
AcDbLine
 10
916.225
 20
1740.275
 30
0.0
 11
916.225
 21
1740.275
 31
0.0
  0
CIRCLE
  5
EB
330
1F
100
AcDbEntity
  8
0
  6
Continuous
 62
     1
100
AcDbCircle
 10
346.225
 20
1767.675
 30
0.0
 40
3.5
  0
CIRCLE
  5
EC
330
1F
100
AcDbEntity
  8
0
  6
Continuous
 62
     1
100
AcDbCircle
 10
886.225
 20
1767.675
 30
0.0
 40
3.5
  0
LINE
  5
ED
330
1F
100
AcDbEntity
  8
0
  6
Continuous
 62
     2
100
AcDbLine
 10
346.225
 20
1772.675
 30
0.0
 11
346.225
 21
1762.675
 31
0.0
  0
LINE
  5
EE
330
1F
100
AcDbEntity
  8
0
  6
Continuous
 62
     2
100
AcDbLine
 10
886.225
 20
1772.675
 30
0.0
 11
886.225
 21
1762.675
 31
0.0
  0
CIRCLE
  5
EF
330
1F
100
AcDbEntity
  8
0
  6
Continuous
 62
     1
100
AcDbCircle
 10
408.225
 20
1767.675
 30
0.0
 40
6.0
  0
LINE
  5
F0
330
1F
100
AcDbEntity
  8
0
  6
Continuous
 62
     2
100
AcDbLine
 10
408.225
 20
1757.675
 30
0.0
 11
408.225
 21
1777.675
 31
0.0
  0
CIRCLE
  5
F1
330
1F
100
AcDbEntity
  8
0
  6
Continuous
 62
     1
100
AcDbCircle
 10
628.225
 20
1767.675
 30
0.0
 40
6.0
  0
LINE
  5
F2
330
1F
100
AcDbEntity
  8
0
  6
Continuous
 62
     2
100
AcDbLine
 10
628.225
 20
1757.675
 30
0.0
 11
628.225
 21
1777.675
 31
0.0
  0
CIRCLE
  5
F3
330
1F
100
AcDbEntity
  8
0
  6
Continuous
 62
     1
100
AcDbCircle
 10
848.225
 20
1767.675
 30
0.0
 40
6.0
  0
LINE
  5
F4
330
1F
100
AcDbEntity
  8
0
  6
Continuous
 62
     2
100
AcDbLine
 10
848.225
 20
1757.675
 30
0.0
 11
848.225
 21
1777.675
 31
0.0
  0
LINE
  5
F5
330
1F
100
AcDbEntity
  8
0
  6
Continuous
 62
     1
100
AcDbLine
 10
823.625
 20
1729.175
 30
0.0
 11
798.625
 21
1729.175
 31
0.0
  0
LINE
  5
F6
330
1F
100
AcDbEntity
  8
0
  6
Continuous
 62
     1
100
AcDbLine
 10
753.625
 20
1729.175
 30
0.0
 11
728.625
 21
1729.175
 31
0.0
  0
LINE
  5
F7
330
1F
100
AcDbEntity
  8
0
  6
Continuous
 62
     1
100
AcDbLine
 10
316.225
 20
1247.675
 30
0.0
 11
916.225
 21
1247.675
 31
0.0
  0
LINE
  5
F8
330
1F
100
AcDbEntity
  8
0
  6
Continuous
 62
     1
100
AcDbLine
 10
798.625
 20
1729.175
 30
0.0
 11
798.625
 21
1247.675
 31
0.0
  0
LINE
  5
F9
330
1F
100
AcDbEntity
  8
0
  6
Continuous
 62
     1
100
AcDbLine
 10
823.625
 20
1247.675
 30
0.0
 11
823.625
 21
1729.175
 31
0.0
  0
LINE
  5
FA
330
1F
100
AcDbEntity
  8
0
  6
Continuous
 62
     1
100
AcDbLine
 10
728.625
 20
1729.175
 30
0.0
 11
728.625
 21
1247.675
 31
0.0
  0
LINE
  5
FB
330
1F
100
AcDbEntity
  8
0
  6
Continuous
 62
     1
100
AcDbLine
 10
753.625
 20
1247.675
 30
0.0
 11
753.625
 21
1729.175
 31
0.0
  0
LINE
  5
FC
330
1F
100
AcDbEntity
  8
0
  6
Continuous
 62
     1
100
AcDbLine
 10
800.625
 20
1737.675
 30
0.0
 11
800.625
 21
1729.175
 31
0.0
  0
LINE
  5
FD
330
1F
100
AcDbEntity
  8
0
  6
Continuous
 62
     1
100
AcDbLine
 10
821.625
 20
1729.175
 30
0.0
 11
821.625
 21
1737.675
 31
0.0
  0
LINE
  5
FE
330
1F
100
AcDbEntity
  8
0
  6
Continuous
 62
     1
100
AcDbLine
 10
316.225
 20
1737.675
 30
0.0
 11
916.225
 21
1737.675
 31
0.0
  0
LINE
  5
FF
330
1F
100
AcDbEntity
  8
0
  6
Continuous
 62
     1
100
AcDbLine
 10
751.625
 20
1729.175
 30
0.0
 11
751.625
 21
1737.675
 31
0.0
  0
LINE
  5
100
330
1F
100
AcDbEntity
  8
0
  6
Continuous
 62
     1
100
AcDbLine
 10
730.625
 20
1737.675
 30
0.0
 11
730.625
 21
1729.175
 31
0.0
  0
LINE
  5
101
330
1F
100
AcDbEntity
  8
0
  6
Continuous
 62
     2
100
AcDbLine
 10
823.625
 20
1721.675
 30
0.0
 11
825.125
 21
1721.675
 31
0.0
  0
LINE
  5
102
330
1F
100
AcDbEntity
  8
0
  6
Continuous
 62
     2
100
AcDbLine
 10
825.125
 20
1721.675
 30
0.0
 11
825.125
 21
1708.675
 31
0.0
  0
LINE
  5
103
330
1F
100
AcDbEntity
  8
0
  6
Continuous
 62
     2
100
AcDbLine
 10
825.125
 20
1708.675
 30
0.0
 11
823.625
 21
1708.675
 31
0.0
  0
LINE
  5
104
330
1F
100
AcDbEntity
  8
0
  6
Continuous
 62
     2
100
AcDbLine
 10
825.125
 20
1721.175
 30
0.0
 11
827.125
 21
1721.175
 31
0.0
  0
LINE
  5
105
330
1F
100
AcDbEntity
  8
0
  6
Continuous
 62
     2
100
AcDbLine
 10
827.125
 20
1721.175
 30
0.0
 11
827.125
 21
1709.175
 31
0.0
  0
LINE
  5
106
330
1F
100
AcDbEntity
  8
0
  6
Continuous
 62
     2
100
AcDbLine
 10
827.125
 20
1709.175
 30
0.0
 11
825.125
 21
1709.175
 31
0.0
  0
LINE
  5
107
330
1F
100
AcDbEntity
  8
0
  6
Continuous
 62
     2
100
AcDbLine
 10
827.125
 20
1720.175
 30
0.0
 11
832.625
 21
1720.175
 31
0.0
  0
LINE
  5
108
330
1F
100
AcDbEntity
  8
0
  6
Continuous
 62
     2
100
AcDbLine
 10
832.625
 20
1720.175
 30
0.0
 11
833.125
 21
1719.675
 31
0.0
  0
LINE
  5
109
330
1F
100
AcDbEntity
  8
0
  6
Continuous
 62
     2
100
AcDbLine
 10
832.625
 20
1710.175
 30
0.0
 11
827.125
 21
1710.175
 31
0.0
  0
LINE
  5
10A
330
1F
100
AcDbEntity
  8
0
  6
Continuous
 62
     2
100
AcDbLine
 10
833.125
 20
1719.675
 30
0.0
 11
833.125
 21
1710.675
 31
0.0
  0
LINE
  5
10B
330
1F
100
AcDbEntity
  8
0
  6
Continuous
 62
     2
100
AcDbLine
 10
832.625
 20
1710.175
 30
0.0
 11
833.125
 21
1710.675
 31
0.0
  0
LINE
  5
10C
330
1F
100
AcDbEntity
  8
0
  6
Continuous
 62
     2
100
AcDbLine
 10
753.625
 20
1721.675
 30
0.0
 11
755.125
 21
1721.675
 31
0.0
  0
LINE
  5
10D
330
1F
100
AcDbEntity
  8
0
  6
Continuous
 62
     2
100
AcDbLine
 10
755.125
 20
1721.675
 30
0.0
 11
755.125
 21
1708.675
 31
0.0
  0
LINE
  5
10E
330
1F
100
AcDbEntity
  8
0
  6
Continuous
 62
     2
100
AcDbLine
 10
755.125
 20
1708.675
 30
0.0
 11
753.625
 21
1708.675
 31
0.0
  0
LINE
  5
10F
330
1F
100
AcDbEntity
  8
0
  6
Continuous
 62
     2
100
AcDbLine
 10
755.125
 20
1721.175
 30
0.0
 11
757.125
 21
1721.175
 31
0.0
  0
LINE
  5
110
330
1F
100
AcDbEntity
  8
0
  6
Continuous
 62
     2
100
AcDbLine
 10
757.125
 20
1721.175
 30
0.0
 11
757.125
 21
1709.175
 31
0.0
  0
LINE
  5
111
330
1F
100
AcDbEntity
  8
0
  6
Continuous
 62
     2
100
AcDbLine
 10
757.125
 20
1709.175
 30
0.0
 11
755.125
 21
1709.175
 31
0.0
  0
LINE
  5
112
330
1F
100
AcDbEntity
  8
0
  6
Continuous
 62
     2
100
AcDbLine
 10
757.125
 20
1720.175
 30
0.0
 11
762.625
 21
1720.175
 31
0.0
  0
LINE
  5
113
330
1F
100
AcDbEntity
  8
0
  6
Continuous
 62
     2
100
AcDbLine
 10
762.625
 20
1720.175
 30
0.0
 11
763.125
 21
1719.675
 31
0.0
  0
LINE
  5
114
330
1F
100
AcDbEntity
  8
0
  6
Continuous
 62
     2
100
AcDbLine
 10
762.625
 20
1710.175
 30
0.0
 11
757.125
 21
1710.175
 31
0.0
  0
LINE
  5
115
330
1F
100
AcDbEntity
  8
0
  6
Continuous
 62
     2
100
AcDbLine
 10
763.125
 20
1719.675
 30
0.0
 11
763.125
 21
1710.675
 31
0.0
  0
LINE
  5
116
330
1F
100
AcDbEntity
  8
0
  6
Continuous
 62
     2
100
AcDbLine
 10
762.625
 20
1710.175
 30
0.0
 11
763.125
 21
1710.675
 31
0.0
  0
LINE
  5
117
330
1F
100
AcDbEntity
  8
0
  6
Continuous
 62
     2
100
AcDbLine
 10
871.225
 20
757.675
 30
0.0
 11
863.225
 21
757.675
 31
0.0
  0
ARC
  5
118
330
1F
100
AcDbEntity
  8
0
  6
Continuous
 62
     2
100
AcDbCircle
 10
869.225
 20
773.675
 30
0.0
 40
6.0
100
AcDbArc
 50
90.0
 51
180.0
  0
ARC
  5
119
330
1F
100
AcDbEntity
  8
0
  6
Continuous
 62
     2
100
AcDbCircle
 10
869.225
 20
765.675
 30
0.0
 40
6.0
100
AcDbArc
 50
180.0
 51
270.0
  0
LINE
  5
11A
330
1F
100
AcDbEntity
  8
0
  6
Continuous
 62
     2
100
AcDbLine
 10
873.225
 20
759.675
 30
0.0
 11
873.225
 21
779.675
 31
0.0
  0
ARC
  5
11B
330
1F
100
AcDbEntity
  8
0
  6
Continuous
 62
     2
100
AcDbCircle
 10
871.225
 20
759.675
 30
0.0
 40
2.0
100
AcDbArc
 50
270.0
 51
0.0
  0
LINE
  5
11C
330
1F
100
AcDbEntity
  8
0
  6
Continuous
 62
     2
100
AcDbLine
 10
873.225
 20
779.675
 30
0.0
 11
869.225
 21
779.675
 31
0.0
  0
ARC
  5
11D
330
1F
100
AcDbEntity
  8
0
  6
Continuous
 62
     2
100
AcDbCircle
 10
853.225
 20
757.675
 30
0.0
 40
2.0
100
AcDbArc
 50
90.0
 51
180.0
  0
LINE
  5
11E
330
1F
100
AcDbEntity
  8
0
  6
Continuous
 62
     2
100
AcDbLine
 10
853.225
 20
757.675
 30
0.0
 11
863.225
 21
757.675
 31
0.0
  0
LINE
  5
11F
330
1F
100
AcDbEntity
  8
0
  6
Continuous
 62
     2
100
AcDbLine
 10
871.225
 20
759.67501079
 30
0.0
 11
863.225
 21
759.67501079
 31
0.0
  0
ARC
  5
120
330
1F
100
AcDbEntity
  8
0
  6
LTYPE1
 62
     2
100
AcDbCircle
 10
855.225
 20
743.675
 30
0.0
 40
6.0
100
AcDbArc
 50
270.0
 51
0.0
  0
ARC
  5
121
330
1F
100
AcDbEntity
  8
0
  6
LTYPE1
 62
     2
100
AcDbCircle
 10
855.224999996
 20
751.674999996
 30
0.0
 40
6.000000004
100
AcDbArc
 50
0.0
 51
89.999999964
  0
LINE
  5
122
330
1F
100
AcDbEntity
  8
0
  6
LTYPE1
 62
     2
100
AcDbLine
 10
861.225
 20
751.675
 30
0.0
 11
861.225
 21
743.675
 31
0.0
  0
LINE
  5
123
330
1F
100
AcDbEntity
  8
0
  6
LTYPE1
 62
     2
100
AcDbLine
 10
851.225
 20
757.675
 30
0.0
 11
851.225
 21
737.675
 31
0.0
  0
LINE
  5
124
330
1F
100
AcDbEntity
  8
0
  6
LTYPE1
 62
     2
100
AcDbLine
 10
851.225
 20
737.675
 30
0.0
 11
855.225
 21
737.675
 31
0.0
  0
LINE
  5
125
330
1F
100
AcDbEntity
  8
0
  6
LTYPE1
 62
     2
100
AcDbLine
 10
863.225
 20
759.67501079
 30
0.0
 11
853.225
 21
759.67501079
 31
0.0
  0
ARC
  5
126
330
1F
100
AcDbEntity
  8
0
  6
LTYPE1
 62
     2
100
AcDbCircle
 10
697.025
 20
743.675
 30
0.0
 40
6.0
100
AcDbArc
 50
180.0
 51
270.0
  0
ARC
  5
127
330
1F
100
AcDbEntity
  8
0
  6
LTYPE1
 62
     2
100
AcDbCircle
 10
697.025000004
 20
751.674999996
 30
0.0
 40
6.000000004
100
AcDbArc
 50
90.000000037
 51
180.0
  0
LINE
  5
128
330
1F
100
AcDbEntity
  8
0
  6
LTYPE1
 62
     2
100
AcDbLine
 10
691.025
 20
751.675
 30
0.0
 11
691.025
 21
743.675
 31
0.0
  0
LINE
  5
129
330
1F
100
AcDbEntity
  8
0
  6
LTYPE1
 62
     2
100
AcDbLine
 10
701.025
 20
757.675
 30
0.0
 11
701.025
 21
737.675
 31
0.0
  0
LINE
  5
12A
330
1F
100
AcDbEntity
  8
0
  6
LTYPE1
 62
     2
100
AcDbLine
 10
701.025
 20
737.675
 30
0.0
 11
697.025
 21
737.675
 31
0.0
  0
ARC
  5
12B
330
1F
100
AcDbEntity
  8
0
  6
Continuous
 62
     2
100
AcDbCircle
 10
699.025
 20
757.675
 30
0.0
 40
2.0
100
AcDbArc
 50
0.0
 51
90.0
  0
LINE
  5
12C
330
1F
100
AcDbEntity
  8
0
  6
LTYPE1
 62
     2
100
AcDbLine
 10
689.025
 20
759.67501079
 30
0.0
 11
699.025
 21
759.67501079
 31
0.0
  0
LINE
  5
12D
330
1F
100
AcDbEntity
  8
0
  6
Continuous
 62
     2
100
AcDbLine
 10
681.025
 20
757.675
 30
0.0
 11
689.025
 21
757.675
 31
0.0
  0
ARC
  5
12E
330
1F
100
AcDbEntity
  8
0
  6
Continuous
 62
     2
100
AcDbCircle
 10
683.025
 20
765.675
 30
0.0
 40
6.0
100
AcDbArc
 50
270.0
 51
0.0
  0
LINE
  5
12F
330
1F
100
AcDbEntity
  8
0
  6
Continuous
 62
     2
100
AcDbLine
 10
679.025
 20
759.675
 30
0.0
 11
679.025
 21
779.675
 31
0.0
  0
ARC
  5
130
330
1F
100
AcDbEntity
  8
0
  6
Continuous
 62
     2
100
AcDbCircle
 10
681.025
 20
759.675
 30
0.0
 40
2.0
100
AcDbArc
 50
180.0
 51
270.0
  0
LINE
  5
131
330
1F
100
AcDbEntity
  8
0
  6
Continuous
 62
     2
100
AcDbLine
 10
681.025
 20
759.67501079
 30
0.0
 11
689.025
 21
759.67501079
 31
0.0
  0
ARC
  5
132
330
1F
100
AcDbEntity
  8
0
  6
Continuous
 62
     2
100
AcDbCircle
 10
683.025
 20
773.675
 30
0.0
 40
6.0
100
AcDbArc
 50
0.0
 51
90.0
  0
LINE
  5
133
330
1F
100
AcDbEntity
  8
0
  6
Continuous
 62
     2
100
AcDbLine
 10
679.025
 20
779.675
 30
0.0
 11
683.025
 21
779.675
 31
0.0
  0
CIRCLE
  5
134
330
1F
100
AcDbEntity
  8
0
  6
Continuous
 62
     2
100
AcDbCircle
 10
901.225
 20
1782.675
 30
0.0
 40
12.0
  0
CIRCLE
  5
135
330
1F
100
AcDbEntity
  8
0
  6
Continuous
 62
     2
100
AcDbCircle
 10
901.225
 20
1752.675
 30
0.0
 40
12.0
  0
CIRCLE
  5
136
330
1F
100
AcDbEntity
  8
0
  6
Continuous
 62
     2
100
AcDbCircle
 10
331.225
 20
1752.675
 30
0.0
 40
12.0
  0
CIRCLE
  5
137
330
1F
100
AcDbEntity
  8
0
  6
Continuous
 62
     2
100
AcDbCircle
 10
331.225
 20
1782.675
 30
0.0
 40
12.0
  0
CIRCLE
  5
138
330
1F
100
AcDbEntity
  8
0
  6
Continuous
 62
     2
100
AcDbCircle
 10
331.225
 20
1232.675
 30
0.0
 40
12.0
  0
CIRCLE
  5
139
330
1F
100
AcDbEntity
  8
0
  6
Continuous
 62
     2
100
AcDbCircle
 10
331.225
 20
1202.675
 30
0.0
 40
12.0
  0
CIRCLE
  5
13A
330
1F
100
AcDbEntity
  8
0
  6
Continuous
 62
     2
100
AcDbCircle
 10
901.225
 20
1202.675
 30
0.0
 40
12.0
  0
CIRCLE
  5
13B
330
1F
100
AcDbEntity
  8
0
  6
Continuous
 62
     2
100
AcDbCircle
 10
901.225
 20
1232.675
 30
0.0
 40
12.0
  0
LINE
  5
13C
330
1F
100
AcDbEntity
  8
0
  6
Continuous
 62
     2
100
AcDbLine
 10
913.225
 20
820.175
 30
0.0
 11
913.225
 21
822.175
 31
0.0
  0
LINE
  5
13D
330
1F
100
AcDbEntity
  8
0
  6
Continuous
 62
     2
100
AcDbLine
 10
913.225
 20
822.175
 30
0.0
 11
889.225
 21
822.175
 31
0.0
  0
LINE
  5
13E
330
1F
100
AcDbEntity
  8
0
  6
Continuous
 62
     2
100
AcDbLine
 10
889.225
 20
822.175
 30
0.0
 11
889.225
 21
820.175
 31
0.0
  0
LINE
  5
13F
330
1F
100
AcDbEntity
  8
0
  6
Continuous
 62
     2
100
AcDbLine
 10
319.225
 20
820.275
 30
0.0
 11
319.225
 21
822.275
 31
0.0
  0
LINE
  5
140
330
1F
100
AcDbEntity
  8
0
  6
Continuous
 62
     2
100
AcDbLine
 10
319.225
 20
822.275
 30
0.0
 11
343.225
 21
822.275
 31
0.0
  0
LINE
  5
141
330
1F
100
AcDbEntity
  8
0
  6
Continuous
 62
     2
100
AcDbLine
 10
343.225
 20
822.275
 30
0.0
 11
343.225
 21
820.275
 31
0.0
  0
LINE
  5
142
330
1F
100
AcDbEntity
  8
0
  6
Continuous
 62
     1
100
AcDbLine
 10
316.225
 20
276.675
 30
0.0
 11
916.225
 21
276.675
 31
0.0
  0
LINE
  5
143
330
1F
100
AcDbEntity
  8
0
  6
Continuous
 62
     1
100
AcDbLine
 10
916.225
 20
306.675
 30
0.0
 11
316.225
 21
306.675
 31
0.0
  0
LINE
  5
144
330
1F
100
AcDbEntity
  8
0
  6
Continuous
 62
     1
100
AcDbLine
 10
316.225
 20
306.675
 30
0.0
 11
316.225
 21
276.675
 31
0.0
  0
LINE
  5
145
330
1F
100
AcDbEntity
  8
0
  6
Continuous
 62
     1
100
AcDbLine
 10
686.025
 20
306.675
 30
0.0
 11
866.225
 21
306.675
 31
0.0
  0
LINE
  5
146
330
1F
100
AcDbEntity
  8
0
  6
Continuous
 62
     1
100
AcDbLine
 10
916.225
 20
276.675
 30
0.0
 11
916.225
 21
306.675
 31
0.0
  0
LINE
  5
147
330
1F
100
AcDbEntity
  8
0
  6
Continuous
 62
     2
100
AcDbLine
 10
911.225
 20
276.675
 30
0.0
 11
911.225
 21
272.675
 31
0.0
  0
LINE
  5
148
330
1F
100
AcDbEntity
  8
0
  6
Continuous
 62
     2
100
AcDbLine
 10
911.225
 20
272.675
 30
0.0
 11
867.225
 21
272.675
 31
0.0
  0
LINE
  5
149
330
1F
100
AcDbEntity
  8
0
  6
Continuous
 62
     2
100
AcDbLine
 10
867.225
 20
272.675
 30
0.0
 11
867.225
 21
276.675
 31
0.0
  0
LINE
  5
14A
330
1F
100
AcDbEntity
  8
0
  6
Continuous
 62
     2
100
AcDbLine
 10
321.225
 20
276.675
 30
0.0
 11
321.225
 21
272.675
 31
0.0
  0
LINE
  5
14B
330
1F
100
AcDbEntity
  8
0
  6
Continuous
 62
     2
100
AcDbLine
 10
321.225
 20
272.675
 30
0.0
 11
365.225
 21
272.675
 31
0.0
  0
LINE
  5
14C
330
1F
100
AcDbEntity
  8
0
  6
Continuous
 62
     2
100
AcDbLine
 10
365.225
 20
272.675
 30
0.0
 11
365.225
 21
276.675
 31
0.0
  0
LINE
  5
14D
330
1F
100
AcDbEntity
  8
0
  6
Continuous
 62
     2
100
AcDbLine
 10
316.225
 20
276.675
 30
0.0
 11
313.225
 21
276.675
 31
0.0
  0
LINE
  5
14E
330
1F
100
AcDbEntity
  8
0
  6
Continuous
 62
     2
100
AcDbLine
 10
313.225
 20
306.675
 30
0.0
 11
316.225
 21
306.675
 31
0.0
  0
ARC
  5
14F
330
1F
100
AcDbEntity
  8
0
  6
Continuous
 62
     2
100
AcDbCircle
 10
425.225
 20
291.675
 30
0.0
 40
113.0
100
AcDbArc
 50
172.371850331
 51
187.628149669
  0
LINE
  5
150
330
1F
100
AcDbEntity
  8
0
  6
Continuous
 62
     2
100
AcDbLine
 10
916.225
 20
276.675
 30
0.0
 11
919.225
 21
276.675
 31
0.0
  0
LINE
  5
151
330
1F
100
AcDbEntity
  8
0
  6
Continuous
 62
     2
100
AcDbLine
 10
919.225
 20
306.675
 30
0.0
 11
916.225
 21
306.675
 31
0.0
  0
ARC
  5
152
330
1F
100
AcDbEntity
  8
0
  6
Continuous
 62
     2
100
AcDbCircle
 10
807.225
 20
291.675
 30
0.0
 40
113.0
100
AcDbArc
 50
352.371850331
 51
7.628149669
  0
LINE
  5
153
330
1F
100
AcDbEntity
  8
0
  6
Continuous
 62
     1
100
AcDbLine
 10
686.025
 20
757.675
 30
0.0
 11
686.025
 21
306.675
 31
0.0
  0
LINE
  5
154
330
1F
100
AcDbEntity
  8
0
  6
LTYPE1
 62
     2
100
AcDbLine
 10
863.225
 20
311.675
 30
0.0
 11
863.225
 21
757.675
 31
0.0
  0
LINE
  5
155
330
1F
100
AcDbEntity
  8
0
  6
Continuous
 62
     1
100
AcDbLine
 10
866.225
 20
306.675
 30
0.0
 11
866.225
 21
757.675
 31
0.0
  0
LINE
  5
156
330
1F
100
AcDbEntity
  8
0
  6
Continuous
 62
     2
100
AcDbLine
 10
816.125
 20
1933.975
 30
0.0
 11
815.625
 21
1933.475
 31
0.0
  0
LINE
  5
157
330
1F
100
AcDbEntity
  8
0
  6
Continuous
 62
     2
100
AcDbLine
 10
815.625
 20
1933.475
 30
0.0
 11
806.625
 21
1933.475
 31
0.0
  0
LINE
  5
158
330
1F
100
AcDbEntity
  8
0
  6
Continuous
 62
     2
100
AcDbLine
 10
806.125
 20
1933.975
 30
0.0
 11
806.625
 21
1933.475
 31
0.0
  0
LINE
  5
159
330
1F
100
AcDbEntity
  8
0
  6
Continuous
 62
     2
100
AcDbLine
 10
746.125
 20
1933.975
 30
0.0
 11
745.625
 21
1933.475
 31
0.0
  0
LINE
  5
15A
330
1F
100
AcDbEntity
  8
0
  6
Continuous
 62
     2
100
AcDbLine
 10
745.625
 20
1933.475
 30
0.0
 11
736.625
 21
1933.475
 31
0.0
  0
LINE
  5
15B
330
1F
100
AcDbEntity
  8
0
  6
Continuous
 62
     2
100
AcDbLine
 10
736.125
 20
1933.975
 30
0.0
 11
736.625
 21
1933.475
 31
0.0
  0
LINE
  5
15C
330
1F
100
AcDbEntity
  8
0
  6
Continuous
 62
     2
100
AcDbLine
 10
806.125
 20
1933.975
 30
0.0
 11
806.125
 21
1937.475
 31
0.0
  0
LINE
  5
15D
330
1F
100
AcDbEntity
  8
0
  6
Continuous
 62
     2
100
AcDbLine
 10
816.125
 20
1937.475
 30
0.0
 11
816.125
 21
1933.975
 31
0.0
  0
LINE
  5
15E
330
1F
100
AcDbEntity
  8
0
  6
Continuous
 62
     2
100
AcDbLine
 10
746.125
 20
1937.675
 30
0.0
 11
746.125
 21
1933.975
 31
0.0
  0
LINE
  5
15F
330
1F
100
AcDbEntity
  8
0
  6
Continuous
 62
     2
100
AcDbLine
 10
736.125
 20
1937.675
 30
0.0
 11
736.125
 21
1933.975
 31
0.0
  0
LINE
  5
160
330
1F
100
AcDbEntity
  8
0
  6
LTYPE1
 62
     2
100
AcDbLine
 10
821.625
 20
1807.675
 30
0.0
 11
821.625
 21
1937.675
 31
0.0
  0
LINE
  5
161
330
1F
100
AcDbEntity
  8
0
  6
LTYPE1
 62
     2
100
AcDbLine
 10
800.625
 20
1937.675
 30
0.0
 11
800.625
 21
1807.675
 31
0.0
  0
LINE
  5
162
330
1F
100
AcDbEntity
  8
0
  6
LTYPE1
 62
     2
100
AcDbLine
 10
751.625
 20
1809.675
 30
0.0
 11
751.625
 21
1937.675
 31
0.0
  0
LINE
  5
163
330
1F
100
AcDbEntity
  8
0
  6
LTYPE1
 62
     2
100
AcDbLine
 10
730.625
 20
1937.675
 30
0.0
 11
730.625
 21
1809.675
 31
0.0
  0
LINE
  5
164
330
1F
100
AcDbEntity
  8
0
  6
Continuous
 62
     2
100
AcDbLine
 10
819.125
 20
577.675
 30
0.0
 11
833.125
 21
577.675
 31
0.0
  0
LINE
  5
165
330
1F
100
AcDbEntity
  8
0
  6
Continuous
 62
     2
100
AcDbLine
 10
833.125
 20
737.675
 30
0.0
 11
819.125
 21
737.675
 31
0.0
  0
LINE
  5
166
330
1F
100
AcDbEntity
  8
0
  6
Continuous
 62
     2
100
AcDbLine
 10
826.125
 20
744.675
 30
0.0
 11
826.125
 21
730.675
 31
0.0
  0
LINE
  5
167
330
1F
100
AcDbEntity
  8
0
  6
Continuous
 62
     2
100
AcDbLine
 10
726.125
 20
730.675
 30
0.0
 11
726.125
 21
744.675
 31
0.0
  0
LINE
  5
168
330
1F
100
AcDbEntity
  8
0
  6
Continuous
 62
     2
100
AcDbLine
 10
733.125
 20
737.675
 30
0.0
 11
719.125
 21
737.675
 31
0.0
  0
LINE
  5
169
330
1F
100
AcDbEntity
  8
0
  6
Continuous
 62
     2
100
AcDbLine
 10
826.125
 20
584.675
 30
0.0
 11
826.125
 21
570.675
 31
0.0
  0
LINE
  5
16A
330
1F
100
AcDbEntity
  8
0
  6
Continuous
 62
     2
100
AcDbLine
 10
726.125
 20
570.675
 30
0.0
 11
726.125
 21
584.675
 31
0.0
  0
LINE
  5
16B
330
1F
100
AcDbEntity
  8
0
  6
Continuous
 62
     2
100
AcDbLine
 10
733.125
 20
577.675
 30
0.0
 11
719.125
 21
577.675
 31
0.0
  0
LINE
  5
16C
330
1F
100
AcDbEntity
  8
0
  6
LTYPE1
 62
     2
100
AcDbLine
 10
863.025
 20
787.675
 30
0.0
 11
863.025
 21
777.675
 31
0.0
  0
LINE
  5
16D
330
1F
100
AcDbEntity
  8
0
  6
Continuous
 62
     2
100
AcDbLine
 10
926.225
 20
306.675
 30
0.0
 11
1018.725
 21
306.675
 31
0.0
  0
LINE
  5
16E
330
1F
100
AcDbEntity
  8
0
  6
Continuous
 62
     2
100
AcDbLine
 10
1016.225
 20
306.675
 30
0.0
 11
1014.930904774
 21
301.845370869
 31
0.0
  0
LINE
  5
16F
330
1F
100
AcDbEntity
  8
0
  6
Continuous
 62
     2
100
AcDbLine
 10
1016.225
 20
306.675
 30
0.0
 11
1017.519095226
 21
301.845370869
 31
0.0
  0
LINE
  5
170
330
1F
100
AcDbEntity
  8
0
  6
Continuous
 62
     2
100
AcDbLine
 10
1016.225
 20
306.675
 30
0.0
 11
1016.225
 21
276.675
 31
0.0
  0
LINE
  5
171
330
1F
100
AcDbEntity
  8
0
  6
Continuous
 62
     2
100
AcDbLine
 10
1016.225
 20
276.675
 30
0.0
 11
1017.519095226
 21
281.504629131
 31
0.0
  0
LINE
  5
172
330
1F
100
AcDbEntity
  8
0
  6
Continuous
 62
     2
100
AcDbLine
 10
1016.225
 20
276.675
 30
0.0
 11
1014.930904774
 21
281.504629131
 31
0.0
  0
LINE
  5
173
330
1F
100
AcDbEntity
  8
0
  6
Continuous
 62
     2
100
AcDbLine
 10
926.225
 20
276.675
 30
0.0
 11
1018.725
 21
276.675
 31
0.0
  0
MTEXT
  5
174
330
1F
100
AcDbEntity
  8
0
  6
Continuous
 62
     2
100
AcDbMText
 10
1011.225
 20
281.675
 30
0.0
 40
15.0
 41
40.00000002
 71
     7
 72
     1
  1
\W0.667;３０
  7
KANJI2
 11
0.0
 21
1.0
 31
0.0
 73
     1
 44
1.0
  0
LINE
  5
176
330
1F
100
AcDbEntity
  8
0
  6
Continuous
 62
     2
100
AcDbLine
 10
926.225
 20
787.675
 30
0.0
 11
1018.725
 21
787.675
 31
0.0
  0
LINE
  5
177
330
1F
100
AcDbEntity
  8
0
  6
Continuous
 62
     2
100
AcDbLine
 10
1016.225
 20
787.675
 30
0.0
 11
1017.519095226
 21
792.504629131
 31
0.0
  0
LINE
  5
178
330
1F
100
AcDbEntity
  8
0
  6
Continuous
 62
     2
100
AcDbLine
 10
1016.225
 20
787.675
 30
0.0
 11
1014.930904774
 21
792.504629131
 31
0.0
  0
LINE
  5
179
330
1F
100
AcDbEntity
  8
0
  6
Continuous
 62
     2
100
AcDbLine
 10
1016.225
 20
787.675
 30
0.0
 11
1016.225
 21
817.675
 31
0.0
  0
LINE
  5
17A
330
1F
100
AcDbEntity
  8
0
  6
Continuous
 62
     2
100
AcDbLine
 10
1016.225
 20
817.675
 30
0.0
 11
1014.930904774
 21
812.845370869
 31
0.0
  0
LINE
  5
17B
330
1F
100
AcDbEntity
  8
0
  6
Continuous
 62
     2
100
AcDbLine
 10
1016.225
 20
817.675
 30
0.0
 11
1017.519095226
 21
812.845370869
 31
0.0
  0
LINE
  5
17C
330
1F
100
AcDbEntity
  8
0
  6
Continuous
 62
     2
100
AcDbLine
 10
926.225
 20
817.675
 30
0.0
 11
1018.725
 21
817.675
 31
0.0
  0
MTEXT
  5
17D
330
1F
100
AcDbEntity
  8
0
  6
Continuous
 62
     2
100
AcDbMText
 10
1011.225
 20
792.675
 30
0.0
 40
15.0
 41
40.00000002
 71
     7
 72
     1
  1
\W0.667;３０
  7
KANJI2
 11
0.0
 21
1.0
 31
0.0
 73
     1
 44
1.0
  0
LINE
  5
17E
330
1F
100
AcDbEntity
  8
0
  6
Continuous
 62
     2
100
AcDbLine
 10
923.225
 20
822.175
 30
0.0
 11
1068.725
 21
822.175
 31
0.0
  0
LINE
  5
17F
330
1F
100
AcDbEntity
  8
0
  6
Continuous
 62
     2
100
AcDbLine
 10
1066.225
 20
822.175
 30
0.0
 11
1064.930904774
 21
817.345370869
 31
0.0
  0
LINE
  5
180
330
1F
100
AcDbEntity
  8
0
  6
Continuous
 62
     2
100
AcDbLine
 10
1066.225
 20
822.175
 30
0.0
 11
1067.519095226
 21
817.345370869
 31
0.0
  0
LINE
  5
181
330
1F
100
AcDbEntity
  8
0
  6
Continuous
 62
     2
100
AcDbLine
 10
1066.225
 20
822.175
 30
0.0
 11
1066.225
 21
272.675
 31
0.0
  0
LINE
  5
182
330
1F
100
AcDbEntity
  8
0
  6
Continuous
 62
     2
100
AcDbLine
 10
1066.225
 20
272.675
 30
0.0
 11
1067.519095226
 21
277.504629131
 31
0.0
  0
LINE
  5
183
330
1F
100
AcDbEntity
  8
0
  6
Continuous
 62
     2
100
AcDbLine
 10
1066.225
 20
272.675
 30
0.0
 11
1064.930904774
 21
277.504629131
 31
0.0
  0
LINE
  5
184
330
1F
100
AcDbEntity
  8
0
  6
Continuous
 62
     2
100
AcDbLine
 10
923.225
 20
272.675
 30
0.0
 11
1068.725
 21
272.675
 31
0.0
  0
MTEXT
  5
185
330
1F
100
AcDbEntity
  8
0
  6
Continuous
 62
     2
100
AcDbMText
 10
1061.225
 20
532.425
 30
0.0
 40
15.0
 41
60.00000003
 71
     7
 72
     1
  1
\W0.667;５５０
  7
KANJI2
 11
0.0
 21
1.0
 31
0.0
 73
     1
 44
1.0
  0
LINE
  5
186
330
1F
100
AcDbEntity
  8
0
  6
Continuous
 62
     2
100
AcDbLine
 10
1066.225
 20
272.675
 30
0.0
 11
1118.725
 21
272.675
 31
0.0
  0
LINE
  5
187
330
1F
100
AcDbEntity
  8
0
  6
Continuous
 62
     2
100
AcDbLine
 10
1116.225
 20
272.675
 30
0.0
 11
1117.519095226
 21
277.504629131
 31
0.0
  0
LINE
  5
188
330
1F
100
AcDbEntity
  8
0
  6
Continuous
 62
     2
100
AcDbLine
 10
1116.225
 20
272.675
 30
0.0
 11
1114.930904774
 21
277.504629131
 31
0.0
  0
LINE
  5
189
330
1F
100
AcDbEntity
  8
0
  6
Continuous
 62
     2
100
AcDbLine
 10
1116.225
 20
272.675
 30
0.0
 11
1116.225
 21
972.175
 31
0.0
  0
LINE
  5
18A
330
1F
100
AcDbEntity
  8
0
  6
Continuous
 62
     2
100
AcDbLine
 10
1116.225
 20
972.175
 30
0.0
 11
1114.930904774
 21
967.345370869
 31
0.0
  0
LINE
  5
18B
330
1F
100
AcDbEntity
  8
0
  6
Continuous
 62
     2
100
AcDbLine
 10
1116.225
 20
972.175
 30
0.0
 11
1117.519095226
 21
967.345370869
 31
0.0
  0
MTEXT
  5
18C
330
1F
100
AcDbEntity
  8
0
  6
Continuous
 62
     2
100
AcDbMText
 10
1111.225
 20
587.425
 30
0.0
 40
15.0
 41
140.00000007
 71
     7
 72
     1
  1
\W0.667;５５０～７００
  7
KANJI2
 11
0.0
 21
1.0
 31
0.0
 73
     1
 44
1.0
  0
LINE
  5
18D
330
1F
100
AcDbEntity
  8
0
  6
Continuous
 62
     2
100
AcDbLine
 10
1066.225
 20
822.175
 30
0.0
 11
1067.519095226
 21
827.004629131
 31
0.0
  0
LINE
  5
18E
330
1F
100
AcDbEntity
  8
0
  6
Continuous
 62
     2
100
AcDbLine
 10
1066.225
 20
822.175
 30
0.0
 11
1064.930904774
 21
827.004629131
 31
0.0
  0
LINE
  5
18F
330
1F
100
AcDbEntity
  8
0
  6
Continuous
 62
     2
100
AcDbLine
 10
1066.225
 20
972.175
 30
0.0
 11
1064.930904774
 21
967.345370869
 31
0.0
  0
LINE
  5
190
330
1F
100
AcDbEntity
  8
0
  6
Continuous
 62
     2
100
AcDbLine
 10
1066.225
 20
972.175
 30
0.0
 11
1067.519095226
 21
967.345370869
 31
0.0
  0
LINE
  5
191
330
1F
100
AcDbEntity
  8
0
  6
Continuous
 62
     2
100
AcDbLine
 10
316.225
 20
830.275
 30
0.0
 11
316.225
 21
882.775
 31
0.0
  0
LINE
  5
192
330
1F
100
AcDbEntity
  8
0
  6
Continuous
 62
     2
100
AcDbLine
 10
316.225
 20
880.275
 30
0.0
 11
321.054629131
 21
878.980904774
 31
0.0
  0
LINE
  5
193
330
1F
100
AcDbEntity
  8
0
  6
Continuous
 62
     2
100
AcDbLine
 10
316.225
 20
880.275
 30
0.0
 11
321.054629131
 21
881.569095226
 31
0.0
  0
LINE
  5
194
330
1F
100
AcDbEntity
  8
0
  6
Continuous
 62
     2
100
AcDbLine
 10
316.225
 20
880.275
 30
0.0
 11
388.225
 21
880.275
 31
0.0
  0
LINE
  5
195
330
1F
100
AcDbEntity
  8
0
  6
Continuous
 62
     2
100
AcDbLine
 10
388.225
 20
880.275
 30
0.0
 11
383.395370869
 21
881.569095226
 31
0.0
  0
LINE
  5
196
330
1F
100
AcDbEntity
  8
0
  6
Continuous
 62
     2
100
AcDbLine
 10
388.225
 20
880.275
 30
0.0
 11
383.395370869
 21
878.980904774
 31
0.0
  0
LINE
  5
197
330
1F
100
AcDbEntity
  8
0
  6
Continuous
 62
     2
100
AcDbLine
 10
388.225
 20
830.675
 30
0.0
 11
388.225
 21
882.775
 31
0.0
  0
MTEXT
  5
198
330
1F
100
AcDbEntity
  8
0
  6
Continuous
 62
     2
100
AcDbMText
 10
342.225
 20
885.275
 30
0.0
 40
15.0
 41
40.00000002
 71
     7
 72
     1
  1
\W0.667;７２
  7
KANJI2
 73
     1
 44
1.0
  0
LINE
  5
199
330
1F
100
AcDbEntity
  8
0
  6
Continuous
 62
     2
100
AcDbLine
 10
388.225
 20
880.275
 30
0.0
 11
393.054629131
 21
878.980904774
 31
0.0
  0
LINE
  5
19A
330
1F
100
AcDbEntity
  8
0
  6
Continuous
 62
     2
100
AcDbLine
 10
388.225
 20
880.275
 30
0.0
 11
393.054629131
 21
881.569095226
 31
0.0
  0
LINE
  5
19B
330
1F
100
AcDbEntity
  8
0
  6
Continuous
 62
     2
100
AcDbLine
 10
388.225
 20
880.275
 30
0.0
 11
873.225
 21
880.275
 31
0.0
  0
LINE
  5
19C
330
1F
100
AcDbEntity
  8
0
  6
Continuous
 62
     2
100
AcDbLine
 10
873.225
 20
880.275
 30
0.0
 11
868.395370869
 21
881.569095226
 31
0.0
  0
LINE
  5
19D
330
1F
100
AcDbEntity
  8
0
  6
Continuous
 62
     2
100
AcDbLine
 10
873.225
 20
880.275
 30
0.0
 11
868.395370869
 21
878.980904774
 31
0.0
  0
LINE
  5
19E
330
1F
100
AcDbEntity
  8
0
  6
Continuous
 62
     2
100
AcDbLine
 10
873.225
 20
827.675
 30
0.0
 11
873.225
 21
882.775
 31
0.0
  0
MTEXT
  5
19F
330
1F
100
AcDbEntity
  8
0
  6
Continuous
 62
     2
100
AcDbMText
 10
615.725
 20
885.275
 30
0.0
 40
15.0
 41
60.00000003
 71
     7
 72
     1
  1
\W0.667;４８５
  7
KANJI2
 73
     1
 44
1.0
  0
LINE
  5
1A0
330
1F
100
AcDbEntity
  8
0
  6
Continuous
 62
     2
100
AcDbLine
 10
873.225
 20
880.275
 30
0.0
 11
878.054629131
 21
878.980904774
 31
0.0
  0
LINE
  5
1A1
330
1F
100
AcDbEntity
  8
0
  6
Continuous
 62
     2
100
AcDbLine
 10
873.225
 20
880.275
 30
0.0
 11
878.054629131
 21
881.569095226
 31
0.0
  0
LINE
  5
1A2
330
1F
100
AcDbEntity
  8
0
  6
Continuous
 62
     2
100
AcDbLine
 10
873.225
 20
880.275
 30
0.0
 11
916.225
 21
880.275
 31
0.0
  0
LINE
  5
1A3
330
1F
100
AcDbEntity
  8
0
  6
Continuous
 62
     2
100
AcDbLine
 10
916.225
 20
880.275
 30
0.0
 11
911.395370869
 21
881.569095226
 31
0.0
  0
LINE
  5
1A4
330
1F
100
AcDbEntity
  8
0
  6
Continuous
 62
     2
100
AcDbLine
 10
916.225
 20
880.275
 30
0.0
 11
911.395370869
 21
878.980904774
 31
0.0
  0
LINE
  5
1A5
330
1F
100
AcDbEntity
  8
0
  6
Continuous
 62
     2
100
AcDbLine
 10
916.225
 20
827.275
 30
0.0
 11
916.225
 21
882.775
 31
0.0
  0
MTEXT
  5
1A6
330
1F
100
AcDbEntity
  8
0
  6
Continuous
 62
     2
100
AcDbMText
 10
884.725
 20
885.275
 30
0.0
 40
15.0
 41
40.00000002
 71
     7
 72
     1
  1
\W0.667;４３
  7
KANJI2
 73
     1
 44
1.0
  0
LINE
  5
1A7
330
1F
100
AcDbEntity
  8
0
  6
Continuous
 62
     2
100
AcDbLine
 10
1016.225
 20
817.675
 30
0.0
 11
1048.725
 21
817.675
 31
0.0
  0
LINE
  5
1A8
330
1F
100
AcDbEntity
  8
0
  6
Continuous
 62
     2
100
AcDbLine
 10
1046.225
 20
817.675
 30
0.0
 11
1044.930904774
 21
812.845370869
 31
0.0
  0
LINE
  5
1A9
330
1F
100
AcDbEntity
  8
0
  6
Continuous
 62
     2
100
AcDbLine
 10
1046.225
 20
817.675
 30
0.0
 11
1047.519095226
 21
812.845370869
 31
0.0
  0
LINE
  5
1AA
330
1F
100
AcDbEntity
  8
0
  6
Continuous
 62
     2
100
AcDbLine
 10
1046.225
 20
817.675
 30
0.0
 11
1046.225
 21
777.675
 31
0.0
  0
LINE
  5
1AB
330
1F
100
AcDbEntity
  8
0
  6
Continuous
 62
     2
100
AcDbLine
 10
1046.225
 20
777.675
 30
0.0
 11
1047.519095226
 21
782.504629131
 31
0.0
  0
LINE
  5
1AC
330
1F
100
AcDbEntity
  8
0
  6
Continuous
 62
     2
100
AcDbLine
 10
1046.225
 20
777.675
 30
0.0
 11
1044.930904774
 21
782.504629131
 31
0.0
  0
LINE
  5
1AD
330
1F
100
AcDbEntity
  8
0
  6
Continuous
 62
     2
100
AcDbLine
 10
926.225
 20
777.675
 30
0.0
 11
1048.725
 21
777.675
 31
0.0
  0
MTEXT
  5
1AE
330
1F
100
AcDbEntity
  8
0
  6
Continuous
 62
     2
100
AcDbMText
 10
1041.225
 20
787.675
 30
0.0
 40
15.0
 41
40.00000002
 71
     7
 72
     1
  1
\W0.667;４０
  7
KANJI2
 11
0.0
 21
1.0
 31
0.0
 73
     1
 44
1.0
  0
POINT
  5
1AF
330
1F
100
AcDbEntity
  8
0
  6
Continuous
 62
     2
100
AcDbPoint
 10
916.225
 20
1940.275
 30
0.0
  0
POINT
  5
1B0
330
1F
100
AcDbEntity
  8
0
  6
Continuous
 62
     2
100
AcDbPoint
 10
916.225
 20
1940.275
 30
0.0
  0
POINT
  5
1B1
330
1F
100
AcDbEntity
  8
0
  6
Continuous
 62
     2
100
AcDbPoint
 10
916.225
 20
1940.275
 30
0.0
  0
POINT
  5
1B2
330
1F
100
AcDbEntity
  8
0
  6
Continuous
 62
     2
100
AcDbPoint
 10
916.225
 20
1940.275
 30
0.0
  0
LINE
  5
1B3
330
1F
100
AcDbEntity
  8
0
  6
Continuous
 62
     1
100
AcDbLine
 10
316.225
 20
1937.675
 30
0.0
 11
916.225
 21
1937.675
 31
0.0
  0
LINE
  5
1B4
330
1F
100
AcDbEntity
  8
0
  6
Continuous
 62
     1
100
AcDbLine
 10
316.225
 20
1937.675
 30
0.0
 11
316.225
 21
1997.675
 31
0.0
  0
LINE
  5
1B5
330
1F
100
AcDbEntity
  8
0
  6
Continuous
 62
     1
100
AcDbLine
 10
916.225
 20
1997.675
 30
0.0
 11
916.225
 21
1937.675
 31
0.0
  0
LINE
  5
1B6
330
1F
100
AcDbEntity
  8
0
  6
Continuous
 62
     1
100
AcDbLine
 10
316.225
 20
1997.675
 30
0.0
 11
916.225
 21
1997.675
 31
0.0
  0
LINE
  5
1B7
330
1F
100
AcDbEntity
  8
0
  6
LTYPE2
 62
     2
100
AcDbLine
 10
969.475
 20
1767.675
 30
0.0
 11
304.475
 21
1767.675
 31
0.0
  0
LINE
  5
1B8
330
1F
100
AcDbEntity
  8
0
  6
Continuous
 62
     2
100
AcDbLine
 10
926.225
 20
1187.675
 30
0.0
 11
1068.725
 21
1187.675
 31
0.0
  0
LINE
  5
1B9
330
1F
100
AcDbEntity
  8
0
  6
Continuous
 62
     2
100
AcDbLine
 10
1066.225
 20
1187.675
 30
0.0
 11
1067.519095226
 21
1192.504629131
 31
0.0
  0
LINE
  5
1BA
330
1F
100
AcDbEntity
  8
0
  6
Continuous
 62
     2
100
AcDbLine
 10
1066.225
 20
1187.675
 30
0.0
 11
1064.930904774
 21
1192.504629131
 31
0.0
  0
LINE
  5
1BB
330
1F
100
AcDbEntity
  8
0
  6
Continuous
 62
     2
100
AcDbLine
 10
1066.225
 20
1187.675
 30
0.0
 11
1066.225
 21
1247.675
 31
0.0
  0
LINE
  5
1BC
330
1F
100
AcDbEntity
  8
0
  6
Continuous
 62
     2
100
AcDbLine
 10
1066.225
 20
1247.675
 30
0.0
 11
1064.930904774
 21
1242.845370869
 31
0.0
  0
LINE
  5
1BD
330
1F
100
AcDbEntity
  8
0
  6
Continuous
 62
     2
100
AcDbLine
 10
1066.225
 20
1247.675
 30
0.0
 11
1067.519095226
 21
1242.845370869
 31
0.0
  0
LINE
  5
1BE
330
1F
100
AcDbEntity
  8
0
  6
Continuous
 62
     2
100
AcDbLine
 10
926.225
 20
1247.675
 30
0.0
 11
1068.725
 21
1247.675
 31
0.0
  0
MTEXT
  5
1BF
330
1F
100
AcDbEntity
  8
0
  6
Continuous
 62
     2
100
AcDbMText
 10
1061.225
 20
1207.675
 30
0.0
 40
15.0
 41
40.00000002
 71
     7
 72
     1
  1
\W0.667;６０
  7
KANJI2
 11
0.0
 21
1.0
 31
0.0
 73
     1
 44
1.0
  0
LINE
  5
1C0
330
1F
100
AcDbEntity
  8
0
  6
Continuous
 62
     2
100
AcDbLine
 10
1066.225
 20
1187.675
 30
0.0
 11
1118.725
 21
1187.675
 31
0.0
  0
LINE
  5
1C1
330
1F
100
AcDbEntity
  8
0
  6
Continuous
 62
     2
100
AcDbLine
 10
1116.225
 20
1187.675
 30
0.0
 11
1117.519095226
 21
1192.504629131
 31
0.0
  0
LINE
  5
1C2
330
1F
100
AcDbEntity
  8
0
  6
Continuous
 62
     2
100
AcDbLine
 10
1116.225
 20
1187.675
 30
0.0
 11
1114.930904774
 21
1192.504629131
 31
0.0
  0
LINE
  5
1C3
330
1F
100
AcDbEntity
  8
0
  6
Continuous
 62
     2
100
AcDbLine
 10
1116.225
 20
1187.675
 30
0.0
 11
1116.225
 21
1997.675
 31
0.0
  0
LINE
  5
1C4
330
1F
100
AcDbEntity
  8
0
  6
Continuous
 62
     2
100
AcDbLine
 10
1116.225
 20
1997.675
 30
0.0
 11
1114.930904774
 21
1992.845370869
 31
0.0
  0
LINE
  5
1C5
330
1F
100
AcDbEntity
  8
0
  6
Continuous
 62
     2
100
AcDbLine
 10
1116.225
 20
1997.675
 30
0.0
 11
1117.519095226
 21
1992.845370869
 31
0.0
  0
LINE
  5
1C6
330
1F
100
AcDbEntity
  8
0
  6
Continuous
 62
     2
100
AcDbLine
 10
926.225
 20
1997.675
 30
0.0
 11
1118.725
 21
1997.675
 31
0.0
  0
MTEXT
  5
1C7
330
1F
100
AcDbEntity
  8
0
  6
Continuous
 62
     2
100
AcDbMText
 10
1111.225
 20
1552.675
 30
0.0
 40
15.0
 41
160.00000008
 71
     7
 72
     1
  1
\W0.667;６１０～１０００
  7
KANJI2
 11
0.0
 21
1.0
 31
0.0
 73
     1
 44
1.0
  0
LINE
  5
1C8
330
1F
100
AcDbEntity
  8
0
  6
Continuous
 62
     2
100
AcDbLine
 10
1066.225
 20
1997.675
 30
0.0
 11
1064.930904774
 21
1992.845370869
 31
0.0
  0
LINE
  5
1C9
330
1F
100
AcDbEntity
  8
0
  6
Continuous
 62
     2
100
AcDbLine
 10
1066.225
 20
1997.675
 30
0.0
 11
1067.519095226
 21
1992.845370869
 31
0.0
  0
LINE
  5
1CA
330
1F
100
AcDbEntity
  8
0
  6
Continuous
 62
     2
100
AcDbLine
 10
1066.225
 20
1997.675
 30
0.0
 11
1066.225
 21
1937.675
 31
0.0
  0
LINE
  5
1CB
330
1F
100
AcDbEntity
  8
0
  6
Continuous
 62
     2
100
AcDbLine
 10
1066.225
 20
1937.675
 30
0.0
 11
1067.519095226
 21
1942.504629131
 31
0.0
  0
LINE
  5
1CC
330
1F
100
AcDbEntity
  8
0
  6
Continuous
 62
     2
100
AcDbLine
 10
1066.225
 20
1937.675
 30
0.0
 11
1064.930904774
 21
1942.504629131
 31
0.0
  0
LINE
  5
1CD
330
1F
100
AcDbEntity
  8
0
  6
Continuous
 62
     2
100
AcDbLine
 10
926.225
 20
1937.675
 30
0.0
 11
1068.725
 21
1937.675
 31
0.0
  0
MTEXT
  5
1CE
330
1F
100
AcDbEntity
  8
0
  6
Continuous
 62
     2
100
AcDbMText
 10
1061.225
 20
1957.675
 30
0.0
 40
15.0
 41
40.00000002
 71
     7
 72
     1
  1
\W0.667;６０
  7
KANJI2
 11
0.0
 21
1.0
 31
0.0
 73
     1
 44
1.0
  0
LINE
  5
1CF
330
1F
100
AcDbEntity
  8
0
  6
Continuous
 62
     2
100
AcDbLine
 10
798.625
 20
1542.675
 30
0.0
 11
793.795370869
 21
1543.969095226
 31
0.0
  0
LINE
  5
1D0
330
1F
100
AcDbEntity
  8
0
  6
Continuous
 62
     2
100
AcDbLine
 10
798.625
 20
1542.675
 30
0.0
 11
793.795370869
 21
1541.380904774
 31
0.0
  0
LINE
  5
1D1
330
1F
100
AcDbEntity
  8
0
  6
Continuous
 62
     2
100
AcDbLine
 10
798.625
 20
1542.675
 30
0.0
 11
316.225
 21
1542.675
 31
0.0
  0
LINE
  5
1D2
330
1F
100
AcDbEntity
  8
0
  6
Continuous
 62
     2
100
AcDbLine
 10
316.225
 20
1542.675
 30
0.0
 11
321.054629131
 21
1541.380904774
 31
0.0
  0
LINE
  5
1D3
330
1F
100
AcDbEntity
  8
0
  6
Continuous
 62
     2
100
AcDbLine
 10
316.225
 20
1542.675
 30
0.0
 11
321.054629131
 21
1543.969095226
 31
0.0
  0
LINE
  5
1D4
330
1F
100
AcDbEntity
  8
0
  6
Continuous
 62
     2
100
AcDbLine
 10
316.225
 20
1717.675
 30
0.0
 11
316.225
 21
1540.175
 31
0.0
  0
MTEXT
  5
1D5
330
1F
100
AcDbEntity
  8
0
  6
Continuous
 62
     2
100
AcDbMText
 10
542.425
 20
1547.675
 30
0.0
 40
15.0
 41
60.00000003
 71
     7
 72
     1
  1
\W0.667;４８２
  7
KANJI2
 73
     1
 44
1.0
  0
LINE
  5
1D6
330
1F
100
AcDbEntity
  8
0
  6
Continuous
 62
     2
100
AcDbLine
 10
316.225
 20
1582.675
 30
0.0
 11
321.054629131
 21
1581.380904774
 31
0.0
  0
LINE
  5
1D7
330
1F
100
AcDbEntity
  8
0
  6
Continuous
 62
     2
100
AcDbLine
 10
316.225
 20
1582.675
 30
0.0
 11
321.054629131
 21
1583.969095226
 31
0.0
  0
LINE
  5
1D8
330
1F
100
AcDbEntity
  8
0
  6
Continuous
 62
     2
100
AcDbLine
 10
316.225
 20
1582.675
 30
0.0
 11
728.625
 21
1582.675
 31
0.0
  0
LINE
  5
1D9
330
1F
100
AcDbEntity
  8
0
  6
Continuous
 62
     2
100
AcDbLine
 10
728.625
 20
1582.675
 30
0.0
 11
723.795370869
 21
1583.969095226
 31
0.0
  0
LINE
  5
1DA
330
1F
100
AcDbEntity
  8
0
  6
Continuous
 62
     2
100
AcDbLine
 10
728.625
 20
1582.675
 30
0.0
 11
723.795370869
 21
1581.380904774
 31
0.0
  0
MTEXT
  5
1DB
330
1F
100
AcDbEntity
  8
0
  6
Continuous
 62
     2
100
AcDbMText
 10
507.425
 20
1587.675
 30
0.0
 40
15.0
 41
60.00000003
 71
     7
 72
     1
  1
\W0.667;４１２
  7
KANJI2
 73
     1
 44
1.0
  0
MTEXT
  5
1DC
330
1F
100
AcDbEntity
  8
0
  6
Continuous
 62
     2
100
AcDbMText
 10
318.625
 20
372.675
 30
0.0
 40
20.0
 41
360.0
 71
     7
 72
     1
  1
\W0.900;側面図（横から見る）
  7
KANJI1
 73
     1
 44
1.0
  0
MTEXT
  5
1DD
330
1F
100
AcDbEntity
  8
0
  6
Continuous
 62
     2
100
AcDbMText
 10
318.625
 20
1332.675
 30
0.0
 40
20.0
 41
360.0
 71
     7
 72
     1
  1
\W0.900;平面図（上から見る）
  7
KANJI1
 73
     1
 44
1.0
  0
CIRCLE
  5
1DE
330
1F
100
AcDbEntity
  8
0
  6
Continuous
 62
     2
100
AcDbCircle
 10
826.125
 20
577.675
 30
0.0
 40
3.1
  0
CIRCLE
  5
1DF
330
1F
100
AcDbEntity
  8
0
  6
Continuous
 62
     2
100
AcDbCircle
 10
826.125
 20
577.675
 30
0.0
 40
3.1
  0
CIRCLE
  5
1E0
330
1F
100
AcDbEntity
  8
0
  6
Continuous
 62
     2
100
AcDbCircle
 10
826.125
 20
577.675
 30
0.0
 40
5.0
  0
CIRCLE
  5
1E1
330
1F
100
AcDbEntity
  8
0
  6
Continuous
 62
     2
100
AcDbCircle
 10
726.125
 20
577.675
 30
0.0
 40
3.1
  0
CIRCLE
  5
1E2
330
1F
100
AcDbEntity
  8
0
  6
Continuous
 62
     2
100
AcDbCircle
 10
726.125
 20
577.675
 30
0.0
 40
3.1
  0
CIRCLE
  5
1E3
330
1F
100
AcDbEntity
  8
0
  6
Continuous
 62
     2
100
AcDbCircle
 10
726.125
 20
577.675
 30
0.0
 40
5.0
  0
CIRCLE
  5
1E4
330
1F
100
AcDbEntity
  8
0
  6
Continuous
 62
     2
100
AcDbCircle
 10
726.125
 20
737.675
 30
0.0
 40
3.1
  0
CIRCLE
  5
1E5
330
1F
100
AcDbEntity
  8
0
  6
Continuous
 62
     2
100
AcDbCircle
 10
726.125
 20
737.675
 30
0.0
 40
3.1
  0
CIRCLE
  5
1E6
330
1F
100
AcDbEntity
  8
0
  6
Continuous
 62
     2
100
AcDbCircle
 10
726.125
 20
737.675
 30
0.0
 40
5.0
  0
CIRCLE
  5
1E7
330
1F
100
AcDbEntity
  8
0
  6
Continuous
 62
     2
100
AcDbCircle
 10
826.125
 20
737.675
 30
0.0
 40
3.1
  0
CIRCLE
  5
1E8
330
1F
100
AcDbEntity
  8
0
  6
Continuous
 62
     2
100
AcDbCircle
 10
826.125
 20
737.675
 30
0.0
 40
3.1
  0
CIRCLE
  5
1E9
330
1F
100
AcDbEntity
  8
0
  6
Continuous
 62
     2
100
AcDbCircle
 10
826.125
 20
737.675
 30
0.0
 40
5.0
  0
LINE
  5
1EA
330
1F
100
AcDbEntity
  8
0
  6
Continuous
 62
     2
100
AcDbLine
 10
821.625
 20
777.675
 30
0.0
 11
821.625
 21
757.675
 31
0.0
  0
LINE
  5
1EB
330
1F
100
AcDbEntity
  8
0
  6
Continuous
 62
     2
100
AcDbLine
 10
830.625
 20
777.675
 30
0.0
 11
830.625
 21
757.675
 31
0.0
  0
LINE
  5
1EC
330
1F
100
AcDbEntity
  8
0
  6
Continuous
 62
     2
100
AcDbLine
 10
721.625
 20
777.675
 30
0.0
 11
721.625
 21
757.675
 31
0.0
  0
LINE
  5
1ED
330
1F
100
AcDbEntity
  8
0
  6
Continuous
 62
     2
100
AcDbLine
 10
730.625
 20
777.675
 30
0.0
 11
730.625
 21
757.675
 31
0.0
  0
LINE
  5
1EE
330
1F
100
AcDbEntity
  8
0
  6
Continuous
 62
     2
100
AcDbLine
 10
913.225
 20
970.175
 30
0.0
 11
913.225
 21
972.175
 31
0.0
  0
LINE
  5
1EF
330
1F
100
AcDbEntity
  8
0
  6
Continuous
 62
     2
100
AcDbLine
 10
913.225
 20
972.175
 30
0.0
 11
889.225
 21
972.175
 31
0.0
  0
LINE
  5
1F0
330
1F
100
AcDbEntity
  8
0
  6
Continuous
 62
     2
100
AcDbLine
 10
889.225
 20
972.175
 30
0.0
 11
889.225
 21
970.175
 31
0.0
  0
LINE
  5
1F1
330
1F
100
AcDbEntity
  8
0
  6
Continuous
 62
     1
100
AcDbLine
 10
916.225
 20
970.275
 30
0.0
 11
316.225
 21
970.275
 31
0.0
  0
LINE
  5
1F2
330
1F
100
AcDbEntity
  8
0
  6
Continuous
 62
     1
100
AcDbLine
 10
366.225
 20
927.675
 30
0.0
 11
324.263838649
 21
936.06723227
 31
0.0
  0
LINE
  5
1F3
330
1F
100
AcDbEntity
  8
0
  6
Continuous
 62
     1
100
AcDbLine
 10
316.225
 20
945.873039027
 30
0.0
 11
316.225
 21
970.275
 31
0.0
  0
ARC
  5
1F4
330
1F
100
AcDbEntity
  8
0
  6
Continuous
 62
     1
100
AcDbCircle
 10
326.225
 20
945.873039027
 30
0.0
 40
10.0
100
AcDbArc
 50
180.0
 51
258.690067526
  0
LINE
  5
1F5
330
1F
100
AcDbEntity
  8
0
  6
Continuous
 62
     1
100
AcDbLine
 10
906.225
 20
927.675
 30
0.0
 11
366.225
 21
927.675
 31
0.0
  0
LINE
  5
1F6
330
1F
100
AcDbEntity
  8
0
  6
Continuous
 62
     1
100
AcDbLine
 10
916.225
 20
970.275
 30
0.0
 11
916.225
 21
937.675
 31
0.0
  0
ARC
  5
1F7
330
1F
100
AcDbEntity
  8
0
  6
Continuous
 62
     1
100
AcDbCircle
 10
906.225
 20
937.675
 30
0.0
 40
10.0
100
AcDbArc
 50
270.0
 51
0.0
  0
LINE
  5
1F8
330
1F
100
AcDbEntity
  8
0
  6
Continuous
 62
     2
100
AcDbLine
 10
319.225
 20
970.275
 30
0.0
 11
319.225
 21
972.275
 31
0.0
  0
LINE
  5
1F9
330
1F
100
AcDbEntity
  8
0
  6
Continuous
 62
     2
100
AcDbLine
 10
343.225
 20
972.275
 30
0.0
 11
343.225
 21
970.275
 31
0.0
  0
LINE
  5
1FA
330
1F
100
AcDbEntity
  8
0
  6
Continuous
 62
     2
100
AcDbLine
 10
319.225
 20
972.275
 30
0.0
 11
343.225
 21
972.275
 31
0.0
  0
LINE
  5
1FB
330
1F
100
AcDbEntity
  8
0
  6
Continuous
 62
     2
100
AcDbLine
 10
923.225
 20
972.175
 30
0.0
 11
1118.725
 21
972.175
 31
0.0
  0
LINE
  5
1FC
330
1F
100
AcDbEntity
  8
0
  6
Continuous
 62
     2
100
AcDbLine
 10
916.225
 20
980.275
 30
0.0
 11
916.225
 21
1072.775
 31
0.0
  0
LINE
  5
1FD
330
1F
100
AcDbEntity
  8
0
  6
Continuous
 62
     2
100
AcDbLine
 10
916.225
 20
1070.275
 30
0.0
 11
911.395370869
 21
1071.569095226
 31
0.0
  0
LINE
  5
1FE
330
1F
100
AcDbEntity
  8
0
  6
Continuous
 62
     2
100
AcDbLine
 10
916.225
 20
1070.275
 30
0.0
 11
911.395370869
 21
1068.980904774
 31
0.0
  0
LINE
  5
1FF
330
1F
100
AcDbEntity
  8
0
  6
Continuous
 62
     2
100
AcDbLine
 10
916.225
 20
1070.275
 30
0.0
 11
316.225
 21
1070.275
 31
0.0
  0
LINE
  5
200
330
1F
100
AcDbEntity
  8
0
  6
Continuous
 62
     2
100
AcDbLine
 10
316.225
 20
1070.275
 30
0.0
 11
321.054629131
 21
1068.980904774
 31
0.0
  0
LINE
  5
201
330
1F
100
AcDbEntity
  8
0
  6
Continuous
 62
     2
100
AcDbLine
 10
316.225
 20
1070.275
 30
0.0
 11
321.054629131
 21
1071.569095226
 31
0.0
  0
LINE
  5
202
330
1F
100
AcDbEntity
  8
0
  6
Continuous
 62
     2
100
AcDbLine
 10
316.225
 20
980.275
 30
0.0
 11
316.225
 21
1072.775
 31
0.0
  0
MTEXT
  5
203
330
1F
100
AcDbEntity
  8
0
  6
Continuous
 62
     2
100
AcDbMText
 10
601.225
 20
1075.275
 30
0.0
 40
15.0
 41
60.00000003
 71
     7
 72
     1
  1
\W0.667;６００
  7
KANJI2
 73
     1
 44
1.0
  0
LINE
  5
204
330
1F
100
AcDbEntity
  8
0
  6
Continuous
 62
     2
100
AcDbLine
 10
1066.225
 20
822.175
 30
0.0
 11
1066.225
 21
842.175
 31
0.0
  0
LINE
  5
205
330
1F
100
AcDbEntity
  8
0
  6
Continuous
 62
     2
100
AcDbLine
 10
1066.225
 20
952.175
 30
0.0
 11
1066.225
 21
972.175
 31
0.0
  0
LINE
  5
206
330
1F
100
AcDbEntity
  8
0
  6
LTYPE1
 62
     2
100
AcDbLine
 10
863.225
 20
827.675
 30
0.0
 11
863.225
 21
927.675
 31
0.0
  0
LINE
  5
207
330
1F
100
AcDbEntity
  8
0
  6
LTYPE1
 62
     2
100
AcDbLine
 10
689.025
 20
927.675
 30
0.0
 11
689.025
 21
827.675
 31
0.0
  0
MTEXT
  5
208
330
1F
100
AcDbEntity
  8
0
  6
Continuous
 62
     2
100
AcDbMText
 10
129.025
 20
102.675
 30
0.0
 40
15.0
 41
189.0
 71
     7
 72
     1
  1
\W0.450;３５ＳＳＦ／ＭＸＳ－Ｈ６１０
  7
KANJI3
 73
     1
 44
1.0
  0
MTEXT
  5
20A
330
1F
100
AcDbEntity
  8
0
  6
Continuous
 62
     2
100
AcDbMText
 10
268.625
 20
102.675
 30
0.0
 40
15.0
 41
108.0
 71
     7
 72
     1
  1
\W0.450;Ｈ６１０ＳＳＡＺ
  7
KANJI3
 73
     1
 44
1.0
  0
MTEXT
  5
20B
330
1F
100
AcDbEntity
  8
0
  6
Continuous
 62
     2
100
AcDbMText
 10
946.575
 20
81.325
 30
0.0
 40
35.0
 41
789.6
 71
     7
 72
     1
  1
\W0.940;用紙　Ａ４　　縮尺１／７
  7
KANJI4
 73
     1
 44
1.0
  0
LINE
  5
20D
330
1F
100
AcDbEntity
  8
0
  6
Continuous
 62
     2
100
AcDbLine
 10
746.125
 20
377.675
 30
0.0
 11
736.125
 21
377.675
 31
0.0
  0
LINE
  5
20E
330
1F
100
AcDbEntity
  8
0
  6
Continuous
 62
     2
100
AcDbLine
 10
736.125
 20
467.675
 30
0.0
 11
746.125
 21
467.675
 31
0.0
  0
CIRCLE
  5
20F
330
1F
100
AcDbEntity
  8
0
  6
Continuous
 62
     2
100
AcDbCircle
 10
741.125
 20
377.675
 30
0.0
 40
3.6
  0
CIRCLE
  5
210
330
1F
100
AcDbEntity
  8
0
  6
Continuous
 62
     2
100
AcDbCircle
 10
741.125
 20
467.675
 30
0.0
 40
3.6
  0
LINE
  5
211
330
1F
100
AcDbEntity
  8
0
  6
Continuous
 62
     2
100
AcDbLine
 10
741.125
 20
472.675
 30
0.0
 11
741.125
 21
462.675
 31
0.0
  0
LINE
  5
212
330
1F
100
AcDbEntity
  8
0
  6
Continuous
 62
     2
100
AcDbLine
 10
741.125
 20
372.675
 30
0.0
 11
741.125
 21
382.675
 31
0.0
  0
ARC
  5
213
330
1F
100
AcDbEntity
  8
0
  6
LTYPE1
 62
     2
100
AcDbCircle
 10
755.125
 20
471.675
 30
0.0
 40
6.0
100
AcDbArc
 50
0.0
 51
90.0
  0
ARC
  5
214
330
1F
100
AcDbEntity
  8
0
  6
LTYPE1
 62
     2
100
AcDbCircle
 10
755.124999996
 20
373.675000004
 30
0.0
 40
6.000000004
100
AcDbArc
 50
270.000000036
 51
0.0
  0
LINE
  5
215
330
1F
100
AcDbEntity
  8
0
  6
LTYPE1
 62
     2
100
AcDbLine
 10
761.125
 20
373.675
 30
0.0
 11
761.125
 21
471.675
 31
0.0
  0
ARC
  5
216
330
1F
100
AcDbEntity
  8
0
  6
LTYPE1
 62
     2
100
AcDbCircle
 10
727.125000004
 20
373.675000004
 30
0.0
 40
6.000000004
100
AcDbArc
 50
180.0
 51
269.999999963
  0
LINE
  5
217
330
1F
100
AcDbEntity
  8
0
  6
LTYPE1
 62
     2
100
AcDbLine
 10
727.125
 20
367.675
 30
0.0
 11
755.125
 21
367.675
 31
0.0
  0
ARC
  5
218
330
1F
100
AcDbEntity
  8
0
  6
LTYPE1
 62
     2
100
AcDbCircle
 10
727.125
 20
471.675
 30
0.0
 40
6.0
100
AcDbArc
 50
90.0
 51
180.0
  0
LINE
  5
219
330
1F
100
AcDbEntity
  8
0
  6
LTYPE1
 62
     2
100
AcDbLine
 10
755.125
 20
477.675
 30
0.0
 11
727.125
 21
477.675
 31
0.0
  0
LINE
  5
21A
330
1F
100
AcDbEntity
  8
0
  6
LTYPE1
 62
     2
100
AcDbLine
 10
721.125
 20
471.675
 30
0.0
 11
721.125
 21
373.675
 31
0.0
  0
LINE
  5
21B
330
1F
100
AcDbEntity
  8
0
  6
Continuous
 62
     2
100
AcDbLine
 10
816.125
 20
667.675
 30
0.0
 11
806.125
 21
667.675
 31
0.0
  0
CIRCLE
  5
21C
330
1F
100
AcDbEntity
  8
0
  6
Continuous
 62
     2
100
AcDbCircle
 10
811.125
 20
667.675
 30
0.0
 40
3.6
  0
LINE
  5
21D
330
1F
100
AcDbEntity
  8
0
  6
Continuous
 62
     2
100
AcDbLine
 10
811.025
 20
672.675
 30
0.0
 11
811.025
 21
662.675
 31
0.0
  0
LINE
  5
21E
330
1F
100
AcDbEntity
  8
0
  6
LTYPE1
 62
     2
100
AcDbLine
 10
791.125
 20
761.675
 30
0.0
 11
791.125
 21
663.675
 31
0.0
  0
ARC
  5
21F
330
1F
100
AcDbEntity
  8
0
  6
LTYPE1
 62
     2
100
AcDbCircle
 10
797.125000004
 20
663.675000004
 30
0.0
 40
6.000000004
100
AcDbArc
 50
180.0
 51
269.999999963
  0
LINE
  5
220
330
1F
100
AcDbEntity
  8
0
  6
LTYPE1
 62
     2
100
AcDbLine
 10
797.125
 20
657.675
 30
0.0
 11
825.125
 21
657.675
 31
0.0
  0
ARC
  5
221
330
1F
100
AcDbEntity
  8
0
  6
LTYPE1
 62
     2
100
AcDbCircle
 10
825.125
 20
663.675
 30
0.0
 40
6.0
100
AcDbArc
 50
270.0
 51
0.0
  0
LINE
  5
222
330
1F
100
AcDbEntity
  8
0
  6
LTYPE1
 62
     2
100
AcDbLine
 10
831.125
 20
663.675
 30
0.0
 11
831.125
 21
761.675
 31
0.0
  0
CIRCLE
  5
223
330
1F
100
AcDbEntity
  8
0
  6
Continuous
 62
     2
100
AcDbCircle
 10
811.125
 20
757.675
 30
0.0
 40
3.6
  0
LINE
  5
224
330
1F
100
AcDbEntity
  8
0
  6
Continuous
 62
     2
100
AcDbLine
 10
811.125
 20
762.675
 30
0.0
 11
811.125
 21
752.675
 31
0.0
  0
ARC
  5
225
330
1F
100
AcDbEntity
  8
0
  6
LTYPE1
 62
     2
100
AcDbCircle
 10
797.125
 20
761.675
 30
0.0
 40
6.0
100
AcDbArc
 50
90.0
 51
180.0
  0
ARC
  5
226
330
1F
100
AcDbEntity
  8
0
  6
LTYPE1
 62
     2
100
AcDbCircle
 10
825.125
 20
761.675
 30
0.0
 40
6.0
100
AcDbArc
 50
0.0
 51
90.0
  0
LINE
  5
227
330
1F
100
AcDbEntity
  8
0
  6
LTYPE1
 62
     2
100
AcDbLine
 10
825.125
 20
767.675
 30
0.0
 11
797.125
 21
767.675
 31
0.0
  0
LINE
  5
228
330
1F
100
AcDbEntity
  8
0
  6
LTYPE1
 62
     2
100
AcDbLine
 10
916.225
 20
279.875
 30
0.0
 11
316.225
 21
279.875
 31
0.0
  0
LINE
  5
229
330
1F
100
AcDbEntity
  8
0
  6
LTYPE1
 62
     2
100
AcDbLine
 10
916.225
 20
303.475
 30
0.0
 11
316.225
 21
303.475
 31
0.0
  0
LINE
  5
22A
330
1F
100
AcDbEntity
  8
0
  6
LTYPE1
 62
     2
100
AcDbLine
 10
689.025
 20
757.675
 30
0.0
 11
689.025
 21
311.675
 31
0.0
  0
MTEXT
  5
22B
330
1F
100
AcDbEntity
  8
0
  6
Continuous
 62
     2
100
AcDbMText
 10
1071.225
 20
847.675
 30
0.0
 40
10.5
 41
200.2
 71
     7
 72
     1
  1
\W0.867;一段３センチ　ｘ　五段
  7
KANJI5
 11
0.0
 21
1.0
 31
0.0
 73
     1
 44
1.0
  0
ENDSEC
  0
SECTION
  2
OBJECTS
  0
DICTIONARY
  5
C
330
0
100
AcDbDictionary
280
     0
281
     1
  3
ACAD_GROUP
350
D
  3
ACAD_LAYOUT
350
1A
  3
ACAD_MLINESTYLE
350
17
  3
ACAD_PLOTSETTINGS
350
19
  3
ACAD_PLOTSTYLENAME
350
E
  0
DICTIONARY
  5
D
102
{ACAD_REACTORS
330
C
102
}
330
C
100
AcDbDictionary
280
     0
281
     1
  0
DICTIONARY
  5
1A
102
{ACAD_REACTORS
330
C
102
}
330
C
100
AcDbDictionary
280
     0
281
     1
  3
Model
350
22
  3
ﾚｲｱｳﾄ1
350
1E
  3
ﾚｲｱｳﾄ2
350
26
  0
LAYOUT
  5
22
102
{ACAD_REACTORS
330
1A
102
}
330
1A
100
AcDbPlotSettings
  1

  2

  4

  6

 40
0.0
 41
0.0
 42
0.0
 43
0.0
 44
0.0
 45
0.0
 46
0.0
 47
0.0
 48
0.0
 49
0.0
140
0.0
141
0.0
142
1.0
143
1.0
 70
  1712
 72
     0
 73
     0
 74
     0
  7

 75
     0
147
1.0
148
0.0
149
0.0
100
AcDbLayout
  1
Model
 70
     1
 71
     0
 10
0.0
 20
0.0
 11
0.0
 21
0.0
 12
0.0
 22
0.0
 32
0.0
 14
0.0
 24
0.0
 34
0.0
 15
0.0
 25
0.0
 35
0.0
146
0.0
 13
0.0
 23
0.0
 33
0.0
 16
1.0
 26
0.0
 36
0.0
 17
0.0
 27
1.0
 37
0.0
 76
     0
330
1F
331
0
345
0
346
0
  0
LAYOUT
  5
1E
102
{ACAD_REACTORS
330
1A
102
}
330
1A
100
AcDbPlotSettings
  1

  2

  4

  6

 40
0.0
 41
0.0
 42
0.0
 43
0.0
 44
0.0
 45
0.0
 46
0.0
 47
0.0
 48
0.0
 49
0.0
140
0.0
141
0.0
142
1.0
143
1.0
 70
   688
 72
     0
 73
     0
 74
     5
  7

 75
    16
147
1.0
148
0.0
149
0.0
100
AcDbLayout
  1
ﾚｲｱｳﾄ1
 70
     1
 71
     1
 10
0.0
 20
0.0
 11
0.0
 21
0.0
 12
0.0
 22
0.0
 32
0.0
 14
0.0
 24
0.0
 34
0.0
 15
0.0
 25
0.0
 35
0.0
146
0.0
 13
0.0
 23
0.0
 33
0.0
 16
1.0
 26
0.0
 36
0.0
 17
0.0
 27
1.0
 37
0.0
 76
     0
330
1B
331
0
345
0
346
0
  0
LAYOUT
  5
26
102
{ACAD_REACTORS
330
1A
102
}
330
1A
100
AcDbPlotSettings
  1

  2

  4

  6

 40
0.0
 41
0.0
 42
0.0
 43
0.0
 44
0.0
 45
0.0
 46
0.0
 47
0.0
 48
0.0
 49
0.0
140
0.0
141
0.0
142
1.0
143
1.0
 70
   688
 72
     0
 73
     0
 74
     5
  7

 75
    16
147
1.0
148
0.0
149
0.0
100
AcDbLayout
  1
ﾚｲｱｳﾄ2
 70
     1
 71
     2
 10
0.0
 20
0.0
 11
0.0
 21
0.0
 12
0.0
 22
0.0
 32
0.0
 14
0.0
 24
0.0
 34
0.0
 15
0.0
 25
0.0
 35
0.0
146
0.0
 13
0.0
 23
0.0
 33
0.0
 16
1.0
 26
0.0
 36
0.0
 17
0.0
 27
1.0
 37
0.0
 76
     0
330
23
331
0
345
0
346
0
  0
DICTIONARY
  5
17
102
{ACAD_REACTORS
330
C
102
}
330
C
100
AcDbDictionary
280
     0
281
     1
  3
Standard
350
18
  0
MLINESTYLE
  5
18
102
{ACAD_REACTORS
330
17
102
}
330
17
100
AcDbMlineStyle
  2
STANDARD
 70
     0
  3

 62
   256
 51
90.0
 52
90.0
 71
     2
 49
0.5
 62
   256
  6
ByLayer
 49
-0.5
 62
   256
  6
ByLayer
  0
DICTIONARY
  5
19
102
{ACAD_REACTORS
330
C
102
}
330
C
100
AcDbDictionary
280
     0
281
     1
  0
ACDBDICTIONARYWDFLT
  5
E
330
C
100
AcDbDictionary
281
     0
  3
Normal
350
F
100
AcDbDictionaryWithDefault
340
F
  0
ACDBPLACEHOLDER
  5
F
102
{ACAD_REACTORS
330
E
102
}
330
E
  0
ENDSEC
  0
EOF
