  0
SECTION
  2
HEADER
  9
$ACADVER
  1
AC1014
  9
$ACADMAINTVER
 70
     6
  9
$DWGCODEPAGE
  3
ANSI_932
  9
$INSBASE
 10
0.0
 20
0.0
 30
0.0
  9
$EXTMIN
 10
0.0
 20
0.0
 30
1.000000E+20
  9
$EXTMAX
 10
1470.0
 20
2079.0
 30
-1.000000E+20
  9
$LIMMIN
 10
0.0
 20
0.0
  9
$LIMMAX
 10
1470.0
 20
2079.0
  9
$ORTHOMODE
 70
     0
  9
$REGENMODE
 70
     1
  9
$FILLMODE
 70
     1
  9
$QTEXTMODE
 70
     0
  9
$MIRRTEXT
 70
     1
  9
$DRAGMODE
 70
     2
  9
$LTSCALE
 40
1.0
  9
$OSMODE
 70
     0
  9
$ATTMODE
 70
     1
  9
$TEXTSIZE
 40
0.2
  9
$TRACEWID
 40
0.05
  9
$TEXTSTYLE
  7
Standard
  9
$CLAYER
  8
0
  9
$CELTYPE
  6
ByLayer
  9
$CECOLOR
 62
   256
  9
$CELTSCALE
 40
1.0
  9
$DELOBJ
 70
     1
  9
$DISPSILH
 70
     0
  9
$DIMSCALE
 40
1.0
  9
$DIMASZ
 40
2.5
  9
$DIMEXO
 40
0.625
  9
$DIMDLI
 40
3.75
  9
$DIMRND
 40
0.0
  9
$DIMDLE
 40
0.0
  9
$DIMEXE
 40
1.25
  9
$DIMTP
 40
0.0
  9
$DIMTM
 40
0.0
  9
$DIMTXT
 40
0.18
  9
$DIMCEN
 40
2.5
  9
$DIMTSZ
 40
0.0
  9
$DIMTOL
 70
     0
  9
$DIMLIM
 70
     0
  9
$DIMTIH
 70
     1
  9
$DIMTOH
 70
     1
  9
$DIMSE1
 70
     0
  9
$DIMSE2
 70
     0
  9
$DIMTAD
 70
     0
  9
$DIMZIN
 70
     0
  9
$DIMBLK
  1

  9
$DIMASO
 70
     1
  9
$DIMSHO
 70
     1
  9
$DIMPOST
  1

  9
$DIMAPOST
  1

  9
$DIMALT
 70
     0
  9
$DIMALTD
 70
     3
  9
$DIMALTF
 40
0.03937007874016
  9
$DIMLFAC
 40
1.0
  9
$DIMTOFL
 70
     0
  9
$DIMTVP
 40
0.0
  9
$DIMTIX
 70
     0
  9
$DIMSOXD
 70
     0
  9
$DIMSAH
 70
     0
  9
$DIMBLK1
  1

  9
$DIMBLK2
  1

  9
$DIMSTYLE
  2
ISO-25
  9
$DIMCLRD
 70
     0
  9
$DIMCLRE
 70
     0
  9
$DIMCLRT
 70
     0
  9
$DIMTFAC
 40
1.0
  9
$DIMGAP
 40
0.625
  9
$DIMJUST
 70
     0
  9
$DIMSD1
 70
     0
  9
$DIMSD2
 70
     0
  9
$DIMTOLJ
 70
     1
  9
$DIMTZIN
 70
     0
  9
$DIMALTZ
 70
     0
  9
$DIMALTTZ
 70
     0
  9
$DIMFIT
 70
     3
  9
$DIMUPT
 70
     0
  9
$DIMUNIT
 70
     2
  9
$DIMDEC
 70
     2
  9
$DIMTDEC
 70
     2
  9
$DIMALTU
 70
     2
  9
$DIMALTTD
 70
     3
  9
$DIMTXSTY
  7
Standard
  9
$DIMAUNIT
 70
     0
  9
$LUNITS
 70
     2
  9
$LUPREC
 70
     4
  9
$SKETCHINC
 40
1.0
  9
$FILLETRAD
 40
0.0
  9
$AUNITS
 70
     0
  9
$AUPREC
 70
     0
  9
$MENU
  1
.
  9
$ELEVATION
 40
0.0
  9
$PELEVATION
 40
0.0
  9
$THICKNESS
 40
0.0
  9
$LIMCHECK
 70
     0
  9
$BLIPMODE
 70
     1
  9
$CHAMFERA
 40
10.0
  9
$CHAMFERB
 40
10.0
  9
$CHAMFERC
 40
20.0
  9
$CHAMFERD
 40
0.0
  9
$SKPOLY
 70
     0
  9
$TDCREATE
 40
2455275.000000
  9
$TDUPDATE
 40
2455275.000000
  9
$TDINDWG
 40
0.0
  9
$TDUSRTIMER
 40
0.0
  9
$USRTIMER
 70
     1
  9
$ANGBASE
 50
0.0
  9
$ANGDIR
 70
     0
  9
$PDMODE
 70
     0
  9
$PDSIZE
 40
0.0
  9
$PLINEWID
 40
0.0
  9
$COORDS
 70
     1
  9
$SPLFRAME
 70
     0
  9
$SPLINETYPE
 70
     6
  9
$SPLINESEGS
 70
     8
  9
$ATTDIA
 70
     0
  9
$ATTREQ
 70
     1
  9
$HANDLING
 70
     1
  9
$HANDSEED
  5
01CD
  9
$SURFTAB1
 70
     6
  9
$SURFTAB2
 70
     6
  9
$SURFTYPE
 70
     6
  9
$SURFU
 70
     6
  9
$SURFV
 70
     6
  9
$UCSNAME
  2

  9
$UCSORG
 10
0.0
 20
0.0
 30
0.0
  9
$UCSXDIR
 10
1.0
 20
0.0
 30
0.0
  9
$UCSYDIR
 10
0.0
 20
1.0
 30
0.0
  9
$PUCSNAME
  2

  9
$PUCSORG
 10
0.0
 20
0.0
 30
0.0
  9
$PUCSXDIR
 10
1.0
 20
0.0
 30
0.0
  9
$PUCSYDIR
 10
0.0
 20
1.0
 30
0.0
  9
$USERI1
 70
     0
  9
$USERI2
 70
     0
  9
$USERI3
 70
     0
  9
$USERI4
 70
     0
  9
$USERI5
 70
     0
  9
$USERR1
 40
0.0
  9
$USERR2
 40
0.0
  9
$USERR3
 40
0.0
  9
$USERR4
 40
0.0
  9
$USERR5
 40
0.0
  9
$WORLDVIEW
 70
     1
  9
$SHADEDGE
 70
     3
  9
$SHADEDIF
 70
    70
  9
$TILEMODE
 70
     1
  9
$MAXACTVP
 70
    48
  9
$PINSBASE
 10
0.0
 20
0.0
 30
0.0
  9
$PLIMCHECK
 70
     0
  9
$PEXTMIN
 10
1.000000E+20
 20
1.000000E+20
 30
1.000000E+20
  9
$PEXTMAX
 10
-1.000000E+20
 20
-1.000000E+20
 30
-1.000000E+20
  9
$PLIMMIN
 10
0.0
 20
0.0
  9
$PLIMMAX
 10
0.0
 20
0.0
  9
$UNITMODE
 70
     0
  9
$VISRETAIN
 70
     0
  9
$PLINEGEN
 70
     0
  9
$PSLTSCALE
 70
     1
  9
$TREEDEPTH
 70
  3020
  9
$PICKSTYLE
 70
     1
  9
$CMLSTYLE
  2
STANDARD
  9
$CMLJUST
 70
     0
  9
$CMLSCALE
 40
20.0
  9
$PROXYGRAPHICS
 70
     1
  9
$MEASUREMENT
 70
     0
  0
ENDSEC
  0
SECTION
  2
CLASSES
  0
ENDSEC
  0
SECTION
  2
TABLES
  0
TABLE
  2
VPORT
  5
8
100
AcDbSymbolTable
 70
     3
  0
VPORT
  5
29
100
AcDbSymbolTableRecord
100
AcDbViewportTableRecord
  2
*ACTIVE
 70
     0
 10
0.0
 20
0.0
 11
1.0
 21
1.0
 12
735.0
 22
1039.5
 13
0.0
 23
0.0
 14
10.0
 24
10.0
 15
0.0
 25
0.0
 16
0.0
 26
0.0
 36
1.0
 17
0.0
 27
0.0
 37
0.0
 40
2079.0
 41
0.707070707
 42
50.0
 43
0.0
 44
0.0
 50
0.0
 51
0.0
 71
     0
 72
     0
 73
     0
 74
     0
 75
     0
 76
     0
 77
     0
 78
     0
  0
ENDTAB
  0
TABLE
  2
LTYPE
  5
5
100
AcDbSymbolTable
 70
     6
  0
LTYPE
  5
14
100
AcDbSymbolTableRecord
100
AcDbLinetypeTableRecord
  2
BYBLOCK
 70
     0
  3

 72
    65
 73
     0
 40
0.0
  0
LTYPE
  5
15
100
AcDbSymbolTableRecord
100
AcDbLinetypeTableRecord
  2
BYLAYER
 70
     0
  3

 72
    65
 73
     0
 40
0.0
  0
LTYPE
  5
16
100
AcDbSymbolTableRecord
100
AcDbLinetypeTableRecord
  2
CONTINUOUS
 70
     0
  3
Solid line
 72
    65
 73
     0
 40
0.0
  0
LTYPE
  5
A9
100
AcDbSymbolTableRecord
100
AcDbLinetypeTableRecord
  2
LTYPE1
 70
     0
  3
HIDDEN
 72
    65
 73
     2
 40
14.0
 49
8.4
 74
     0
 49
-5.6
 74
     0
  0
LTYPE
  5
AE
100
AcDbSymbolTableRecord
100
AcDbLinetypeTableRecord
  2
LTYPE2
 70
     0
  3
CENTER
 72
    65
 73
     4
 40
105.0
 49
73.5
 74
     0
 49
-10.5
 74
     0
 49
10.5
 74
     0
 49
-10.5
 74
     0
  0
LTYPE
  5
1B1
100
AcDbSymbolTableRecord
100
AcDbLinetypeTableRecord
  2
LTYPE3
 70
     0
  3
HIDDEN
 72
    65
 73
     2
 40
17.5
 49
10.5
 74
     0
 49
-7.0
 74
     0
  0
ENDTAB
  0
TABLE
  2
LAYER
  5
2
100
AcDbSymbolTable
 70
   128
  0
LAYER
  5
10
100
AcDbSymbolTableRecord
100
AcDbLayerTableRecord
  2
0
 70
     0
 62
     7
  6
CONTINUOUS
  0
LAYER
  5
2A
100
AcDbSymbolTableRecord
100
AcDbLayerTableRecord
  2
2
 70
     0
 62
     7
  6
CONTINUOUS
  0
LAYER
  5
2B
100
AcDbSymbolTableRecord
100
AcDbLayerTableRecord
  2
3
 70
     0
 62
     7
  6
CONTINUOUS
  0
LAYER
  5
2C
100
AcDbSymbolTableRecord
100
AcDbLayerTableRecord
  2
4
 70
     0
 62
     7
  6
CONTINUOUS
  0
LAYER
  5
2D
100
AcDbSymbolTableRecord
100
AcDbLayerTableRecord
  2
5
 70
     0
 62
     7
  6
CONTINUOUS
  0
LAYER
  5
2E
100
AcDbSymbolTableRecord
100
AcDbLayerTableRecord
  2
6
 70
     0
 62
     7
  6
CONTINUOUS
  0
LAYER
  5
2F
100
AcDbSymbolTableRecord
100
AcDbLayerTableRecord
  2
7
 70
     0
 62
     7
  6
CONTINUOUS
  0
LAYER
  5
30
100
AcDbSymbolTableRecord
100
AcDbLayerTableRecord
  2
8
 70
     0
 62
     7
  6
CONTINUOUS
  0
LAYER
  5
31
100
AcDbSymbolTableRecord
100
AcDbLayerTableRecord
  2
9
 70
     0
 62
     7
  6
CONTINUOUS
  0
LAYER
  5
32
100
AcDbSymbolTableRecord
100
AcDbLayerTableRecord
  2
10
 70
     0
 62
     7
  6
CONTINUOUS
  0
LAYER
  5
33
100
AcDbSymbolTableRecord
100
AcDbLayerTableRecord
  2
11
 70
     0
 62
     7
  6
CONTINUOUS
  0
LAYER
  5
34
100
AcDbSymbolTableRecord
100
AcDbLayerTableRecord
  2
12
 70
     0
 62
     7
  6
CONTINUOUS
  0
LAYER
  5
35
100
AcDbSymbolTableRecord
100
AcDbLayerTableRecord
  2
13
 70
     0
 62
     7
  6
CONTINUOUS
  0
LAYER
  5
36
100
AcDbSymbolTableRecord
100
AcDbLayerTableRecord
  2
14
 70
     0
 62
     7
  6
CONTINUOUS
  0
LAYER
  5
37
100
AcDbSymbolTableRecord
100
AcDbLayerTableRecord
  2
15
 70
     0
 62
     7
  6
CONTINUOUS
  0
LAYER
  5
38
100
AcDbSymbolTableRecord
100
AcDbLayerTableRecord
  2
16
 70
     0
 62
     7
  6
CONTINUOUS
  0
LAYER
  5
39
100
AcDbSymbolTableRecord
100
AcDbLayerTableRecord
  2
17
 70
     0
 62
     7
  6
CONTINUOUS
  0
LAYER
  5
3A
100
AcDbSymbolTableRecord
100
AcDbLayerTableRecord
  2
18
 70
     0
 62
     7
  6
CONTINUOUS
  0
LAYER
  5
3B
100
AcDbSymbolTableRecord
100
AcDbLayerTableRecord
  2
19
 70
     0
 62
     7
  6
CONTINUOUS
  0
LAYER
  5
3C
100
AcDbSymbolTableRecord
100
AcDbLayerTableRecord
  2
20
 70
     0
 62
     7
  6
CONTINUOUS
  0
LAYER
  5
3D
100
AcDbSymbolTableRecord
100
AcDbLayerTableRecord
  2
21
 70
     0
 62
     7
  6
CONTINUOUS
  0
LAYER
  5
3E
100
AcDbSymbolTableRecord
100
AcDbLayerTableRecord
  2
22
 70
     0
 62
     7
  6
CONTINUOUS
  0
LAYER
  5
3F
100
AcDbSymbolTableRecord
100
AcDbLayerTableRecord
  2
23
 70
     0
 62
     7
  6
CONTINUOUS
  0
LAYER
  5
40
100
AcDbSymbolTableRecord
100
AcDbLayerTableRecord
  2
24
 70
     0
 62
     7
  6
CONTINUOUS
  0
LAYER
  5
41
100
AcDbSymbolTableRecord
100
AcDbLayerTableRecord
  2
25
 70
     0
 62
     7
  6
CONTINUOUS
  0
LAYER
  5
42
100
AcDbSymbolTableRecord
100
AcDbLayerTableRecord
  2
26
 70
     0
 62
     7
  6
CONTINUOUS
  0
LAYER
  5
43
100
AcDbSymbolTableRecord
100
AcDbLayerTableRecord
  2
27
 70
     0
 62
     7
  6
CONTINUOUS
  0
LAYER
  5
44
100
AcDbSymbolTableRecord
100
AcDbLayerTableRecord
  2
28
 70
     0
 62
     7
  6
CONTINUOUS
  0
LAYER
  5
45
100
AcDbSymbolTableRecord
100
AcDbLayerTableRecord
  2
29
 70
     0
 62
     7
  6
CONTINUOUS
  0
LAYER
  5
46
100
AcDbSymbolTableRecord
100
AcDbLayerTableRecord
  2
30
 70
     0
 62
     7
  6
CONTINUOUS
  0
LAYER
  5
47
100
AcDbSymbolTableRecord
100
AcDbLayerTableRecord
  2
31
 70
     0
 62
     7
  6
CONTINUOUS
  0
LAYER
  5
48
100
AcDbSymbolTableRecord
100
AcDbLayerTableRecord
  2
32
 70
     0
 62
     7
  6
CONTINUOUS
  0
LAYER
  5
49
100
AcDbSymbolTableRecord
100
AcDbLayerTableRecord
  2
33
 70
     0
 62
     7
  6
CONTINUOUS
  0
LAYER
  5
4A
100
AcDbSymbolTableRecord
100
AcDbLayerTableRecord
  2
34
 70
     0
 62
     7
  6
CONTINUOUS
  0
LAYER
  5
4B
100
AcDbSymbolTableRecord
100
AcDbLayerTableRecord
  2
35
 70
     0
 62
     7
  6
CONTINUOUS
  0
LAYER
  5
4C
100
AcDbSymbolTableRecord
100
AcDbLayerTableRecord
  2
36
 70
     0
 62
     7
  6
CONTINUOUS
  0
LAYER
  5
4D
100
AcDbSymbolTableRecord
100
AcDbLayerTableRecord
  2
37
 70
     0
 62
     7
  6
CONTINUOUS
  0
LAYER
  5
4E
100
AcDbSymbolTableRecord
100
AcDbLayerTableRecord
  2
38
 70
     0
 62
     7
  6
CONTINUOUS
  0
LAYER
  5
4F
100
AcDbSymbolTableRecord
100
AcDbLayerTableRecord
  2
39
 70
     0
 62
     7
  6
CONTINUOUS
  0
LAYER
  5
50
100
AcDbSymbolTableRecord
100
AcDbLayerTableRecord
  2
40
 70
     0
 62
     7
  6
CONTINUOUS
  0
LAYER
  5
51
100
AcDbSymbolTableRecord
100
AcDbLayerTableRecord
  2
41
 70
     0
 62
     7
  6
CONTINUOUS
  0
LAYER
  5
52
100
AcDbSymbolTableRecord
100
AcDbLayerTableRecord
  2
42
 70
     0
 62
     7
  6
CONTINUOUS
  0
LAYER
  5
53
100
AcDbSymbolTableRecord
100
AcDbLayerTableRecord
  2
43
 70
     0
 62
     7
  6
CONTINUOUS
  0
LAYER
  5
54
100
AcDbSymbolTableRecord
100
AcDbLayerTableRecord
  2
44
 70
     0
 62
     7
  6
CONTINUOUS
  0
LAYER
  5
55
100
AcDbSymbolTableRecord
100
AcDbLayerTableRecord
  2
45
 70
     0
 62
     7
  6
CONTINUOUS
  0
LAYER
  5
56
100
AcDbSymbolTableRecord
100
AcDbLayerTableRecord
  2
46
 70
     0
 62
     7
  6
CONTINUOUS
  0
LAYER
  5
57
100
AcDbSymbolTableRecord
100
AcDbLayerTableRecord
  2
47
 70
     0
 62
     7
  6
CONTINUOUS
  0
LAYER
  5
58
100
AcDbSymbolTableRecord
100
AcDbLayerTableRecord
  2
48
 70
     0
 62
     7
  6
CONTINUOUS
  0
LAYER
  5
59
100
AcDbSymbolTableRecord
100
AcDbLayerTableRecord
  2
49
 70
     0
 62
     7
  6
CONTINUOUS
  0
LAYER
  5
5A
100
AcDbSymbolTableRecord
100
AcDbLayerTableRecord
  2
50
 70
     0
 62
     7
  6
CONTINUOUS
  0
LAYER
  5
5B
100
AcDbSymbolTableRecord
100
AcDbLayerTableRecord
  2
51
 70
     0
 62
     7
  6
CONTINUOUS
  0
LAYER
  5
5C
100
AcDbSymbolTableRecord
100
AcDbLayerTableRecord
  2
52
 70
     0
 62
     7
  6
CONTINUOUS
  0
LAYER
  5
5D
100
AcDbSymbolTableRecord
100
AcDbLayerTableRecord
  2
53
 70
     0
 62
     7
  6
CONTINUOUS
  0
LAYER
  5
5E
100
AcDbSymbolTableRecord
100
AcDbLayerTableRecord
  2
54
 70
     0
 62
     7
  6
CONTINUOUS
  0
LAYER
  5
5F
100
AcDbSymbolTableRecord
100
AcDbLayerTableRecord
  2
55
 70
     0
 62
     7
  6
CONTINUOUS
  0
LAYER
  5
60
100
AcDbSymbolTableRecord
100
AcDbLayerTableRecord
  2
56
 70
     0
 62
     7
  6
CONTINUOUS
  0
LAYER
  5
61
100
AcDbSymbolTableRecord
100
AcDbLayerTableRecord
  2
57
 70
     0
 62
     7
  6
CONTINUOUS
  0
LAYER
  5
62
100
AcDbSymbolTableRecord
100
AcDbLayerTableRecord
  2
58
 70
     0
 62
     7
  6
CONTINUOUS
  0
LAYER
  5
63
100
AcDbSymbolTableRecord
100
AcDbLayerTableRecord
  2
59
 70
     0
 62
     7
  6
CONTINUOUS
  0
LAYER
  5
64
100
AcDbSymbolTableRecord
100
AcDbLayerTableRecord
  2
60
 70
     0
 62
     7
  6
CONTINUOUS
  0
LAYER
  5
65
100
AcDbSymbolTableRecord
100
AcDbLayerTableRecord
  2
61
 70
     0
 62
     7
  6
CONTINUOUS
  0
LAYER
  5
66
100
AcDbSymbolTableRecord
100
AcDbLayerTableRecord
  2
62
 70
     0
 62
     7
  6
CONTINUOUS
  0
LAYER
  5
67
100
AcDbSymbolTableRecord
100
AcDbLayerTableRecord
  2
63
 70
     0
 62
     7
  6
CONTINUOUS
  0
LAYER
  5
68
100
AcDbSymbolTableRecord
100
AcDbLayerTableRecord
  2
64
 70
     0
 62
     7
  6
CONTINUOUS
  0
LAYER
  5
69
100
AcDbSymbolTableRecord
100
AcDbLayerTableRecord
  2
65
 70
     0
 62
     7
  6
CONTINUOUS
  0
LAYER
  5
6A
100
AcDbSymbolTableRecord
100
AcDbLayerTableRecord
  2
66
 70
     0
 62
     7
  6
CONTINUOUS
  0
LAYER
  5
6B
100
AcDbSymbolTableRecord
100
AcDbLayerTableRecord
  2
67
 70
     0
 62
     7
  6
CONTINUOUS
  0
LAYER
  5
6C
100
AcDbSymbolTableRecord
100
AcDbLayerTableRecord
  2
68
 70
     0
 62
     7
  6
CONTINUOUS
  0
LAYER
  5
6D
100
AcDbSymbolTableRecord
100
AcDbLayerTableRecord
  2
69
 70
     0
 62
     7
  6
CONTINUOUS
  0
LAYER
  5
6E
100
AcDbSymbolTableRecord
100
AcDbLayerTableRecord
  2
70
 70
     0
 62
     7
  6
CONTINUOUS
  0
LAYER
  5
6F
100
AcDbSymbolTableRecord
100
AcDbLayerTableRecord
  2
71
 70
     0
 62
     7
  6
CONTINUOUS
  0
LAYER
  5
70
100
AcDbSymbolTableRecord
100
AcDbLayerTableRecord
  2
72
 70
     0
 62
     7
  6
CONTINUOUS
  0
LAYER
  5
71
100
AcDbSymbolTableRecord
100
AcDbLayerTableRecord
  2
73
 70
     0
 62
     7
  6
CONTINUOUS
  0
LAYER
  5
72
100
AcDbSymbolTableRecord
100
AcDbLayerTableRecord
  2
74
 70
     0
 62
     7
  6
CONTINUOUS
  0
LAYER
  5
73
100
AcDbSymbolTableRecord
100
AcDbLayerTableRecord
  2
75
 70
     0
 62
     7
  6
CONTINUOUS
  0
LAYER
  5
74
100
AcDbSymbolTableRecord
100
AcDbLayerTableRecord
  2
76
 70
     0
 62
     7
  6
CONTINUOUS
  0
LAYER
  5
75
100
AcDbSymbolTableRecord
100
AcDbLayerTableRecord
  2
77
 70
     0
 62
     7
  6
CONTINUOUS
  0
LAYER
  5
76
100
AcDbSymbolTableRecord
100
AcDbLayerTableRecord
  2
78
 70
     0
 62
     7
  6
CONTINUOUS
  0
LAYER
  5
77
100
AcDbSymbolTableRecord
100
AcDbLayerTableRecord
  2
79
 70
     0
 62
     7
  6
CONTINUOUS
  0
LAYER
  5
78
100
AcDbSymbolTableRecord
100
AcDbLayerTableRecord
  2
80
 70
     0
 62
     7
  6
CONTINUOUS
  0
LAYER
  5
79
100
AcDbSymbolTableRecord
100
AcDbLayerTableRecord
  2
81
 70
     0
 62
     7
  6
CONTINUOUS
  0
LAYER
  5
7A
100
AcDbSymbolTableRecord
100
AcDbLayerTableRecord
  2
82
 70
     0
 62
     7
  6
CONTINUOUS
  0
LAYER
  5
7B
100
AcDbSymbolTableRecord
100
AcDbLayerTableRecord
  2
83
 70
     0
 62
     7
  6
CONTINUOUS
  0
LAYER
  5
7C
100
AcDbSymbolTableRecord
100
AcDbLayerTableRecord
  2
84
 70
     0
 62
     7
  6
CONTINUOUS
  0
LAYER
  5
7D
100
AcDbSymbolTableRecord
100
AcDbLayerTableRecord
  2
85
 70
     0
 62
     7
  6
CONTINUOUS
  0
LAYER
  5
7E
100
AcDbSymbolTableRecord
100
AcDbLayerTableRecord
  2
86
 70
     0
 62
     7
  6
CONTINUOUS
  0
LAYER
  5
7F
100
AcDbSymbolTableRecord
100
AcDbLayerTableRecord
  2
87
 70
     0
 62
     7
  6
CONTINUOUS
  0
LAYER
  5
80
100
AcDbSymbolTableRecord
100
AcDbLayerTableRecord
  2
88
 70
     0
 62
     7
  6
CONTINUOUS
  0
LAYER
  5
81
100
AcDbSymbolTableRecord
100
AcDbLayerTableRecord
  2
89
 70
     0
 62
     7
  6
CONTINUOUS
  0
LAYER
  5
82
100
AcDbSymbolTableRecord
100
AcDbLayerTableRecord
  2
90
 70
     0
 62
     7
  6
CONTINUOUS
  0
LAYER
  5
83
100
AcDbSymbolTableRecord
100
AcDbLayerTableRecord
  2
91
 70
     0
 62
     7
  6
CONTINUOUS
  0
LAYER
  5
84
100
AcDbSymbolTableRecord
100
AcDbLayerTableRecord
  2
92
 70
     0
 62
     7
  6
CONTINUOUS
  0
LAYER
  5
85
100
AcDbSymbolTableRecord
100
AcDbLayerTableRecord
  2
93
 70
     0
 62
     7
  6
CONTINUOUS
  0
LAYER
  5
86
100
AcDbSymbolTableRecord
100
AcDbLayerTableRecord
  2
94
 70
     0
 62
     7
  6
CONTINUOUS
  0
LAYER
  5
87
100
AcDbSymbolTableRecord
100
AcDbLayerTableRecord
  2
95
 70
     0
 62
     7
  6
CONTINUOUS
  0
LAYER
  5
88
100
AcDbSymbolTableRecord
100
AcDbLayerTableRecord
  2
96
 70
     0
 62
     7
  6
CONTINUOUS
  0
LAYER
  5
89
100
AcDbSymbolTableRecord
100
AcDbLayerTableRecord
  2
97
 70
     0
 62
     7
  6
CONTINUOUS
  0
LAYER
  5
8A
100
AcDbSymbolTableRecord
100
AcDbLayerTableRecord
  2
98
 70
     0
 62
     7
  6
CONTINUOUS
  0
LAYER
  5
8B
100
AcDbSymbolTableRecord
100
AcDbLayerTableRecord
  2
99
 70
     0
 62
     7
  6
CONTINUOUS
  0
LAYER
  5
8C
100
AcDbSymbolTableRecord
100
AcDbLayerTableRecord
  2
100
 70
     0
 62
     7
  6
CONTINUOUS
  0
LAYER
  5
8D
100
AcDbSymbolTableRecord
100
AcDbLayerTableRecord
  2
101
 70
     0
 62
     7
  6
CONTINUOUS
  0
LAYER
  5
8E
100
AcDbSymbolTableRecord
100
AcDbLayerTableRecord
  2
102
 70
     0
 62
     7
  6
CONTINUOUS
  0
LAYER
  5
8F
100
AcDbSymbolTableRecord
100
AcDbLayerTableRecord
  2
103
 70
     0
 62
     7
  6
CONTINUOUS
  0
LAYER
  5
90
100
AcDbSymbolTableRecord
100
AcDbLayerTableRecord
  2
104
 70
     0
 62
     7
  6
CONTINUOUS
  0
LAYER
  5
91
100
AcDbSymbolTableRecord
100
AcDbLayerTableRecord
  2
105
 70
     0
 62
     7
  6
CONTINUOUS
  0
LAYER
  5
92
100
AcDbSymbolTableRecord
100
AcDbLayerTableRecord
  2
106
 70
     0
 62
     7
  6
CONTINUOUS
  0
LAYER
  5
93
100
AcDbSymbolTableRecord
100
AcDbLayerTableRecord
  2
107
 70
     0
 62
     7
  6
CONTINUOUS
  0
LAYER
  5
94
100
AcDbSymbolTableRecord
100
AcDbLayerTableRecord
  2
108
 70
     0
 62
     7
  6
CONTINUOUS
  0
LAYER
  5
95
100
AcDbSymbolTableRecord
100
AcDbLayerTableRecord
  2
109
 70
     0
 62
     7
  6
CONTINUOUS
  0
LAYER
  5
96
100
AcDbSymbolTableRecord
100
AcDbLayerTableRecord
  2
110
 70
     0
 62
     7
  6
CONTINUOUS
  0
LAYER
  5
97
100
AcDbSymbolTableRecord
100
AcDbLayerTableRecord
  2
111
 70
     0
 62
     7
  6
CONTINUOUS
  0
LAYER
  5
98
100
AcDbSymbolTableRecord
100
AcDbLayerTableRecord
  2
112
 70
     0
 62
     7
  6
CONTINUOUS
  0
LAYER
  5
99
100
AcDbSymbolTableRecord
100
AcDbLayerTableRecord
  2
113
 70
     0
 62
     7
  6
CONTINUOUS
  0
LAYER
  5
9A
100
AcDbSymbolTableRecord
100
AcDbLayerTableRecord
  2
114
 70
     0
 62
     7
  6
CONTINUOUS
  0
LAYER
  5
9B
100
AcDbSymbolTableRecord
100
AcDbLayerTableRecord
  2
115
 70
     0
 62
     7
  6
CONTINUOUS
  0
LAYER
  5
9C
100
AcDbSymbolTableRecord
100
AcDbLayerTableRecord
  2
116
 70
     0
 62
     7
  6
CONTINUOUS
  0
LAYER
  5
9D
100
AcDbSymbolTableRecord
100
AcDbLayerTableRecord
  2
117
 70
     0
 62
     7
  6
CONTINUOUS
  0
LAYER
  5
9E
100
AcDbSymbolTableRecord
100
AcDbLayerTableRecord
  2
118
 70
     0
 62
     7
  6
CONTINUOUS
  0
LAYER
  5
9F
100
AcDbSymbolTableRecord
100
AcDbLayerTableRecord
  2
119
 70
     0
 62
     7
  6
CONTINUOUS
  0
LAYER
  5
A0
100
AcDbSymbolTableRecord
100
AcDbLayerTableRecord
  2
120
 70
     0
 62
     7
  6
CONTINUOUS
  0
LAYER
  5
A1
100
AcDbSymbolTableRecord
100
AcDbLayerTableRecord
  2
121
 70
     0
 62
     7
  6
CONTINUOUS
  0
LAYER
  5
A2
100
AcDbSymbolTableRecord
100
AcDbLayerTableRecord
  2
122
 70
     0
 62
     7
  6
CONTINUOUS
  0
LAYER
  5
A3
100
AcDbSymbolTableRecord
100
AcDbLayerTableRecord
  2
123
 70
     0
 62
     7
  6
CONTINUOUS
  0
LAYER
  5
A4
100
AcDbSymbolTableRecord
100
AcDbLayerTableRecord
  2
124
 70
     0
 62
     7
  6
CONTINUOUS
  0
LAYER
  5
A5
100
AcDbSymbolTableRecord
100
AcDbLayerTableRecord
  2
125
 70
     0
 62
     7
  6
CONTINUOUS
  0
LAYER
  5
A6
100
AcDbSymbolTableRecord
100
AcDbLayerTableRecord
  2
126
 70
     0
 62
     7
  6
CONTINUOUS
  0
LAYER
  5
A7
100
AcDbSymbolTableRecord
100
AcDbLayerTableRecord
  2
127
 70
     0
 62
     7
  6
CONTINUOUS
  0
LAYER
  5
A8
100
AcDbSymbolTableRecord
100
AcDbLayerTableRecord
  2
128
 70
     0
 62
     7
  6
CONTINUOUS
  0
ENDTAB
  0
TABLE
  2
STYLE
  5
3
100
AcDbSymbolTable
 70
     7
  0
STYLE
  5
11
100
AcDbSymbolTableRecord
100
AcDbTextStyleTableRecord
  2
STANDARD
 70
     0
 40
0.0
 41
1.0
 50
0.0
 71
     0
 42
2.5
  3
txt
  4
extfont.shx
  0
STYLE
  5
BD
100
AcDbSymbolTableRecord
100
AcDbTextStyleTableRecord
  2
KANJI0
 70
     0
 40
15.0
 41
0.9
 50
0.0
 71
     0
 42
15.0
  3
txt.shx
  4
extfont.shx
  0
STYLE
  5
134
100
AcDbSymbolTableRecord
100
AcDbTextStyleTableRecord
  2
KANJI1
 70
     0
 40
15.0
 41
0.45
 50
0.0
 71
     0
 42
15.0
  3
txt.shx
  4
extfont.shx
  0
STYLE
  5
136
100
AcDbSymbolTableRecord
100
AcDbTextStyleTableRecord
  2
KANJI2
 70
     0
 40
15.0
 41
0.9
 50
0.0
 71
     0
 42
15.0
  3
txt.shx
  4
extfont.shx
  0
STYLE
  5
196
100
AcDbSymbolTableRecord
100
AcDbTextStyleTableRecord
  2
KANJI3
 70
     0
 40
15.0
 41
0.9
 50
0.0
 71
     0
 42
15.0
  3
txt.shx
  4
extfont.shx
  0
STYLE
  5
1AF
100
AcDbSymbolTableRecord
100
AcDbTextStyleTableRecord
  2
KANJI4
 70
     0
 40
20.0
 41
0.9
 50
0.0
 71
     0
 42
20.0
  3
txt.shx
  4
extfont.shx
  0
STYLE
  5
1CC
100
AcDbSymbolTableRecord
100
AcDbTextStyleTableRecord
  2
KANJI5
 70
     0
 40
50.0
 41
0.94
 50
0.0
 71
     0
 42
50.0
  3
txt.shx
  4
extfont.shx
  0
ENDTAB
  0
TABLE
  2
VIEW
  5
6
100
AcDbSymbolTable
 70
     0
  0
ENDTAB
  0
TABLE
  2
UCS
  5
7
100
AcDbSymbolTable
 70
     0
  0
ENDTAB
  0
TABLE
  2
APPID
  5
9
100
AcDbSymbolTable
 70
     1
  0
APPID
  5
12
100
AcDbSymbolTableRecord
100
AcDbRegAppTableRecord
  2
ACAD
 70
     0
  0
ENDTAB
  0
TABLE
  2
DIMSTYLE
  5
A
100
AcDbSymbolTable
 70
     1
  0
DIMSTYLE
105
27
100
AcDbSymbolTableRecord
100
AcDbDimStyleTableRecord
  2
ISO-25
 70
     0
  3

  4

  5

  6

  7

 40
1.0
 41
2.5
 42
0.625
 43
3.75
 44
1.25
 45
0.0
 46
0.0
 47
0.0
 48
0.0
 71
     0
 72
     0
 73
     0
 74
     0
 75
     0
 76
     0
 77
     1
 78
     8
140
2.5
141
2.5
142
0.0
143
0.039370079
144
1.0
145
0.0
146
1.0
147
0.625
170
     0
171
     3
172
     1
173
     0
174
     0
175
     0
176
     0
177
     0
178
     0
270
     2
271
     2
272
     2
273
     2
274
     3
275
     0
280
     0
281
     0
282
     0
283
     1
284
     8
285
     0
286
     0
287
     0
288
     0
340
11
  0
ENDTAB
  0
TABLE
  2
BLOCK_RECORD
  5
1
100
AcDbSymbolTable
 70
     3
  0
BLOCK_RECORD
  5
1F
100
AcDbSymbolTableRecord
100
AcDbBlockTableRecord
  2
*MODEL_SPACE
  0
BLOCK_RECORD
  5
1B
100
AcDbSymbolTableRecord
100
AcDbBlockTableRecord
  2
*PAPER_SPACE
  0
ENDTAB
  0
ENDSEC
  0
SECTION
  2
BLOCKS
  0
BLOCK
  5
1C
100
AcDbEntity
 67
     1
  8
0
100
AcDbBlockBegin
  2
*PAPER_SPACE
 70
     0
 10
0.0
 20
0.0
 30
0.0
  3
*PAPER_SPACE
  1

  0
ENDBLK
  5
1D
100
AcDbEntity
  8
0
100
AcDbBlockEnd
  0
BLOCK
  5
20
100
AcDbEntity
  8
0
100
AcDbBlockBegin
  2
*MODEL_SPACE
 70
     0
 10
0.0
 20
0.0
 30
0.0
  3
*MODEL_SPACE
  1

  0
ENDBLK
  5
21
100
AcDbEntity
  8
0
100
AcDbBlockEnd
  0
ENDSEC
  0
SECTION
  2
ENTITIES
  0
LWPOLYLINE
  5
AB
100
AcDbEntity
  8
0
  6
LTYPE1
 62
     2
100
AcDbPolyline
 90
     4
 70
   129
 43
0.0
 10
425.0
 20
1235.0
 10
910.0
 20
1235.0
 10
910.0
 20
1285.0
 10
425.0
 20
1285.0
  0
LWPOLYLINE
  5
AD
100
AcDbEntity
  8
0
  6
LTYPE1
 62
     2
100
AcDbPolyline
 90
     4
 70
   129
 43
0.0
 10
965.0
 20
1287.4
 10
965.0
 20
1287.4
 10
965.0
 20
1287.4
 10
965.0
 20
1287.4
  0
LINE
  5
AF
100
AcDbEntity
  8
0
  6
LTYPE2
 62
     2
100
AcDbLine
 10
975.0
 20
1260.0
 30
0.0
 11
355.0
 21
1260.0
 31
0.0
  0
LINE
  5
B0
100
AcDbEntity
  8
0
  6
CONTINUOUS
 62
     2
100
AcDbLine
 10
395.0
 20
1255.0
 30
0.0
 11
395.0
 21
1265.0
 31
0.0
  0
LINE
  5
B1
100
AcDbEntity
  8
0
  6
CONTINUOUS
 62
     2
100
AcDbLine
 10
445.0
 20
1270.0
 30
0.0
 11
445.0
 21
1250.0
 31
0.0
  0
LINE
  5
B2
100
AcDbEntity
  8
0
  6
CONTINUOUS
 62
     2
100
AcDbLine
 10
935.0
 20
1255.0
 30
0.0
 11
935.0
 21
1265.0
 31
0.0
  0
LINE
  5
B3
100
AcDbEntity
  8
0
  6
CONTINUOUS
 62
     2
100
AcDbLine
 10
665.0
 20
1270.0
 30
0.0
 11
665.0
 21
1250.0
 31
0.0
  0
LINE
  5
B4
100
AcDbEntity
  8
0
  6
CONTINUOUS
 62
     2
100
AcDbLine
 10
885.0
 20
1270.0
 30
0.0
 11
885.0
 21
1250.0
 31
0.0
  0
LINE
  5
B5
100
AcDbEntity
  8
0
  6
CONTINUOUS
 62
     2
100
AcDbLine
 10
975.0
 20
1290.0
 30
0.0
 11
1080.0
 21
1290.0
 31
0.0
  0
LINE
  5
B6
100
AcDbEntity
  8
0
  6
CONTINUOUS
 62
     2
100
AcDbLine
 10
1075.0
 20
1290.0
 30
0.0
 11
1073.058857162
 21
1282.755556303
 31
0.0
  0
LINE
  5
B7
100
AcDbEntity
  8
0
  6
CONTINUOUS
 62
     2
100
AcDbLine
 10
1075.0
 20
1290.0
 30
0.0
 11
1076.941142838
 21
1282.755556303
 31
0.0
  0
LWPOLYLINE
  5
B9
100
AcDbEntity
  8
0
  6
CONTINUOUS
 62
     2
100
AcDbPolyline
 90
     3
 70
   128
 43
0.0
 10
1075.0
 20
1290.0
 10
1075.0
 20
1230.0
 10
1076.941142838
 20
1237.244443697
  0
LINE
  5
BA
100
AcDbEntity
  8
0
  6
CONTINUOUS
 62
     2
100
AcDbLine
 10
1075.0
 20
1230.0
 30
0.0
 11
1073.058857162
 21
1237.244443697
 31
0.0
  0
LINE
  5
BB
100
AcDbEntity
  8
0
  6
CONTINUOUS
 62
     2
100
AcDbLine
 10
975.0
 20
1230.0
 30
0.0
 11
1080.0
 21
1230.0
 31
0.0
  0
TEXT
  5
BC
100
AcDbEntity
  8
0
  6
CONTINUOUS
 62
     2
100
AcDbText
 10
1070.0
 20
1246.5
 30
0.0
 40
15.0
  1
６０
 50
90.0
 41
0.9
  7
KANJI0
100
AcDbText
  0
ARC
  5
BE
100
AcDbEntity
  8
0
  6
CONTINUOUS
 62
     2
100
AcDbCircle
 10
967.0
 20
401.0
 30
0.0
 40
1.0
100
AcDbArc
 50
270.0
 51
0.0
  0
ARC
  5
BF
100
AcDbEntity
  8
0
  6
CONTINUOUS
 62
     2
100
AcDbCircle
 10
967.0
 20
429.0
 30
0.0
 40
1.0
100
AcDbArc
 50
0.0
 51
90.0
  0
ARC
  5
C0
100
AcDbEntity
  8
0
  6
CONTINUOUS
 62
     2
100
AcDbCircle
 10
870.5
 20
415.0
 30
0.0
 40
98.5
100
AcDbArc
 50
351.82876644
 51
8.17123356
  0
LINE
  5
C1
100
AcDbEntity
  8
0
  6
CONTINUOUS
 62
     2
100
AcDbLine
 10
365.0
 20
1082.6
 30
0.0
 11
365.0
 21
1187.6
 31
0.0
  0
LINE
  5
C2
100
AcDbEntity
  8
0
  6
CONTINUOUS
 62
     2
100
AcDbLine
 10
365.0
 20
1182.6
 30
0.0
 11
372.244443697
 21
1180.658857162
 31
0.0
  0
LINE
  5
C3
100
AcDbEntity
  8
0
  6
CONTINUOUS
 62
     2
100
AcDbLine
 10
365.0
 20
1182.6
 30
0.0
 11
372.244443697
 21
1184.541142838
 31
0.0
  0
LWPOLYLINE
  5
C5
100
AcDbEntity
  8
0
  6
CONTINUOUS
 62
     2
100
AcDbPolyline
 90
     3
 70
   128
 43
0.0
 10
365.0
 20
1182.6
 10
965.0
 20
1182.6
 10
957.755556303
 20
1184.541142838
  0
LINE
  5
C6
100
AcDbEntity
  8
0
  6
CONTINUOUS
 62
     2
100
AcDbLine
 10
965.0
 20
1182.6
 30
0.0
 11
957.755556303
 21
1180.658857162
 31
0.0
  0
LINE
  5
C7
100
AcDbEntity
  8
0
  6
CONTINUOUS
 62
     2
100
AcDbLine
 10
965.0
 20
1082.6
 30
0.0
 11
965.0
 21
1187.6
 31
0.0
  0
TEXT
  5
C8
100
AcDbEntity
  8
0
  6
CONTINUOUS
 62
     2
100
AcDbText
 10
644.75
 20
1187.6
 30
0.0
 40
15.0
  1
６００
 41
0.9
  7
KANJI0
100
AcDbText
  0
LINE
  5
C9
100
AcDbEntity
  8
0
  6
LTYPE1
 62
     2
100
AcDbLine
 10
910.0
 20
1040.0
 30
0.0
 11
910.0
 21
1070.0
 31
0.0
  0
LINE
  5
CA
100
AcDbEntity
  8
0
  6
LTYPE1
 62
     2
100
AcDbLine
 10
425.0
 20
1040.0
 30
0.0
 11
910.0
 21
1040.0
 31
0.0
  0
LINE
  5
CB
100
AcDbEntity
  8
0
  6
LTYPE1
 62
     2
100
AcDbLine
 10
965.0
 20
1070.0
 30
0.0
 11
365.0
 21
1070.0
 31
0.0
  0
LINE
  5
CC
100
AcDbEntity
  8
0
  6
LTYPE1
 62
     2
100
AcDbLine
 10
425.0
 20
1070.0
 30
0.0
 11
425.0
 21
1040.0
 31
0.0
  0
LINE
  5
CD
100
AcDbEntity
  8
0
  6
LTYPE1
 62
     2
100
AcDbLine
 10
905.0
 20
1030.0
 30
0.0
 11
905.0
 21
1040.0
 31
0.0
  0
LINE
  5
CE
100
AcDbEntity
  8
0
  6
LTYPE1
 62
     2
100
AcDbLine
 10
755.0
 20
1040.0
 30
0.0
 11
755.0
 21
1030.0
 31
0.0
  0
LINE
  5
CF
100
AcDbEntity
  8
0
  6
CONTINUOUS
 62
     2
100
AcDbLine
 10
890.0
 20
1077.6
 30
0.0
 11
890.0
 21
1062.6
 31
0.0
  0
LINE
  5
D0
100
AcDbEntity
  8
0
  6
CONTINUOUS
 62
     2
100
AcDbLine
 10
935.0
 20
1077.6
 30
0.0
 11
935.0
 21
1067.6
 31
0.0
  0
LINE
  5
D1
100
AcDbEntity
  8
0
  6
CONTINUOUS
 62
     2
100
AcDbLine
 10
445.0
 20
1077.6
 30
0.0
 11
445.0
 21
1062.6
 31
0.0
  0
LINE
  5
D2
100
AcDbEntity
  8
0
  6
CONTINUOUS
 62
     2
100
AcDbLine
 10
395.0
 20
1077.6
 30
0.0
 11
395.0
 21
1067.6
 31
0.0
  0
LINE
  5
D3
100
AcDbEntity
  8
0
  6
CONTINUOUS
 62
     2
100
AcDbLine
 10
975.0
 20
1070.0
 30
0.0
 11
1150.0
 21
1070.0
 31
0.0
  0
LINE
  5
D4
100
AcDbEntity
  8
0
  6
CONTINUOUS
 62
     2
100
AcDbLine
 10
1145.0
 20
1070.0
 30
0.0
 11
1143.058857162
 21
1062.755556303
 31
0.0
  0
LINE
  5
D5
100
AcDbEntity
  8
0
  6
CONTINUOUS
 62
     2
100
AcDbLine
 10
1145.0
 20
1070.0
 30
0.0
 11
1146.941142838
 21
1062.755556303
 31
0.0
  0
LWPOLYLINE
  5
D7
100
AcDbEntity
  8
0
  6
CONTINUOUS
 62
     2
100
AcDbPolyline
 90
     3
 70
   128
 43
0.0
 10
1145.0
 20
1070.0
 10
1145.0
 20
400.0
 10
1146.941142838
 20
407.244443697
  0
LINE
  5
D8
100
AcDbEntity
  8
0
  6
CONTINUOUS
 62
     2
100
AcDbLine
 10
1145.0
 20
400.0
 30
0.0
 11
1143.058857162
 21
407.244443697
 31
0.0
  0
LINE
  5
D9
100
AcDbEntity
  8
0
  6
CONTINUOUS
 62
     2
100
AcDbLine
 10
975.0
 20
400.0
 30
0.0
 11
1150.0
 21
400.0
 31
0.0
  0
TEXT
  5
DA
100
AcDbEntity
  8
0
  6
CONTINUOUS
 62
     2
100
AcDbText
 10
1140.0
 20
714.75
 30
0.0
 40
15.0
  1
６７０
 50
90.0
 41
0.9
  7
KANJI0
100
AcDbText
  0
LINE
  5
DB
100
AcDbEntity
  8
0
  6
CONTINUOUS
 62
     2
100
AcDbLine
 10
965.0
 20
430.0
 30
0.0
 11
967.0
 21
430.0
 31
0.0
  0
LINE
  5
DC
100
AcDbEntity
  8
0
  6
CONTINUOUS
 62
     2
100
AcDbLine
 10
967.0
 20
400.0
 30
0.0
 11
965.0
 21
400.0
 31
0.0
  0
LINE
  5
DD
100
AcDbEntity
  8
0
  6
CONTINUOUS
 62
     2
100
AcDbLine
 10
910.0
 20
1080.0
 30
0.0
 11
910.0
 21
1152.6
 31
0.0
  0
LINE
  5
DE
100
AcDbEntity
  8
0
  6
CONTINUOUS
 62
     2
100
AcDbLine
 10
910.0
 20
1147.6
 30
0.0
 11
902.755556303
 21
1149.541142838
 31
0.0
  0
LINE
  5
DF
100
AcDbEntity
  8
0
  6
CONTINUOUS
 62
     2
100
AcDbLine
 10
910.0
 20
1147.6
 30
0.0
 11
902.755556303
 21
1145.658857162
 31
0.0
  0
LWPOLYLINE
  5
E1
100
AcDbEntity
  8
0
  6
CONTINUOUS
 62
     2
100
AcDbPolyline
 90
     3
 70
   128
 43
0.0
 10
910.0
 20
1147.6
 10
425.0
 20
1147.6
 10
432.244443697
 20
1145.658857162
  0
LINE
  5
E2
100
AcDbEntity
  8
0
  6
CONTINUOUS
 62
     2
100
AcDbLine
 10
425.0
 20
1147.6
 30
0.0
 11
432.244443697
 21
1149.541142838
 31
0.0
  0
LINE
  5
E3
100
AcDbEntity
  8
0
  6
CONTINUOUS
 62
     2
100
AcDbLine
 10
425.0
 20
1080.0
 30
0.0
 11
425.0
 21
1152.6
 31
0.0
  0
TEXT
  5
E4
100
AcDbEntity
  8
0
  6
CONTINUOUS
 62
     2
100
AcDbText
 10
647.25
 20
1152.6
 30
0.0
 40
15.0
  1
４８５
 41
0.9
  7
KANJI0
100
AcDbText
  0
LINE
  5
E5
100
AcDbEntity
  8
0
  6
CONTINUOUS
 62
     2
100
AcDbLine
 10
1075.0
 20
1070.0
 30
0.0
 11
1073.058857162
 21
1062.755556303
 31
0.0
  0
LINE
  5
E6
100
AcDbEntity
  8
0
  6
CONTINUOUS
 62
     2
100
AcDbLine
 10
1075.0
 20
1070.0
 30
0.0
 11
1076.941142838
 21
1062.755556303
 31
0.0
  0
LWPOLYLINE
  5
E8
100
AcDbEntity
  8
0
  6
CONTINUOUS
 62
     2
100
AcDbPolyline
 90
     3
 70
   128
 43
0.0
 10
1075.0
 20
1070.0
 10
1075.0
 20
1040.0
 10
1076.941142838
 20
1047.244443697
  0
LINE
  5
E9
100
AcDbEntity
  8
0
  6
CONTINUOUS
 62
     2
100
AcDbLine
 10
1075.0
 20
1040.0
 30
0.0
 11
1073.058857162
 21
1047.244443697
 31
0.0
  0
LINE
  5
EA
100
AcDbEntity
  8
0
  6
CONTINUOUS
 62
     2
100
AcDbLine
 10
915.0
 20
1040.0
 30
0.0
 11
1080.0
 21
1040.0
 31
0.0
  0
TEXT
  5
EB
100
AcDbEntity
  8
0
  6
CONTINUOUS
 62
     2
100
AcDbText
 10
1070.0
 20
1041.5
 30
0.0
 40
15.0
  1
３０
 50
90.0
 41
0.9
  7
KANJI0
100
AcDbText
  0
LINE
  5
EC
100
AcDbEntity
  8
0
  6
CONTINUOUS
 62
     2
100
AcDbLine
 10
1075.0
 20
1040.0
 30
0.0
 11
1073.058857162
 21
1032.755556303
 31
0.0
  0
LINE
  5
ED
100
AcDbEntity
  8
0
  6
CONTINUOUS
 62
     2
100
AcDbLine
 10
1075.0
 20
1040.0
 30
0.0
 11
1076.941142838
 21
1032.755556303
 31
0.0
  0
LWPOLYLINE
  5
EF
100
AcDbEntity
  8
0
  6
CONTINUOUS
 62
     2
100
AcDbPolyline
 90
     3
 70
   128
 43
0.0
 10
1075.0
 20
1040.0
 10
1075.0
 20
430.0
 10
1076.941142838
 20
437.244443697
  0
LINE
  5
F0
100
AcDbEntity
  8
0
  6
CONTINUOUS
 62
     2
100
AcDbLine
 10
1075.0
 20
430.0
 30
0.0
 11
1073.058857162
 21
437.244443697
 31
0.0
  0
LINE
  5
F1
100
AcDbEntity
  8
0
  6
CONTINUOUS
 62
     2
100
AcDbLine
 10
975.0
 20
430.0
 30
0.0
 11
1080.0
 21
430.0
 31
0.0
  0
TEXT
  5
F2
100
AcDbEntity
  8
0
  6
CONTINUOUS
 62
     2
100
AcDbText
 10
1070.0
 20
714.75
 30
0.0
 40
15.0
  1
６１０
 50
90.0
 41
0.9
  7
KANJI0
100
AcDbText
  0
LINE
  5
F3
100
AcDbEntity
  8
0
  6
CONTINUOUS
 62
     2
100
AcDbLine
 10
1075.0
 20
430.0
 30
0.0
 11
1073.058857162
 21
422.755556303
 31
0.0
  0
LINE
  5
F4
100
AcDbEntity
  8
0
  6
CONTINUOUS
 62
     2
100
AcDbLine
 10
1075.0
 20
430.0
 30
0.0
 11
1076.941142838
 21
422.755556303
 31
0.0
  0
LWPOLYLINE
  5
F6
100
AcDbEntity
  8
0
  6
CONTINUOUS
 62
     2
100
AcDbPolyline
 90
     3
 70
   128
 43
0.0
 10
1075.0
 20
430.0
 10
1075.0
 20
400.0
 10
1076.941142838
 20
407.244443697
  0
LINE
  5
F7
100
AcDbEntity
  8
0
  6
CONTINUOUS
 62
     2
100
AcDbLine
 10
1075.0
 20
400.0
 30
0.0
 11
1073.058857162
 21
407.244443697
 31
0.0
  0
TEXT
  5
F8
100
AcDbEntity
  8
0
  6
CONTINUOUS
 62
     2
100
AcDbText
 10
1070.0
 20
401.5
 30
0.0
 40
15.0
  1
３０
 50
90.0
 41
0.9
  7
KANJI0
100
AcDbText
  0
LWPOLYLINE
  5
FA
100
AcDbEntity
  8
0
  6
CONTINUOUS
 62
     2
100
AcDbPolyline
 90
    16
 70
   129
 43
0.0
 10
445.5
 20
1261.0
 10
445.5
 20
1263.0
 10
444.5
 20
1263.0
 10
444.5
 20
1261.0
 10
444.0
 20
1260.5
 10
442.0
 20
1260.5
 10
442.0
 20
1259.5
 10
444.0
 20
1259.5
 10
444.5
 20
1259.0
 10
444.5
 20
1257.0
 10
445.5
 20
1257.0
 10
445.5
 20
1259.0
 10
446.0
 20
1259.5
 10
448.0
 20
1259.5
 10
448.0
 20
1260.5
 10
446.0
 20
1260.5
  0
LWPOLYLINE
  5
FC
100
AcDbEntity
  8
0
  6
CONTINUOUS
 62
     2
100
AcDbPolyline
 90
    16
 70
   129
 43
0.0
 10
665.5
 20
1261.0
 10
665.5
 20
1263.0
 10
664.5
 20
1263.0
 10
664.5
 20
1261.0
 10
664.0
 20
1260.5
 10
662.0
 20
1260.5
 10
662.0
 20
1259.5
 10
664.0
 20
1259.5
 10
664.5
 20
1259.0
 10
664.5
 20
1257.0
 10
665.5
 20
1257.0
 10
665.5
 20
1259.0
 10
666.0
 20
1259.5
 10
668.0
 20
1259.5
 10
668.0
 20
1260.5
 10
666.0
 20
1260.5
  0
LWPOLYLINE
  5
FE
100
AcDbEntity
  8
0
  6
CONTINUOUS
 62
     2
100
AcDbPolyline
 90
    16
 70
   129
 43
0.0
 10
885.5
 20
1261.0
 10
885.5
 20
1263.0
 10
884.5
 20
1263.0
 10
884.5
 20
1261.0
 10
884.0
 20
1260.5
 10
882.0
 20
1260.5
 10
882.0
 20
1259.5
 10
884.0
 20
1259.5
 10
884.5
 20
1259.0
 10
884.5
 20
1257.0
 10
885.5
 20
1257.0
 10
885.5
 20
1259.0
 10
886.0
 20
1259.5
 10
888.0
 20
1259.5
 10
888.0
 20
1260.5
 10
886.0
 20
1260.5
  0
CIRCLE
  5
FF
100
AcDbEntity
  8
0
  6
CONTINUOUS
 62
     2
100
AcDbCircle
 10
950.0
 20
1274.0
 30
0.0
 40
12.5
  0
CIRCLE
  5
100
100
AcDbEntity
  8
0
  6
CONTINUOUS
 62
     2
100
AcDbCircle
 10
950.0
 20
1246.0
 30
0.0
 40
12.5
  0
CIRCLE
  5
101
100
AcDbEntity
  8
0
  6
CONTINUOUS
 62
     2
100
AcDbCircle
 10
380.0
 20
1274.0
 30
0.0
 40
12.5
  0
CIRCLE
  5
102
100
AcDbEntity
  8
0
  6
CONTINUOUS
 62
     2
100
AcDbCircle
 10
380.0
 20
1246.0
 30
0.0
 40
12.5
  0
LWPOLYLINE
  5
104
100
AcDbEntity
  8
0
  6
CONTINUOUS
 62
     2
100
AcDbPolyline
 90
     4
 70
   128
 43
0.0
 10
960.0
 20
400.0
 10
960.0
 20
396.0
 10
916.0
 20
396.0
 10
916.0
 20
400.0
  0
LWPOLYLINE
  5
106
100
AcDbEntity
  8
0
  6
CONTINUOUS
 62
     2
100
AcDbPolyline
 90
     4
 70
   128
 43
0.0
 10
962.5
 20
1072.5
 10
962.5
 20
1074.5
 10
937.5
 20
1074.5
 10
937.5
 20
1072.5
  0
LWPOLYLINE
  5
108
100
AcDbEntity
  8
0
  6
CONTINUOUS
 62
     2
100
AcDbPolyline
 90
     4
 70
   128
 43
0.0
 10
367.5
 20
1072.5
 10
367.5
 20
1074.5
 10
392.5
 20
1074.5
 10
392.5
 20
1072.5
  0
LINE
  5
109
100
AcDbEntity
  8
0
  6
CONTINUOUS
 62
     2
100
AcDbLine
 10
874.5
 20
1290.6
 30
0.0
 11
885.5
 21
1290.6
 31
0.0
  0
LWPOLYLINE
  5
10B
100
AcDbEntity
  8
0
  6
CONTINUOUS
 62
     2
100
AcDbPolyline
 90
     6
 70
   128
 43
0.0
 10
875.0
 20
1290.6
 10
875.0
 20
1296.1
 10
875.5
 20
1296.6
 10
884.5
 20
1296.6
 10
885.0
 20
1296.1
 10
885.0
 20
1290.6
  0
LINE
  5
10C
100
AcDbEntity
  8
0
  6
CONTINUOUS
 62
     2
100
AcDbLine
 10
885.0
 20
1296.1
 30
0.0
 11
875.0
 21
1296.1
 31
0.0
  0
LINE
  5
10D
100
AcDbEntity
  8
0
  6
CONTINUOUS
 62
     2
100
AcDbLine
 10
874.5
 20
1290.0
 30
0.0
 11
874.5
 21
1290.6
 31
0.0
  0
LINE
  5
10E
100
AcDbEntity
  8
0
  6
CONTINUOUS
 62
     2
100
AcDbLine
 10
885.5
 20
1290.6
 30
0.0
 11
885.5
 21
1290.0
 31
0.0
  0
LINE
  5
10F
100
AcDbEntity
  8
0
  6
CONTINUOUS
 62
     2
100
AcDbLine
 10
880.0
 20
1302.4
 30
0.0
 11
880.0
 21
1286.0
 31
0.0
  0
LINE
  5
110
100
AcDbEntity
  8
0
  6
CONTINUOUS
 62
     2
100
AcDbLine
 10
774.5
 20
1290.6
 30
0.0
 11
785.5
 21
1290.6
 31
0.0
  0
LWPOLYLINE
  5
112
100
AcDbEntity
  8
0
  6
CONTINUOUS
 62
     2
100
AcDbPolyline
 90
     6
 70
   128
 43
0.0
 10
775.0
 20
1290.6
 10
775.0
 20
1296.1
 10
775.5
 20
1296.6
 10
784.5
 20
1296.6
 10
785.0
 20
1296.1
 10
785.0
 20
1290.6
  0
LINE
  5
113
100
AcDbEntity
  8
0
  6
CONTINUOUS
 62
     2
100
AcDbLine
 10
785.0
 20
1296.1
 30
0.0
 11
775.0
 21
1296.1
 31
0.0
  0
LINE
  5
114
100
AcDbEntity
  8
0
  6
CONTINUOUS
 62
     2
100
AcDbLine
 10
774.5
 20
1290.0
 30
0.0
 11
774.5
 21
1290.6
 31
0.0
  0
LINE
  5
115
100
AcDbEntity
  8
0
  6
CONTINUOUS
 62
     2
100
AcDbLine
 10
785.5
 20
1290.6
 30
0.0
 11
785.5
 21
1290.0
 31
0.0
  0
LINE
  5
116
100
AcDbEntity
  8
0
  6
CONTINUOUS
 62
     2
100
AcDbLine
 10
780.0
 20
1302.4
 30
0.0
 11
780.0
 21
1286.0
 31
0.0
  0
ARC
  5
117
100
AcDbEntity
  8
0
  6
CONTINUOUS
 62
     2
100
AcDbCircle
 10
363.0
 20
401.0
 30
0.0
 40
1.0
100
AcDbArc
 50
180.0
 51
270.0
  0
ARC
  5
118
100
AcDbEntity
  8
0
  6
CONTINUOUS
 62
     2
100
AcDbCircle
 10
363.0
 20
429.0
 30
0.0
 40
1.0
100
AcDbArc
 50
90.0
 51
180.0
  0
ARC
  5
119
100
AcDbEntity
  8
0
  6
CONTINUOUS
 62
     2
100
AcDbCircle
 10
459.5
 20
415.0
 30
0.0
 40
98.5
100
AcDbArc
 50
171.82876644
 51
188.17123356
  0
LINE
  5
11A
100
AcDbEntity
  8
0
  6
CONTINUOUS
 62
     2
100
AcDbLine
 10
365.0
 20
430.0
 30
0.0
 11
363.0
 21
430.0
 31
0.0
  0
LINE
  5
11B
100
AcDbEntity
  8
0
  6
CONTINUOUS
 62
     2
100
AcDbLine
 10
363.0
 20
400.0
 30
0.0
 11
365.0
 21
400.0
 31
0.0
  0
LWPOLYLINE
  5
11D
100
AcDbEntity
  8
0
  6
CONTINUOUS
 62
     2
100
AcDbPolyline
 90
     4
 70
   128
 43
0.0
 10
370.0
 20
400.0
 10
370.0
 20
396.0
 10
414.0
 20
396.0
 10
414.0
 20
400.0
  0
CIRCLE
  5
11E
100
AcDbEntity
  8
0
  6
CONTINUOUS
 62
     2
100
AcDbCircle
 10
395.0
 20
1260.0
 30
0.0
 40
3.5
  0
CIRCLE
  5
11F
100
AcDbEntity
  8
0
  6
CONTINUOUS
 62
     2
100
AcDbCircle
 10
445.0
 20
1260.0
 30
0.0
 40
6.0
  0
CIRCLE
  5
120
100
AcDbEntity
  8
0
  6
CONTINUOUS
 62
     2
100
AcDbCircle
 10
885.0
 20
1260.0
 30
0.0
 40
6.0
  0
CIRCLE
  5
121
100
AcDbEntity
  8
0
  6
CONTINUOUS
 62
     2
100
AcDbCircle
 10
935.0
 20
1260.0
 30
0.0
 40
3.5
  0
CIRCLE
  5
122
100
AcDbEntity
  8
0
  6
CONTINUOUS
 62
     2
100
AcDbCircle
 10
665.0
 20
1260.0
 30
0.0
 40
6.0
  0
LWPOLYLINE
  5
124
100
AcDbEntity
  8
0
  6
CONTINUOUS
 62
     2
100
AcDbPolyline
 90
     4
 70
   128
 43
0.0
 10
892.5
 20
1754.5
 10
893.5
 20
1754.5
 10
893.5
 20
1767.5
 10
892.5
 20
1767.5
  0
LWPOLYLINE
  5
126
100
AcDbEntity
  8
0
  6
CONTINUOUS
 62
     2
100
AcDbPolyline
 90
     4
 70
   128
 43
0.0
 10
893.5
 20
1767.0
 10
895.0
 20
1767.0
 10
895.0
 20
1755.0
 10
893.5
 20
1755.0
  0
LWPOLYLINE
  5
128
100
AcDbEntity
  8
0
  6
CONTINUOUS
 62
     2
100
AcDbPolyline
 90
     5
 70
   128
 43
0.0
 10
900.4
 20
1756.0
 10
900.9
 20
1756.5
 10
900.9
 20
1765.5
 10
900.4
 20
1766.0
 10
895.0
 20
1766.0
  0
LINE
  5
129
100
AcDbEntity
  8
0
  6
CONTINUOUS
 62
     2
100
AcDbLine
 10
895.0
 20
1756.0
 30
0.0
 11
900.4
 21
1756.0
 31
0.0
  0
LINE
  5
12A
100
AcDbEntity
  8
0
  6
CONTINUOUS
 62
     2
100
AcDbLine
 10
885.2
 20
1761.0
 30
0.0
 11
910.7
 21
1761.0
 31
0.0
  0
LWPOLYLINE
  5
12C
100
AcDbEntity
  8
0
  6
CONTINUOUS
 62
     2
100
AcDbPolyline
 90
     4
 70
   128
 43
0.0
 10
792.5
 20
1754.5
 10
793.5
 20
1754.5
 10
793.5
 20
1767.5
 10
792.5
 20
1767.5
  0
LWPOLYLINE
  5
12E
100
AcDbEntity
  8
0
  6
CONTINUOUS
 62
     2
100
AcDbPolyline
 90
     4
 70
   128
 43
0.0
 10
793.5
 20
1767.0
 10
795.0
 20
1767.0
 10
795.0
 20
1755.0
 10
793.5
 20
1755.0
  0
LWPOLYLINE
  5
130
100
AcDbEntity
  8
0
  6
CONTINUOUS
 62
     2
100
AcDbPolyline
 90
     5
 70
   128
 43
0.0
 10
800.4
 20
1756.0
 10
800.9
 20
1756.5
 10
800.9
 20
1765.5
 10
800.4
 20
1766.0
 10
795.0
 20
1766.0
  0
LINE
  5
131
100
AcDbEntity
  8
0
  6
CONTINUOUS
 62
     2
100
AcDbLine
 10
795.0
 20
1756.0
 30
0.0
 11
800.4
 21
1756.0
 31
0.0
  0
LINE
  5
132
100
AcDbEntity
  8
0
  6
CONTINUOUS
 62
     2
100
AcDbLine
 10
785.2
 20
1761.0
 30
0.0
 11
810.7
 21
1761.0
 31
0.0
  0
TEXT
  5
133
100
AcDbEntity
  8
0
  6
CONTINUOUS
 62
     2
100
AcDbText
 10
207.5
 20
100.0
 30
0.0
 40
15.0
  1
ＳＳＦ／ＮＯ，９　　　６１０ＡＡ　
 41
0.45
  7
KANJI1
100
AcDbText
  0
TEXT
  5
135
100
AcDbEntity
  8
0
  6
CONTINUOUS
 62
     2
100
AcDbText
 10
207.5
 20
150.0
 30
0.0
 40
15.0
  1
ＭＸＳ－６１０　
 41
0.9
  7
KANJI2
100
AcDbText
  0
LINE
  5
137
100
AcDbEntity
  8
0
  6
CONTINUOUS
 62
     2
100
AcDbLine
 10
365.0
 20
380.0
 30
0.0
 11
365.0
 21
255.0
 31
0.0
  0
LINE
  5
138
100
AcDbEntity
  8
0
  6
CONTINUOUS
 62
     2
100
AcDbLine
 10
365.0
 20
260.0
 30
0.0
 11
372.244443697
 21
258.058857162
 31
0.0
  0
LINE
  5
139
100
AcDbEntity
  8
0
  6
CONTINUOUS
 62
     2
100
AcDbLine
 10
365.0
 20
260.0
 30
0.0
 11
372.244443697
 21
261.941142838
 31
0.0
  0
LWPOLYLINE
  5
13B
100
AcDbEntity
  8
0
  6
CONTINUOUS
 62
     2
100
AcDbPolyline
 90
     3
 70
   128
 43
0.0
 10
365.0
 20
260.0
 10
965.0
 20
260.0
 10
957.755556303
 20
261.941142838
  0
LINE
  5
13C
100
AcDbEntity
  8
0
  6
CONTINUOUS
 62
     2
100
AcDbLine
 10
965.0
 20
260.0
 30
0.0
 11
957.755556303
 21
258.058857162
 31
0.0
  0
LINE
  5
13D
100
AcDbEntity
  8
0
  6
CONTINUOUS
 62
     2
100
AcDbLine
 10
965.0
 20
380.0
 30
0.0
 11
965.0
 21
255.0
 31
0.0
  0
TEXT
  5
13E
100
AcDbEntity
  8
0
  6
CONTINUOUS
 62
     2
100
AcDbText
 10
644.75
 20
265.0
 30
0.0
 40
15.0
  1
６００
 41
0.9
  7
KANJI0
100
AcDbText
  0
LINE
  5
13F
100
AcDbEntity
  8
0
  6
CONTINUOUS
 62
     1
100
AcDbLine
 10
965.0
 20
400.0
 30
0.0
 11
965.0
 21
430.0
 31
0.0
  0
LINE
  5
140
100
AcDbEntity
  8
0
  6
CONTINUOUS
 62
     1
100
AcDbLine
 10
365.0
 20
400.0
 30
0.0
 11
965.0
 21
400.0
 31
0.0
  0
LINE
  5
141
100
AcDbEntity
  8
0
  6
CONTINUOUS
 62
     1
100
AcDbLine
 10
965.0
 20
430.0
 30
0.0
 11
365.0
 21
430.0
 31
0.0
  0
LINE
  5
142
100
AcDbEntity
  8
0
  6
CONTINUOUS
 62
     1
100
AcDbLine
 10
905.0
 20
430.0
 30
0.0
 11
905.0
 21
1030.0
 31
0.0
  0
LINE
  5
143
100
AcDbEntity
  8
0
  6
CONTINUOUS
 62
     1
100
AcDbLine
 10
755.0
 20
1030.0
 30
0.0
 11
755.0
 21
430.0
 31
0.0
  0
LINE
  5
144
100
AcDbEntity
  8
0
  6
CONTINUOUS
 62
     1
100
AcDbLine
 10
365.0
 20
430.0
 30
0.0
 11
365.0
 21
400.0
 31
0.0
  0
LWPOLYLINE
  5
146
100
AcDbEntity
  8
0
  6
CONTINUOUS
 62
     1
100
AcDbPolyline
 90
     3
 70
   128
 43
0.0
 10
955.0
 20
1030.0
 10
415.0
 20
1030.0
 10
373.038838649
 20
1038.39223227
  0
LINE
  5
147
100
AcDbEntity
  8
0
  6
CONTINUOUS
 62
     1
100
AcDbLine
 10
365.0
 20
1048.198039027
 30
0.0
 11
365.0
 21
1072.6
 31
0.0
  0
ARC
  5
148
100
AcDbEntity
  8
0
  6
CONTINUOUS
 62
     1
100
AcDbCircle
 10
375.0
 20
1048.198039027
 30
0.0
 40
10.0
100
AcDbArc
 50
180.0
 51
258.690067526
  0
LINE
  5
149
100
AcDbEntity
  8
0
  6
CONTINUOUS
 62
     1
100
AcDbLine
 10
965.0
 20
1072.6
 30
0.0
 11
365.0
 21
1072.6
 31
0.0
  0
ARC
  5
14A
100
AcDbEntity
  8
0
  6
CONTINUOUS
 62
     1
100
AcDbCircle
 10
955.0
 20
1040.0
 30
0.0
 40
10.0
100
AcDbArc
 50
270.0
 51
0.0
  0
LINE
  5
14B
100
AcDbEntity
  8
0
  6
CONTINUOUS
 62
     1
100
AcDbLine
 10
965.0
 20
1072.6
 30
0.0
 11
965.0
 21
1040.0
 31
0.0
  0
LWPOLYLINE
  5
14D
100
AcDbEntity
  8
0
  6
CONTINUOUS
 62
     1
100
AcDbPolyline
 90
     4
 70
   128
 43
0.0
 10
365.0
 20
1230.0
 10
965.0
 20
1230.0
 10
965.0
 20
1290.0
 10
365.0
 20
1290.0
  0
LINE
  5
14E
100
AcDbEntity
  8
0
  6
CONTINUOUS
 62
     1
100
AcDbLine
 10
892.5
 20
1290.0
 30
0.0
 11
892.5
 21
1537.5
 31
0.0
  0
LINE
  5
14F
100
AcDbEntity
  8
0
  6
CONTINUOUS
 62
     1
100
AcDbLine
 10
867.5
 20
1537.5
 30
0.0
 11
867.5
 21
1290.0
 31
0.0
  0
LINE
  5
150
100
AcDbEntity
  8
0
  6
CONTINUOUS
 62
     1
100
AcDbLine
 10
767.5
 20
1537.5
 30
0.0
 11
767.5
 21
1290.0
 31
0.0
  0
LINE
  5
151
100
AcDbEntity
  8
0
  6
CONTINUOUS
 62
     1
100
AcDbLine
 10
792.5
 20
1290.0
 30
0.0
 11
792.5
 21
1537.5
 31
0.0
  0
LINE
  5
152
100
AcDbEntity
  8
0
  6
CONTINUOUS
 62
     1
100
AcDbLine
 10
365.0
 20
1290.0
 30
0.0
 11
365.0
 21
1230.0
 31
0.0
  0
LINE
  5
153
100
AcDbEntity
  8
0
  6
CONTINUOUS
 62
     1
100
AcDbLine
 10
867.5
 20
1535.0
 30
0.0
 11
867.5
 21
1775.0
 31
0.0
  0
LINE
  5
154
100
AcDbEntity
  8
0
  6
CONTINUOUS
 62
     1
100
AcDbLine
 10
892.5
 20
1775.0
 30
0.0
 11
885.0
 21
1775.0
 31
0.0
  0
LINE
  5
155
100
AcDbEntity
  8
0
  6
CONTINUOUS
 62
     1
100
AcDbLine
 10
892.5
 20
1775.0
 30
0.0
 11
892.5
 21
1535.0
 31
0.0
  0
LINE
  5
156
100
AcDbEntity
  8
0
  6
CONTINUOUS
 62
     1
100
AcDbLine
 10
890.9
 20
1775.0
 30
0.0
 11
867.5
 21
1775.0
 31
0.0
  0
LINE
  5
157
100
AcDbEntity
  8
0
  6
CONTINUOUS
 62
     1
100
AcDbLine
 10
767.5
 20
1535.0
 30
0.0
 11
767.5
 21
1775.0
 31
0.0
  0
LINE
  5
158
100
AcDbEntity
  8
0
  6
CONTINUOUS
 62
     1
100
AcDbLine
 10
792.5
 20
1775.0
 30
0.0
 11
785.0
 21
1775.0
 31
0.0
  0
LINE
  5
159
100
AcDbEntity
  8
0
  6
CONTINUOUS
 62
     1
100
AcDbLine
 10
792.5
 20
1775.0
 30
0.0
 11
792.5
 21
1535.0
 31
0.0
  0
LWPOLYLINE
  5
15B
100
AcDbEntity
  8
0
  6
LTYPE1
 62
     2
100
AcDbPolyline
 90
     4
 70
   129
 43
0.0
 10
965.0
 20
1782.6
 10
965.0
 20
1782.6
 10
965.0
 20
1782.6
 10
965.0
 20
1782.6
  0
LINE
  5
15C
100
AcDbEntity
  8
0
  6
LTYPE2
 62
     2
100
AcDbLine
 10
975.0
 20
1810.0
 30
0.0
 11
355.0
 21
1810.0
 31
0.0
  0
LINE
  5
15D
100
AcDbEntity
  8
0
  6
CONTINUOUS
 62
     2
100
AcDbLine
 10
395.0
 20
1815.0
 30
0.0
 11
395.0
 21
1805.0
 31
0.0
  0
LINE
  5
15E
100
AcDbEntity
  8
0
  6
CONTINUOUS
 62
     2
100
AcDbLine
 10
445.0
 20
1800.0
 30
0.0
 11
445.0
 21
1820.0
 31
0.0
  0
LINE
  5
15F
100
AcDbEntity
  8
0
  6
CONTINUOUS
 62
     2
100
AcDbLine
 10
935.0
 20
1815.0
 30
0.0
 11
935.0
 21
1805.0
 31
0.0
  0
LINE
  5
160
100
AcDbEntity
  8
0
  6
CONTINUOUS
 62
     2
100
AcDbLine
 10
665.0
 20
1800.0
 30
0.0
 11
665.0
 21
1820.0
 31
0.0
  0
LINE
  5
161
100
AcDbEntity
  8
0
  6
CONTINUOUS
 62
     2
100
AcDbLine
 10
885.0
 20
1800.0
 30
0.0
 11
885.0
 21
1820.0
 31
0.0
  0
LINE
  5
162
100
AcDbEntity
  8
0
  6
CONTINUOUS
 62
     2
100
AcDbLine
 10
975.0
 20
1840.0
 30
0.0
 11
1080.0
 21
1840.0
 31
0.0
  0
LINE
  5
163
100
AcDbEntity
  8
0
  6
CONTINUOUS
 62
     2
100
AcDbLine
 10
1075.0
 20
1840.0
 30
0.0
 11
1073.058857162
 21
1832.755556303
 31
0.0
  0
LINE
  5
164
100
AcDbEntity
  8
0
  6
CONTINUOUS
 62
     2
100
AcDbLine
 10
1075.0
 20
1840.0
 30
0.0
 11
1076.941142838
 21
1832.755556303
 31
0.0
  0
LWPOLYLINE
  5
166
100
AcDbEntity
  8
0
  6
CONTINUOUS
 62
     2
100
AcDbPolyline
 90
     3
 70
   128
 43
0.0
 10
1075.0
 20
1840.0
 10
1075.0
 20
1780.0
 10
1076.941142838
 20
1787.244443697
  0
LINE
  5
167
100
AcDbEntity
  8
0
  6
CONTINUOUS
 62
     2
100
AcDbLine
 10
1075.0
 20
1780.0
 30
0.0
 11
1073.058857162
 21
1787.244443697
 31
0.0
  0
LINE
  5
168
100
AcDbEntity
  8
0
  6
CONTINUOUS
 62
     2
100
AcDbLine
 10
975.0
 20
1780.0
 30
0.0
 11
1080.0
 21
1780.0
 31
0.0
  0
TEXT
  5
169
100
AcDbEntity
  8
0
  6
CONTINUOUS
 62
     2
100
AcDbText
 10
1070.0
 20
1796.5
 30
0.0
 40
15.0
  1
６０
 50
90.0
 41
0.9
  7
KANJI0
100
AcDbText
  0
CIRCLE
  5
16A
100
AcDbEntity
  8
0
  6
CONTINUOUS
 62
     2
100
AcDbCircle
 10
950.0
 20
1796.0
 30
0.0
 40
12.5
  0
CIRCLE
  5
16B
100
AcDbEntity
  8
0
  6
CONTINUOUS
 62
     2
100
AcDbCircle
 10
950.0
 20
1824.0
 30
0.0
 40
12.5
  0
CIRCLE
  5
16C
100
AcDbEntity
  8
0
  6
CONTINUOUS
 62
     2
100
AcDbCircle
 10
380.0
 20
1824.0
 30
0.0
 40
12.5
  0
CIRCLE
  5
16D
100
AcDbEntity
  8
0
  6
CONTINUOUS
 62
     2
100
AcDbCircle
 10
380.0
 20
1796.0
 30
0.0
 40
12.5
  0
LWPOLYLINE
  5
16F
100
AcDbEntity
  8
0
  6
CONTINUOUS
 62
     2
100
AcDbPolyline
 90
     3
 70
   128
 43
0.0
 10
874.5
 20
1779.4
 10
885.5
 20
1779.4
 10
885.5
 20
1780.0
  0
LINE
  5
170
100
AcDbEntity
  8
0
  6
CONTINUOUS
 62
     2
100
AcDbLine
 10
874.5
 20
1780.0
 30
0.0
 11
874.5
 21
1779.4
 31
0.0
  0
LWPOLYLINE
  5
172
100
AcDbEntity
  8
0
  6
CONTINUOUS
 62
     2
100
AcDbPolyline
 90
     3
 70
   128
 43
0.0
 10
774.5
 20
1779.4
 10
785.5
 20
1779.4
 10
785.5
 20
1780.0
  0
LINE
  5
173
100
AcDbEntity
  8
0
  6
CONTINUOUS
 62
     2
100
AcDbLine
 10
774.5
 20
1780.0
 30
0.0
 11
774.5
 21
1779.4
 31
0.0
  0
CIRCLE
  5
174
100
AcDbEntity
  8
0
  6
CONTINUOUS
 62
     2
100
AcDbCircle
 10
885.0
 20
1810.0
 30
0.0
 40
3.5
  0
CIRCLE
  5
175
100
AcDbEntity
  8
0
  6
CONTINUOUS
 62
     2
100
AcDbCircle
 10
885.0
 20
1810.0
 30
0.0
 40
6.0
  0
CIRCLE
  5
176
100
AcDbEntity
  8
0
  6
CONTINUOUS
 62
     2
100
AcDbCircle
 10
935.0
 20
1810.0
 30
0.0
 40
3.5
  0
CIRCLE
  5
177
100
AcDbEntity
  8
0
  6
CONTINUOUS
 62
     2
100
AcDbCircle
 10
445.0
 20
1810.0
 30
0.0
 40
6.0
  0
CIRCLE
  5
178
100
AcDbEntity
  8
0
  6
CONTINUOUS
 62
     2
100
AcDbCircle
 10
445.0
 20
1810.0
 30
0.0
 40
3.5
  0
CIRCLE
  5
179
100
AcDbEntity
  8
0
  6
CONTINUOUS
 62
     2
100
AcDbCircle
 10
395.0
 20
1810.0
 30
0.0
 40
3.5
  0
CIRCLE
  5
17A
100
AcDbEntity
  8
0
  6
CONTINUOUS
 62
     2
100
AcDbCircle
 10
665.0
 20
1810.0
 30
0.0
 40
6.0
  0
CIRCLE
  5
17B
100
AcDbEntity
  8
0
  6
CONTINUOUS
 62
     2
100
AcDbCircle
 10
665.0
 20
1810.0
 30
0.0
 40
3.5
  0
LINE
  5
17C
100
AcDbEntity
  8
0
  6
CONTINUOUS
 62
     2
100
AcDbLine
 10
875.0
 20
1779.4
 30
0.0
 11
875.0
 21
1773.9
 31
0.0
  0
LINE
  5
17D
100
AcDbEntity
  8
0
  6
CONTINUOUS
 62
     2
100
AcDbLine
 10
885.0
 20
1773.9
 30
0.0
 11
885.0
 21
1779.4
 31
0.0
  0
LINE
  5
17E
100
AcDbEntity
  8
0
  6
CONTINUOUS
 62
     2
100
AcDbLine
 10
880.0
 20
1775.6
 30
0.0
 11
880.0
 21
1793.0
 31
0.0
  0
LWPOLYLINE
  5
180
100
AcDbEntity
  8
0
  6
CONTINUOUS
 62
     2
100
AcDbPolyline
 90
     4
 70
   129
 43
0.0
 10
875.5
 20
1773.4
 10
884.5
 20
1773.4
 10
885.0
 20
1773.9
 10
875.0
 20
1773.9
  0
LINE
  5
181
100
AcDbEntity
  8
0
  6
CONTINUOUS
 62
     2
100
AcDbLine
 10
775.0
 20
1779.4
 30
0.0
 11
775.0
 21
1773.9
 31
0.0
  0
LINE
  5
182
100
AcDbEntity
  8
0
  6
CONTINUOUS
 62
     2
100
AcDbLine
 10
785.0
 20
1773.9
 30
0.0
 11
785.0
 21
1779.4
 31
0.0
  0
LINE
  5
183
100
AcDbEntity
  8
0
  6
CONTINUOUS
 62
     2
100
AcDbLine
 10
780.0
 20
1775.6
 30
0.0
 11
780.0
 21
1793.0
 31
0.0
  0
LWPOLYLINE
  5
185
100
AcDbEntity
  8
0
  6
CONTINUOUS
 62
     2
100
AcDbPolyline
 90
     4
 70
   129
 43
0.0
 10
775.5
 20
1773.4
 10
784.5
 20
1773.4
 10
785.0
 20
1773.9
 10
775.0
 20
1773.9
  0
LWPOLYLINE
  5
187
100
AcDbEntity
  8
0
  6
CONTINUOUS
 62
     1
100
AcDbPolyline
 90
     4
 70
   129
 43
0.0
 10
965.0
 20
1780.0
 10
365.0
 20
1780.0
 10
365.0
 20
1840.0
 10
965.0
 20
1840.0
  0
LINE
  5
188
100
AcDbEntity
  8
0
  6
CONTINUOUS
 62
     1
100
AcDbLine
 10
775.0
 20
1775.0
 30
0.0
 11
767.5
 21
1775.0
 31
0.0
  0
LINE
  5
189
100
AcDbEntity
  8
0
  6
CONTINUOUS
 62
     1
100
AcDbLine
 10
790.9
 20
1775.0
 30
0.0
 11
785.0
 21
1775.0
 31
0.0
  0
LINE
  5
18A
100
AcDbEntity
  8
0
  6
CONTINUOUS
 62
     1
100
AcDbLine
 10
769.1
 20
1780.0
 30
0.0
 11
769.1
 21
1775.0
 31
0.0
  0
LINE
  5
18B
100
AcDbEntity
  8
0
  6
CONTINUOUS
 62
     1
100
AcDbLine
 10
790.9
 20
1780.0
 30
0.0
 11
790.9
 21
1775.0
 31
0.0
  0
LINE
  5
18C
100
AcDbEntity
  8
0
  6
CONTINUOUS
 62
     1
100
AcDbLine
 10
869.1
 20
1780.0
 30
0.0
 11
869.1
 21
1775.0
 31
0.0
  0
LINE
  5
18D
100
AcDbEntity
  8
0
  6
CONTINUOUS
 62
     1
100
AcDbLine
 10
890.9
 20
1780.0
 30
0.0
 11
890.9
 21
1775.0
 31
0.0
  0
LINE
  5
18E
100
AcDbEntity
  8
0
  6
CONTINUOUS
 62
     2
100
AcDbLine
 10
1075.0
 20
1840.0
 30
0.0
 11
1150.0
 21
1840.0
 31
0.0
  0
LINE
  5
18F
100
AcDbEntity
  8
0
  6
CONTINUOUS
 62
     2
100
AcDbLine
 10
1145.0
 20
1840.0
 30
0.0
 11
1143.058857162
 21
1832.755556303
 31
0.0
  0
LINE
  5
190
100
AcDbEntity
  8
0
  6
CONTINUOUS
 62
     2
100
AcDbLine
 10
1145.0
 20
1840.0
 30
0.0
 11
1146.941142838
 21
1832.755556303
 31
0.0
  0
LWPOLYLINE
  5
192
100
AcDbEntity
  8
0
  6
CONTINUOUS
 62
     2
100
AcDbPolyline
 90
     3
 70
   128
 43
0.0
 10
1145.0
 20
1840.0
 10
1145.0
 20
1230.0
 10
1146.941142838
 20
1237.244443697
  0
LINE
  5
193
100
AcDbEntity
  8
0
  6
CONTINUOUS
 62
     2
100
AcDbLine
 10
1145.0
 20
1230.0
 30
0.0
 11
1143.058857162
 21
1237.244443697
 31
0.0
  0
LINE
  5
194
100
AcDbEntity
  8
0
  6
CONTINUOUS
 62
     2
100
AcDbLine
 10
1075.0
 20
1230.0
 30
0.0
 11
1150.0
 21
1230.0
 31
0.0
  0
TEXT
  5
195
100
AcDbEntity
  8
0
  6
CONTINUOUS
 62
     2
100
AcDbText
 10
1140.0
 20
1485.0
 30
0.0
 40
15.0
  1
６１０～１，０００
 50
90.0
 41
0.9
  7
KANJI3
100
AcDbText
  0
LINE
  5
197
100
AcDbEntity
  8
0
  6
CONTINUOUS
 62
     2
100
AcDbLine
 10
365.0
 20
1770.0
 30
0.0
 11
365.0
 21
1645.0
 31
0.0
  0
LINE
  5
198
100
AcDbEntity
  8
0
  6
CONTINUOUS
 62
     2
100
AcDbLine
 10
365.0
 20
1650.0
 30
0.0
 11
372.244443697
 21
1648.058857162
 31
0.0
  0
LINE
  5
199
100
AcDbEntity
  8
0
  6
CONTINUOUS
 62
     2
100
AcDbLine
 10
365.0
 20
1650.0
 30
0.0
 11
372.244443697
 21
1651.941142838
 31
0.0
  0
LWPOLYLINE
  5
19B
100
AcDbEntity
  8
0
  6
CONTINUOUS
 62
     2
100
AcDbPolyline
 90
     3
 70
   128
 43
0.0
 10
365.0
 20
1650.0
 10
767.5
 20
1650.0
 10
760.255556303
 20
1651.941142838
  0
LINE
  5
19C
100
AcDbEntity
  8
0
  6
CONTINUOUS
 62
     2
100
AcDbLine
 10
767.5
 20
1650.0
 30
0.0
 11
760.255556303
 21
1648.058857162
 31
0.0
  0
LINE
  5
19D
100
AcDbEntity
  8
0
  6
CONTINUOUS
 62
     2
100
AcDbLine
 10
767.5
 20
1645.0
 30
0.0
 11
767.5
 21
1655.0
 31
0.0
  0
TEXT
  5
19E
100
AcDbEntity
  8
0
  6
CONTINUOUS
 62
     2
100
AcDbText
 10
546.0
 20
1655.0
 30
0.0
 40
15.0
  1
４０２
 41
0.9
  7
KANJI0
100
AcDbText
  0
LINE
  5
19F
100
AcDbEntity
  8
0
  6
CONTINUOUS
 62
     2
100
AcDbLine
 10
365.0
 20
1650.0
 30
0.0
 11
365.0
 21
1605.0
 31
0.0
  0
LINE
  5
1A0
100
AcDbEntity
  8
0
  6
CONTINUOUS
 62
     2
100
AcDbLine
 10
365.0
 20
1610.0
 30
0.0
 11
372.244443697
 21
1608.058857162
 31
0.0
  0
LINE
  5
1A1
100
AcDbEntity
  8
0
  6
CONTINUOUS
 62
     2
100
AcDbLine
 10
365.0
 20
1610.0
 30
0.0
 11
372.244443697
 21
1611.941142838
 31
0.0
  0
LWPOLYLINE
  5
1A3
100
AcDbEntity
  8
0
  6
CONTINUOUS
 62
     2
100
AcDbPolyline
 90
     3
 70
   128
 43
0.0
 10
365.0
 20
1610.0
 10
867.0
 20
1610.0
 10
859.755556303
 20
1611.941142838
  0
LINE
  5
1A4
100
AcDbEntity
  8
0
  6
CONTINUOUS
 62
     2
100
AcDbLine
 10
867.0
 20
1610.0
 30
0.0
 11
859.755556303
 21
1608.058857162
 31
0.0
  0
LINE
  5
1A5
100
AcDbEntity
  8
0
  6
CONTINUOUS
 62
     2
100
AcDbLine
 10
867.0
 20
1610.0
 30
0.0
 11
867.0
 21
1605.0
 31
0.0
  0
TEXT
  5
1A6
100
AcDbEntity
  8
0
  6
CONTINUOUS
 62
     2
100
AcDbText
 10
595.75
 20
1615.0
 30
0.0
 40
15.0
  1
５０２
 41
0.9
  7
KANJI0
100
AcDbText
  0
LINE
  5
1A7
100
AcDbEntity
  8
0
  6
CONTINUOUS
 62
     2
100
AcDbLine
 10
755.0
 20
550.0
 30
0.0
 11
747.755556303
 21
551.941142838
 31
0.0
  0
LINE
  5
1A8
100
AcDbEntity
  8
0
  6
CONTINUOUS
 62
     2
100
AcDbLine
 10
755.0
 20
550.0
 30
0.0
 11
747.755556303
 21
548.058857162
 31
0.0
  0
LWPOLYLINE
  5
1AA
100
AcDbEntity
  8
0
  6
CONTINUOUS
 62
     2
100
AcDbPolyline
 90
     3
 70
   128
 43
0.0
 10
755.0
 20
550.0
 10
365.0
 20
550.0
 10
372.244443697
 20
548.058857162
  0
LINE
  5
1AB
100
AcDbEntity
  8
0
  6
CONTINUOUS
 62
     2
100
AcDbLine
 10
365.0
 20
550.0
 30
0.0
 11
372.244443697
 21
551.941142838
 31
0.0
  0
LINE
  5
1AC
100
AcDbEntity
  8
0
  6
CONTINUOUS
 62
     2
100
AcDbLine
 10
365.0
 20
460.0
 30
0.0
 11
365.0
 21
555.0
 31
0.0
  0
TEXT
  5
1AD
100
AcDbEntity
  8
0
  6
CONTINUOUS
 62
     2
100
AcDbText
 10
539.75
 20
555.0
 30
0.0
 40
15.0
  1
３９０
 41
0.9
  7
KANJI0
100
AcDbText
  0
TEXT
  5
1AE
100
AcDbEntity
  8
0
  6
CONTINUOUS
 62
     2
100
AcDbText
 10
205.0
 20
1860.0
 30
0.0
 40
20.0
  1
平面図（上から見る）
 41
0.9
  7
KANJI4
100
AcDbText
  0
TEXT
  5
1B0
100
AcDbEntity
  8
0
  6
CONTINUOUS
 62
     2
100
AcDbText
 10
155.0
 20
1110.0
 30
0.0
 40
20.0
  1
側面図（横から見る）
 41
0.9
  7
KANJI4
100
AcDbText
  0
LWPOLYLINE
  5
1B3
100
AcDbEntity
  8
0
  6
LTYPE3
 62
     2
100
AcDbPolyline
 90
     8
 70
   129
 43
0.0
 10
900.0
 20
921.0
 42
-0.414213562
 10
894.0
 20
915.0
 42
0.0
 10
866.0
 20
915.0
 42
-0.414213562
 10
860.0
 20
921.0
 42
0.0
 10
860.0
 20
1019.0
 42
-0.414213562
 10
866.0
 20
1025.0
 42
0.0
 10
894.0
 20
1025.0
 42
-0.414213562
 10
900.0
 20
1019.0
 42
0.0
  0
CIRCLE
  5
1B7
100
AcDbEntity
  8
0
  6
CONTINUOUS
 62
     2
100
AcDbCircle
 10
880.0
 20
925.0
 30
0.0
 40
3.0
  0
CIRCLE
  5
1B8
100
AcDbEntity
  8
0
  6
CONTINUOUS
 62
     2
100
AcDbCircle
 10
880.0
 20
1015.0
 30
0.0
 40
3.0
  0
LINE
  5
1B9
100
AcDbEntity
  8
0
  6
LTYPE3
 62
     2
100
AcDbLine
 10
794.0
 20
445.0
 30
0.0
 11
766.0
 21
445.0
 31
0.0
  0
CIRCLE
  5
1BA
100
AcDbEntity
  8
0
  6
CONTINUOUS
 62
     2
100
AcDbCircle
 10
780.0
 20
455.0
 30
0.0
 40
3.0
  0
LINE
  5
1BB
100
AcDbEntity
  8
0
  6
CONTINUOUS
 62
     2
100
AcDbLine
 10
785.0
 20
455.0
 30
0.0
 11
775.0
 21
455.0
 31
0.0
  0
LINE
  5
1BC
100
AcDbEntity
  8
0
  6
CONTINUOUS
 62
     2
100
AcDbLine
 10
780.0
 20
450.0
 30
0.0
 11
780.0
 21
460.0
 31
0.0
  0
LWPOLYLINE
  5
1BE
100
AcDbEntity
  8
0
  6
LTYPE3
 62
     2
100
AcDbPolyline
 90
     3
 70
   128
 43
0.0
 10
766.0
 20
445.0
 42
-0.414213562
 10
760.0
 20
451.0
 42
0.0
 10
760.0
 20
549.0
 42
0.0
  0
ARC
  5
1BF
100
AcDbEntity
  8
0
  6
LTYPE3
 62
     2
100
AcDbCircle
 10
794.0
 20
451.0
 30
0.0
 40
6.0
100
AcDbArc
 50
270.0
 51
0.0
  0
LINE
  5
1C0
100
AcDbEntity
  8
0
  6
LTYPE3
 62
     2
100
AcDbLine
 10
800.0
 20
549.0
 30
0.0
 11
800.0
 21
451.0
 31
0.0
  0
LWPOLYLINE
  5
1C2
100
AcDbEntity
  8
0
  6
LTYPE3
 62
     2
100
AcDbPolyline
 90
     4
 70
   128
 43
0.0
 10
760.0
 20
549.0
 42
-0.414213562
 10
766.0
 20
555.0
 42
0.0
 10
794.0
 20
555.0
 42
-0.414213562
 10
800.0
 20
549.0
 42
0.0
  0
CIRCLE
  5
1C4
100
AcDbEntity
  8
0
  6
CONTINUOUS
 62
     2
100
AcDbCircle
 10
780.0
 20
545.0
 30
0.0
 40
3.0
  0
LINE
  5
1C5
100
AcDbEntity
  8
0
  6
CONTINUOUS
 62
     2
100
AcDbLine
 10
780.0
 20
540.0
 30
0.0
 11
780.0
 21
550.0
 31
0.0
  0
LINE
  5
1C6
100
AcDbEntity
  8
0
  6
CONTINUOUS
 62
     2
100
AcDbLine
 10
775.0
 20
545.0
 30
0.0
 11
785.0
 21
545.0
 31
0.0
  0
LWPOLYLINE
  5
1C8
100
AcDbEntity
  8
0
  6
LTYPE1
 62
     2
100
AcDbPolyline
 90
     4
 70
   129
 43
0.0
 10
792.5
 20
465.0
 10
767.5
 20
465.0
 10
767.5
 20
535.0
 10
792.5
 20
535.0
  0
LWPOLYLINE
  5
1CA
100
AcDbEntity
  8
0
  6
LTYPE1
 62
     2
100
AcDbPolyline
 90
     4
 70
   129
 43
0.0
 10
892.5
 20
935.0
 10
867.5
 20
935.0
 10
867.5
 20
1005.0
 10
892.5
 20
1005.0
  0
TEXT
  5
1CB
100
AcDbEntity
  8
0
  6
CONTINUOUS
 62
     2
100
AcDbText
 10
832.75
 20
75.0
 30
0.0
 40
50.0
  1
用紙　Ａ４　　縮尺１／７
 41
0.94
  7
KANJI5
100
AcDbText
  0
ENDSEC
  0
SECTION
  2
OBJECTS
  0
DICTIONARY
  5
C
100
AcDbDictionary
  3
ACAD_GROUP
350
D
  3
ACAD_MLINESTYLE
350
17
  0
DICTIONARY
  5
D
102
{ACAD_REACTORS
330
C
102
}
100
AcDbDictionary
  0
DICTIONARY
  5
17
102
{ACAD_REACTORS
330
C
102
}
100
AcDbDictionary
  3
Standard
350
18
  0
MLINESTYLE
  5
18
102
{ACAD_REACTORS
330
17
102
}
100
AcDbMlineStyle
  2
STANDARD
 70
     0
  3

 62
   256
 51
90.0
 52
90.0
 71
     2
 49
0.5
 62
   256
  6
ByLayer
 49
-0.5
 62
   256
  6
ByLayer
  0
DICTIONARY
  5
19
102
{ACAD_REACTORS
330
C
102
}
100
AcDbDictionary
  0
DICTIONARY
  5
1A
102
{ACAD_REACTORS
330
C
102
}
100
AcDbDictionary
  3
Model
350
22
  3
ﾚｲｱｳﾄ1
350
1E
  3
ﾚｲｱｳﾄ2
350
26
  0
ENDSEC
  0
EOF
