  0
SECTION
  2
HEADER
  9
$EXTMIN
 10
0.0
 20
0.0
 30
0.0
  9
$EXTMAX
 10
1260.0
 20
1782.0
 30
0.0
  9
$LIMMIN
 10
0.0
 20
0.0
  9
$LIMMAX
 10
1260.0
 20
1782.0
  9
$LTSCALE
 40
1.0
  9
$PDMODE
 70
     0
  0
ENDSEC
  0
SECTION
  2
TABLES
  0
TABLE
  2
LTYPE
 70
     3
  0
LTYPE
  2
CONTINUOUS
 70
    64
  3
Solid line
 72
    65
 73
     0
 40
0.0
  0
LTYPE
  2
LTYPE1
 70
    64
  3
HIDDEN
 72
    65
 73
     2
 40
108.0
 49
64.8
 49
-43.2
  0
LTYPE
  2
LTYPE2
 70
    64
  3
CENTER
 72
    65
 73
     4
 40
540.0
 49
378.0
 49
-54.0
 49
54.0
 49
-54.0
  0
ENDTAB
  0
TABLE
  2
LAYER
 70
   128
  0
LAYER
  2
0
 70
     0
 62
     7
  6
CONTINUOUS
  0
LAYER
  2
1
 70
     0
 62
     7
  6
CONTINUOUS
  0
LAYER
  2
2
 70
     0
 62
     7
  6
CONTINUOUS
  0
LAYER
  2
3
 70
     0
 62
     7
  6
CONTINUOUS
  0
LAYER
  2
4
 70
     0
 62
     7
  6
CONTINUOUS
  0
LAYER
  2
5
 70
     0
 62
     7
  6
CONTINUOUS
  0
LAYER
  2
6
 70
     0
 62
     7
  6
CONTINUOUS
  0
LAYER
  2
7
 70
     0
 62
     7
  6
CONTINUOUS
  0
LAYER
  2
8
 70
     0
 62
     7
  6
CONTINUOUS
  0
LAYER
  2
9
 70
     0
 62
     7
  6
CONTINUOUS
  0
LAYER
  2
10
 70
     0
 62
     7
  6
CONTINUOUS
  0
LAYER
  2
11
 70
     0
 62
     7
  6
CONTINUOUS
  0
LAYER
  2
12
 70
     0
 62
     7
  6
CONTINUOUS
  0
LAYER
  2
13
 70
     0
 62
     7
  6
CONTINUOUS
  0
LAYER
  2
14
 70
     0
 62
     7
  6
CONTINUOUS
  0
LAYER
  2
15
 70
     0
 62
     7
  6
CONTINUOUS
  0
LAYER
  2
16
 70
     0
 62
     7
  6
CONTINUOUS
  0
LAYER
  2
17
 70
     0
 62
     7
  6
CONTINUOUS
  0
LAYER
  2
18
 70
     0
 62
     7
  6
CONTINUOUS
  0
LAYER
  2
19
 70
     0
 62
     7
  6
CONTINUOUS
  0
LAYER
  2
20
 70
     0
 62
     7
  6
CONTINUOUS
  0
LAYER
  2
21
 70
     0
 62
     7
  6
CONTINUOUS
  0
LAYER
  2
22
 70
     0
 62
     7
  6
CONTINUOUS
  0
LAYER
  2
23
 70
     0
 62
     7
  6
CONTINUOUS
  0
LAYER
  2
24
 70
     0
 62
     7
  6
CONTINUOUS
  0
LAYER
  2
25
 70
     0
 62
     7
  6
CONTINUOUS
  0
LAYER
  2
26
 70
     0
 62
     7
  6
CONTINUOUS
  0
LAYER
  2
27
 70
     0
 62
     7
  6
CONTINUOUS
  0
LAYER
  2
28
 70
     0
 62
     7
  6
CONTINUOUS
  0
LAYER
  2
29
 70
     0
 62
     7
  6
CONTINUOUS
  0
LAYER
  2
30
 70
     0
 62
     7
  6
CONTINUOUS
  0
LAYER
  2
31
 70
     0
 62
     7
  6
CONTINUOUS
  0
LAYER
  2
32
 70
     0
 62
     7
  6
CONTINUOUS
  0
LAYER
  2
33
 70
     0
 62
     7
  6
CONTINUOUS
  0
LAYER
  2
34
 70
     0
 62
     7
  6
CONTINUOUS
  0
LAYER
  2
35
 70
     0
 62
     7
  6
CONTINUOUS
  0
LAYER
  2
36
 70
     0
 62
     7
  6
CONTINUOUS
  0
LAYER
  2
37
 70
     0
 62
     7
  6
CONTINUOUS
  0
LAYER
  2
38
 70
     0
 62
     7
  6
CONTINUOUS
  0
LAYER
  2
39
 70
     0
 62
     7
  6
CONTINUOUS
  0
LAYER
  2
40
 70
     0
 62
     7
  6
CONTINUOUS
  0
LAYER
  2
41
 70
     0
 62
     7
  6
CONTINUOUS
  0
LAYER
  2
42
 70
     0
 62
     7
  6
CONTINUOUS
  0
LAYER
  2
43
 70
     0
 62
     7
  6
CONTINUOUS
  0
LAYER
  2
44
 70
     0
 62
     7
  6
CONTINUOUS
  0
LAYER
  2
45
 70
     0
 62
     7
  6
CONTINUOUS
  0
LAYER
  2
46
 70
     0
 62
     7
  6
CONTINUOUS
  0
LAYER
  2
47
 70
     0
 62
     7
  6
CONTINUOUS
  0
LAYER
  2
48
 70
     0
 62
     7
  6
CONTINUOUS
  0
LAYER
  2
49
 70
     0
 62
     7
  6
CONTINUOUS
  0
LAYER
  2
50
 70
     0
 62
     7
  6
CONTINUOUS
  0
LAYER
  2
51
 70
     0
 62
     7
  6
CONTINUOUS
  0
LAYER
  2
52
 70
     0
 62
     7
  6
CONTINUOUS
  0
LAYER
  2
53
 70
     0
 62
     7
  6
CONTINUOUS
  0
LAYER
  2
54
 70
     0
 62
     7
  6
CONTINUOUS
  0
LAYER
  2
55
 70
     0
 62
     7
  6
CONTINUOUS
  0
LAYER
  2
56
 70
     0
 62
     7
  6
CONTINUOUS
  0
LAYER
  2
57
 70
     0
 62
     7
  6
CONTINUOUS
  0
LAYER
  2
58
 70
     0
 62
     7
  6
CONTINUOUS
  0
LAYER
  2
59
 70
     0
 62
     7
  6
CONTINUOUS
  0
LAYER
  2
60
 70
     0
 62
     7
  6
CONTINUOUS
  0
LAYER
  2
61
 70
     0
 62
     7
  6
CONTINUOUS
  0
LAYER
  2
62
 70
     0
 62
     7
  6
CONTINUOUS
  0
LAYER
  2
63
 70
     0
 62
     7
  6
CONTINUOUS
  0
LAYER
  2
64
 70
     0
 62
     7
  6
CONTINUOUS
  0
LAYER
  2
65
 70
     0
 62
     7
  6
CONTINUOUS
  0
LAYER
  2
66
 70
     0
 62
     7
  6
CONTINUOUS
  0
LAYER
  2
67
 70
     0
 62
     7
  6
CONTINUOUS
  0
LAYER
  2
68
 70
     0
 62
     7
  6
CONTINUOUS
  0
LAYER
  2
69
 70
     0
 62
     7
  6
CONTINUOUS
  0
LAYER
  2
70
 70
     0
 62
     7
  6
CONTINUOUS
  0
LAYER
  2
71
 70
     0
 62
     7
  6
CONTINUOUS
  0
LAYER
  2
72
 70
     0
 62
     7
  6
CONTINUOUS
  0
LAYER
  2
73
 70
     0
 62
     7
  6
CONTINUOUS
  0
LAYER
  2
74
 70
     0
 62
     7
  6
CONTINUOUS
  0
LAYER
  2
75
 70
     0
 62
     7
  6
CONTINUOUS
  0
LAYER
  2
76
 70
     0
 62
     7
  6
CONTINUOUS
  0
LAYER
  2
77
 70
     0
 62
     7
  6
CONTINUOUS
  0
LAYER
  2
78
 70
     0
 62
     7
  6
CONTINUOUS
  0
LAYER
  2
79
 70
     0
 62
     7
  6
CONTINUOUS
  0
LAYER
  2
80
 70
     0
 62
     7
  6
CONTINUOUS
  0
LAYER
  2
81
 70
     0
 62
     7
  6
CONTINUOUS
  0
LAYER
  2
82
 70
     0
 62
     7
  6
CONTINUOUS
  0
LAYER
  2
83
 70
     0
 62
     7
  6
CONTINUOUS
  0
LAYER
  2
84
 70
     0
 62
     7
  6
CONTINUOUS
  0
LAYER
  2
85
 70
     0
 62
     7
  6
CONTINUOUS
  0
LAYER
  2
86
 70
     0
 62
     7
  6
CONTINUOUS
  0
LAYER
  2
87
 70
     0
 62
     7
  6
CONTINUOUS
  0
LAYER
  2
88
 70
     0
 62
     7
  6
CONTINUOUS
  0
LAYER
  2
89
 70
     0
 62
     7
  6
CONTINUOUS
  0
LAYER
  2
90
 70
     0
 62
     7
  6
CONTINUOUS
  0
LAYER
  2
91
 70
     0
 62
     7
  6
CONTINUOUS
  0
LAYER
  2
92
 70
     0
 62
     7
  6
CONTINUOUS
  0
LAYER
  2
93
 70
     0
 62
     7
  6
CONTINUOUS
  0
LAYER
  2
94
 70
     0
 62
     7
  6
CONTINUOUS
  0
LAYER
  2
95
 70
     0
 62
     7
  6
CONTINUOUS
  0
LAYER
  2
96
 70
     0
 62
     7
  6
CONTINUOUS
  0
LAYER
  2
97
 70
     0
 62
     7
  6
CONTINUOUS
  0
LAYER
  2
98
 70
     0
 62
     7
  6
CONTINUOUS
  0
LAYER
  2
99
 70
     0
 62
     7
  6
CONTINUOUS
  0
LAYER
  2
100
 70
     0
 62
     7
  6
CONTINUOUS
  0
LAYER
  2
101
 70
     0
 62
     7
  6
CONTINUOUS
  0
LAYER
  2
102
 70
     0
 62
     7
  6
CONTINUOUS
  0
LAYER
  2
103
 70
     0
 62
     7
  6
CONTINUOUS
  0
LAYER
  2
104
 70
     0
 62
     7
  6
CONTINUOUS
  0
LAYER
  2
105
 70
     0
 62
     7
  6
CONTINUOUS
  0
LAYER
  2
106
 70
     0
 62
     7
  6
CONTINUOUS
  0
LAYER
  2
107
 70
     0
 62
     7
  6
CONTINUOUS
  0
LAYER
  2
108
 70
     0
 62
     7
  6
CONTINUOUS
  0
LAYER
  2
109
 70
     0
 62
     7
  6
CONTINUOUS
  0
LAYER
  2
110
 70
     0
 62
     7
  6
CONTINUOUS
  0
LAYER
  2
111
 70
     0
 62
     7
  6
CONTINUOUS
  0
LAYER
  2
112
 70
     0
 62
     7
  6
CONTINUOUS
  0
LAYER
  2
113
 70
     0
 62
     7
  6
CONTINUOUS
  0
LAYER
  2
114
 70
     0
 62
     7
  6
CONTINUOUS
  0
LAYER
  2
115
 70
     0
 62
     7
  6
CONTINUOUS
  0
LAYER
  2
116
 70
     0
 62
     7
  6
CONTINUOUS
  0
LAYER
  2
117
 70
     0
 62
     7
  6
CONTINUOUS
  0
LAYER
  2
118
 70
     0
 62
     7
  6
CONTINUOUS
  0
LAYER
  2
119
 70
     0
 62
     7
  6
CONTINUOUS
  0
LAYER
  2
120
 70
     0
 62
     7
  6
CONTINUOUS
  0
LAYER
  2
121
 70
     0
 62
     7
  6
CONTINUOUS
  0
LAYER
  2
122
 70
     0
 62
     7
  6
CONTINUOUS
  0
LAYER
  2
123
 70
     0
 62
     7
  6
CONTINUOUS
  0
LAYER
  2
124
 70
     0
 62
     7
  6
CONTINUOUS
  0
LAYER
  2
125
 70
     0
 62
     7
  6
CONTINUOUS
  0
LAYER
  2
126
 70
     0
 62
     7
  6
CONTINUOUS
  0
LAYER
  2
127
 70
     0
 62
     7
  6
CONTINUOUS
  0
ENDTAB
  0
TABLE
  2
STYLE
 70
     7
  0
STYLE
  2
STANDARD
 70
     0
 40
0.0
 41
1.0
 50
0.0
 71
     0
 42
0.2
  3
txt
  4

  0
STYLE
  2
KANJI0
 70
     0
 40
12.0
 41
0.666666667
 50
0.0
 71
     0
 42
12.0
  3

  4
bigfont
  0
STYLE
  2
KANJI1
 70
     0
 40
12.0
 41
0.9
 50
0.0
 71
     0
 42
12.0
  3

  4
bigfont
  0
STYLE
  2
KANJI2
 70
     0
 40
18.0
 41
0.9
 50
0.0
 71
     0
 42
18.0
  3

  4
bigfont
  0
STYLE
  2
KANJI3
 70
     0
 40
12.0
 41
0.45
 50
0.0
 71
     0
 42
12.0
  3

  4
bigfont
  0
STYLE
  2
KANJI4
 70
     0
 40
20.0
 41
0.9
 50
0.0
 71
     0
 42
20.0
  3

  4
bigfont
  0
STYLE
  2
KANJI5
 70
     0
 40
30.0
 41
0.94
 50
0.0
 71
     0
 42
30.0
  3

  4
bigfont
  0
ENDTAB
  0
TABLE
  2
VIEW
 70
     0
  0
ENDTAB
  0
ENDSEC
  0
SECTION
  2
BLOCKS
  0
ENDSEC
  0
SECTION
  2
ENTITIES
  0
LINE
  8
0
  6
CONTINUOUS
 62
     3
 10
869.9
 20
924.4
 11
329.9
 21
924.4
  0
ARC
  8
0
  6
CONTINUOUS
 62
     3
 10
359.9
 20
907.4
 40
30.0
 50
180.0
 51
270.0
  0
LINE
  8
0
  6
CONTINUOUS
 62
     3
 10
329.9
 20
924.4
 11
329.9
 21
907.4
  0
ARC
  8
0
  6
CONTINUOUS
 62
     1
 10
371.4
 20
292.4
 40
4.0
 50
270.0
 51
330.0
  0
LINE
  8
0
  6
CONTINUOUS
 62
     1
 10
371.4
 20
292.4
 11
368.4
 21
292.4
  0
LINE
  8
0
  6
CONTINUOUS
 62
     1
 10
404.4
 20
272.4
 11
401.4
 21
272.4
  0
ARC
  8
0
  6
CONTINUOUS
 62
     1
 10
372.4
 20
263.4
 40
1.0
 50
180.0
 51
270.0
  0
LINE
  8
0
  6
CONTINUOUS
 62
     1
 10
401.4
 20
272.4
 11
401.4
 21
263.4
  0
LINE
  8
0
  6
CONTINUOUS
 62
     1
 10
400.4
 20
262.4
 11
372.4
 21
262.4
  0
ARC
  8
0
  6
CONTINUOUS
 62
     1
 10
400.4
 20
263.4
 40
1.0
 50
270.0
 51
0.0
  0
ARC
  8
0
  6
CONTINUOUS
 62
     1
 10
372.4
 20
263.4
 40
4.0
 50
180.0
 51
270.0
  0
LINE
  8
0
  6
CONTINUOUS
 62
     1
 10
404.4
 20
263.4
 11
404.4
 21
272.4
  0
LINE
  8
0
  6
CONTINUOUS
 62
     1
 10
372.4
 20
259.4
 11
400.4
 21
259.4
  0
ARC
  8
0
  6
CONTINUOUS
 62
     1
 10
400.4
 20
263.4
 40
4.0
 50
270.0
 51
0.0
  0
LINE
  8
0
  6
CONTINUOUS
 62
     1
 10
382.4
 20
259.4
 11
382.4
 21
258.4
  0
LINE
  8
0
  6
CONTINUOUS
 62
     1
 10
386.4
 20
258.4
 11
374.4
 21
258.4
  0
LINE
  8
0
  6
CONTINUOUS
 62
     1
 10
398.4
 20
258.4
 11
386.4
 21
258.4
  0
LINE
  8
0
  6
CONTINUOUS
 62
     1
 10
390.4
 20
258.4
 11
390.4
 21
259.4
  0
LINE
  8
0
  6
CONTINUOUS
 62
     1
 10
394.4
 20
262.4
 11
394.4
 21
267.4
  0
LINE
  8
0
  6
CONTINUOUS
 62
     1
 10
394.4
 20
267.4
 11
378.4
 21
267.4
  0
LINE
  8
0
  6
CONTINUOUS
 62
     1
 10
378.4
 20
267.4
 11
378.4
 21
262.4
  0
LINE
  8
0
  6
CONTINUOUS
 62
     1
 10
382.4
 20
267.4
 11
382.4
 21
272.4
  0
LINE
  8
0
  6
CONTINUOUS
 62
     1
 10
382.4
 20
272.4
 11
383.4
 21
273.4
  0
LINE
  8
0
  6
CONTINUOUS
 62
     1
 10
383.4
 20
273.4
 11
389.4
 21
273.4
  0
LINE
  8
0
  6
CONTINUOUS
 62
     1
 10
389.4
 20
273.4
 11
390.4
 21
272.4
  0
LINE
  8
0
  6
CONTINUOUS
 62
     1
 10
390.4
 20
272.4
 11
390.4
 21
267.4
  0
ARC
  8
0
  6
CONTINUOUS
 62
     1
 10
401.4
 20
272.4
 40
1.0
 50
0.0
 51
270.0
  0
ARC
  8
0
  6
CONTINUOUS
 62
     1
 10
401.4
 20
272.4
 40
2.0
 50
125.537677791
 51
270.0
  0
ARC
  8
0
  6
CONTINUOUS
 62
     1
 10
401.4
 20
272.4
 40
3.0
 50
135.0
 51
270.0
  0
ARC
  8
0
  6
CONTINUOUS
 62
     1
 10
401.4
 20
272.4
 40
4.0
 50
140.38931176
 51
270.0
  0
ARC
  8
0
  6
CONTINUOUS
 62
     1
 10
404.283446539
 20
272.312065247
 40
4.0
 50
270.0
 51
330.0
  0
ARC
  8
0
  6
CONTINUOUS
 62
     1
 10
404.283446539
 20
272.312065247
 40
2.0
 50
270.0
 51
336.85800281
  0
ARC
  8
0
  6
CONTINUOUS
 62
     1
 10
404.283446539
 20
272.312065247
 40
3.0
 50
270.0
 51
336.019253391
  0
LINE
  8
0
  6
CONTINUOUS
 62
     1
 10
398.4
 20
254.4
 11
398.4
 21
258.4
  0
LINE
  8
0
  6
CONTINUOUS
 62
     1
 10
397.4
 20
253.4
 11
398.4
 21
254.4
  0
LINE
  8
0
  6
CONTINUOUS
 62
     1
 10
374.4
 20
258.4
 11
374.4
 21
254.4
  0
LINE
  8
0
  6
CONTINUOUS
 62
     1
 10
375.4
 20
253.4
 11
397.4
 21
253.4
  0
LINE
  8
0
  6
CONTINUOUS
 62
     1
 10
374.4
 20
254.4
 11
375.4
 21
253.4
  0
LINE
  8
0
  6
CONTINUOUS
 62
     1
 10
371.4
 20
263.4
 11
371.4
 21
292.4
  0
LINE
  8
0
  6
CONTINUOUS
 62
     1
 10
368.4
 20
292.4
 11
368.4
 21
263.4
  0
ARC
  8
0
  6
CONTINUOUS
 62
     3
 10
463.9
 20
404.9
 40
145.5
 50
170.0
 51
270.0
  0
ARC
  8
0
  6
CONTINUOUS
 62
     3
 10
463.9
 20
404.9
 40
114.5
 50
170.0
 51
270.0
  0
LINE
  8
0
  6
CONTINUOUS
 62
     3
 10
351.13951228
 20
424.782716343
 11
430.948151324
 21
877.4
  0
LINE
  8
0
  6
CONTINUOUS
 62
     3
 10
399.469926355
 20
877.4
 11
320.610471937
 21
430.165809851
  0
ARC
  8
0
  6
CONTINUOUS
 62
     1
 10
828.4
 20
292.4
 40
4.0
 50
210.0
 51
270.0
  0
LINE
  8
0
  6
CONTINUOUS
 62
     1
 10
828.4
 20
292.4
 11
831.4
 21
292.4
  0
LINE
  8
0
  6
CONTINUOUS
 62
     1
 10
795.4
 20
272.4
 11
798.4
 21
272.4
  0
ARC
  8
0
  6
CONTINUOUS
 62
     1
 10
827.4
 20
263.4
 40
1.0
 50
270.0
 51
0.0
  0
LINE
  8
0
  6
CONTINUOUS
 62
     1
 10
798.4
 20
272.4
 11
798.4
 21
263.4
  0
LINE
  8
0
  6
CONTINUOUS
 62
     1
 10
799.4
 20
262.4
 11
827.4
 21
262.4
  0
ARC
  8
0
  6
CONTINUOUS
 62
     1
 10
799.4
 20
263.4
 40
1.0
 50
180.0
 51
270.0
  0
ARC
  8
0
  6
CONTINUOUS
 62
     1
 10
827.4
 20
263.4
 40
4.0
 50
270.0
 51
0.0
  0
LINE
  8
0
  6
CONTINUOUS
 62
     1
 10
795.4
 20
263.4
 11
795.4
 21
272.4
  0
LINE
  8
0
  6
CONTINUOUS
 62
     1
 10
827.4
 20
259.4
 11
799.4
 21
259.4
  0
ARC
  8
0
  6
CONTINUOUS
 62
     1
 10
799.4
 20
263.4
 40
4.0
 50
180.0
 51
270.0
  0
LINE
  8
0
  6
CONTINUOUS
 62
     1
 10
817.4
 20
259.4
 11
817.4
 21
258.4
  0
LINE
  8
0
  6
CONTINUOUS
 62
     1
 10
813.4
 20
258.4
 11
825.4
 21
258.4
  0
LINE
  8
0
  6
CONTINUOUS
 62
     1
 10
801.4
 20
258.4
 11
813.4
 21
258.4
  0
LINE
  8
0
  6
CONTINUOUS
 62
     1
 10
809.4
 20
258.4
 11
809.4
 21
259.4
  0
LINE
  8
0
  6
CONTINUOUS
 62
     1
 10
805.4
 20
262.4
 11
805.4
 21
267.4
  0
LINE
  8
0
  6
CONTINUOUS
 62
     1
 10
805.4
 20
267.4
 11
821.4
 21
267.4
  0
LINE
  8
0
  6
CONTINUOUS
 62
     1
 10
821.4
 20
267.4
 11
821.4
 21
262.4
  0
LINE
  8
0
  6
CONTINUOUS
 62
     1
 10
817.4
 20
267.4
 11
817.4
 21
272.4
  0
LINE
  8
0
  6
CONTINUOUS
 62
     1
 10
817.4
 20
272.4
 11
816.4
 21
273.4
  0
LINE
  8
0
  6
CONTINUOUS
 62
     1
 10
816.4
 20
273.4
 11
810.4
 21
273.4
  0
LINE
  8
0
  6
CONTINUOUS
 62
     1
 10
810.4
 20
273.4
 11
809.4
 21
272.4
  0
LINE
  8
0
  6
CONTINUOUS
 62
     1
 10
809.4
 20
272.4
 11
809.4
 21
267.4
  0
ARC
  8
0
  6
CONTINUOUS
 62
     1
 10
798.4
 20
272.4
 40
4.0
 50
270.0
 51
39.61068824
  0
ARC
  8
0
  6
CONTINUOUS
 62
     1
 10
795.516553461
 20
272.312065247
 40
4.0
 50
210.0
 51
270.0
  0
LINE
  8
0
  6
CONTINUOUS
 62
     1
 10
801.4
 20
254.4
 11
801.4
 21
258.4
  0
LINE
  8
0
  6
CONTINUOUS
 62
     1
 10
802.4
 20
253.4
 11
801.4
 21
254.4
  0
LINE
  8
0
  6
CONTINUOUS
 62
     1
 10
825.4
 20
258.4
 11
825.4
 21
254.4
  0
LINE
  8
0
  6
CONTINUOUS
 62
     1
 10
824.4
 20
253.4
 11
802.4
 21
253.4
  0
LINE
  8
0
  6
CONTINUOUS
 62
     1
 10
825.4
 20
254.4
 11
824.4
 21
253.4
  0
LINE
  8
0
  6
CONTINUOUS
 62
     1
 10
828.4
 20
263.4
 11
828.4
 21
292.4
  0
LINE
  8
0
  6
CONTINUOUS
 62
     1
 10
831.4
 20
292.4
 11
831.4
 21
263.4
  0
ARC
  8
0
  6
CONTINUOUS
 62
     3
 10
735.9
 20
404.9
 40
145.5
 50
270.0
 51
10.0
  0
ARC
  8
0
  6
CONTINUOUS
 62
     3
 10
735.9
 20
404.9
 40
114.5
 50
270.0
 51
10.0
  0
POINT
  8
0
  6
CONTINUOUS
 62
     3
 10
836.645724535
 20
671.443709339
  0
LINE
  8
0
  6
CONTINUOUS
 62
     3
 10
735.9
 20
259.4
 11
599.9
 21
259.4
  0
LINE
  8
0
  6
CONTINUOUS
 62
     3
 10
463.9
 20
259.4
 11
599.9
 21
259.4
  0
LINE
  8
0
  6
CONTINUOUS
 62
     1
 10
394.9
 20
894.4
 11
384.9
 21
894.4
  0
LINE
  8
0
  6
CONTINUOUS
 62
     1
 10
389.9
 20
899.4
 11
389.9
 21
889.4
  0
CIRCLE
  8
0
  6
CONTINUOUS
 62
     1
 10
389.9
 20
894.4
 40
8.5
  0
CIRCLE
  8
0
  6
CONTINUOUS
 62
     3
 10
389.9
 20
894.4
 40
7.0
  0
LINE
  8
0
  6
CONTINUOUS
 62
     1
 10
814.9
 20
894.4
 11
804.9
 21
894.4
  0
LINE
  8
0
  6
CONTINUOUS
 62
     1
 10
809.9
 20
899.4
 11
809.9
 21
889.4
  0
CIRCLE
  8
0
  6
CONTINUOUS
 62
     1
 10
809.9
 20
894.4
 40
8.5
  0
CIRCLE
  8
0
  6
CONTINUOUS
 62
     3
 10
809.9
 20
894.4
 40
7.0
  0
LINE
  8
0
  6
CONTINUOUS
 62
     1
 10
813.282746689
 20
857.358809332
 11
803.320799708
 21
858.23036676
  0
LINE
  8
0
  6
CONTINUOUS
 62
     1
 10
808.737551912
 20
862.775561536
 11
807.865994485
 21
852.813614556
  0
LINE
  8
0
  6
CONTINUOUS
 62
     1
 10
811.264066084
 20
838.926368306
 11
801.34961747
 21
840.231630229
  0
LINE
  8
0
  6
CONTINUOUS
 62
     1
 10
806.959472738
 20
844.536223574
 11
805.654210816
 21
834.621774961
  0
LINE
  8
0
  6
CONTINUOUS
 62
     1
 10
808.44329503
 20
820.599524492
 11
798.5952175
 21
822.336006268
  0
LINE
  8
0
  6
CONTINUOUS
 62
     1
 10
804.387497153
 20
826.391804145
 11
802.651015377
 21
816.543726615
  0
CIRCLE
  8
0
  6
CONTINUOUS
 62
     3
 10
803.519256265
 20
821.46776538
 40
4.1
  0
CIRCLE
  8
0
  6
CONTINUOUS
 62
     3
 10
806.306841777
 20
839.578999268
 40
4.1
  0
CIRCLE
  8
0
  6
CONTINUOUS
 62
     3
 10
808.301773199
 20
857.794588046
 40
4.1
  0
LINE
  8
0
  6
CONTINUOUS
 62
     3
 10
869.9
 20
924.4
 11
869.9
 21
876.442586173
  0
LINE
  8
0
  6
CONTINUOUS
 62
     3
 10
829.500018379
 20
806.46776538
 11
869.9
 21
876.442586173
  0
ARC
  8
0
  6
CONTINUOUS
 62
     3
 10
803.519256265
 20
821.46776538
 40
30.0
 50
240.000025238
 51
330.000017846
  0
LINE
  8
0
  6
CONTINUOUS
 62
     3
 10
848.66048772
 20
424.782716343
 11
782.703234972
 21
798.844884726
  0
LINE
  8
0
  6
CONTINUOUS
 62
     3
 10
788.519256265
 20
795.487003266
 11
651.282800274
 21
874.720508076
  0
LINE
  8
0
  6
CONTINUOUS
 62
     3
 10
359.900009344
 20
877.4
 11
641.282800274
 21
877.4
  0
ARC
  8
0
  6
CONTINUOUS
 62
     3
 10
641.282800274
 20
857.4
 40
20.0
 50
60.0
 51
90.0
  0
POINT
  8
0
  6
CONTINUOUS
 62
     3
 10
644.9
 20
290.4
  0
POINT
  8
0
  6
CONTINUOUS
 62
     3
 10
836.645724535
 20
671.443709339
  0
LINE
  8
0
  6
CONTINUOUS
 62
     3
 10
659.9
 20
290.4
 11
659.9
 21
292.4
  0
LINE
  8
0
  6
CONTINUOUS
 62
     3
 10
659.9
 20
292.4
 11
539.9
 21
292.4
  0
LINE
  8
0
  6
CONTINUOUS
 62
     3
 10
539.9
 20
292.4
 11
539.9
 21
290.4
  0
POINT
  8
0
  6
CONTINUOUS
 62
     3
 10
842.167736585
 20
640.126822793
  0
POINT
  8
0
  6
CONTINUOUS
 62
     3
 10
842.167736585
 20
640.126822793
  0
LINE
  8
0
  6
CONTINUOUS
 62
     3
 10
844.77245925
 20
625.354706498
 11
846.742074756
 21
625.702002853
  0
LINE
  8
0
  6
CONTINUOUS
 62
     3
 10
846.742074756
 20
625.702002853
 11
825.904293436
 21
743.878933214
  0
LINE
  8
0
  6
CONTINUOUS
 62
     3
 10
825.904293436
 20
743.878933214
 11
823.93467793
 21
743.531636859
  0
LINE
  8
0
  6
CONTINUOUS
 62
     1
 10
854.9
 20
924.4
 11
854.9
 21
927.4
  0
LINE
  8
0
  6
CONTINUOUS
 62
     1
 10
854.9
 20
927.4
 11
824.9
 21
927.4
  0
LINE
  8
0
  6
CONTINUOUS
 62
     1
 10
824.9
 20
927.4
 11
824.9
 21
924.4
  0
LINE
  8
0
  6
CONTINUOUS
 62
     1
 10
344.9
 20
924.4
 11
344.9
 21
927.4
  0
LINE
  8
0
  6
CONTINUOUS
 62
     1
 10
344.9
 20
927.4
 11
374.9
 21
927.4
  0
LINE
  8
0
  6
CONTINUOUS
 62
     1
 10
374.9
 20
927.4
 11
374.9
 21
924.4
  0
LINE
  8
0
  6
CONTINUOUS
 62
     1
 10
835.4
 20
292.4
 11
835.4
 21
299.0
  0
ARC
  8
0
  6
CONTINUOUS
 62
     1
 10
831.4
 20
292.4
 40
4.0
 50
270.0
 51
0.0
  0
ARC
  8
0
  6
CONTINUOUS
 62
     1
 10
368.4
 20
292.4
 40
4.0
 50
180.0
 51
270.0
  0
LINE
  8
0
  6
CONTINUOUS
 62
     1
 10
364.4
 20
292.4
 11
364.4
 21
298.9
  0
LINE
  8
0
  6
CONTINUOUS
 62
     3
 10
463.9
 20
290.4
 11
539.9
 21
290.4
  0
LINE
  8
0
  6
CONTINUOUS
 62
     3
 10
735.9
 20
290.4
 11
659.9
 21
290.4
  0
LINE
  8
0
  6
CONTINUOUS
 62
     3
 10
844.77245925
 20
625.354706498
 11
879.189528063
 21
430.165809851
  0
LINE
  8
0
  6
CONTINUOUS
 62
     3
 10
815.063094844
 20
793.844884726
 11
823.93467793
 21
743.531636859
  0
LINE
  8
0
  6
CONTINUOUS
 62
     3
 10
329.9
 20
1129.4
 11
869.9
 21
1129.4
  0
LINE
  8
0
  6
CONTINUOUS
 62
     3
 10
869.9
 20
1129.4
 11
869.9
 21
1183.4
  0
LINE
  8
0
  6
CONTINUOUS
 62
     3
 10
869.9
 20
1183.4
 11
329.9
 21
1183.4
  0
LINE
  8
0
  6
CONTINUOUS
 62
     3
 10
329.9
 20
1183.4
 11
329.9
 21
1129.4
  0
CIRCLE
  8
0
  6
CONTINUOUS
 62
     3
 10
384.9
 20
1156.4
 40
2.6
  0
CIRCLE
  8
0
  6
CONTINUOUS
 62
     3
 10
334.9
 20
1156.4
 40
2.6
  0
CIRCLE
  8
0
  6
CONTINUOUS
 62
     3
 10
434.9
 20
1156.4
 40
2.6
  0
CIRCLE
  8
0
  6
CONTINUOUS
 62
     3
 10
814.9
 20
1156.4
 40
2.6
  0
CIRCLE
  8
0
  6
CONTINUOUS
 62
     3
 10
864.9
 20
1156.4
 40
2.6
  0
CIRCLE
  8
0
  6
CONTINUOUS
 62
     3
 10
764.9
 20
1156.4
 40
2.6
  0
LINE
  8
0
  6
CONTINUOUS
 62
     3
 10
329.9
 20
1683.4
 11
869.9
 21
1683.4
  0
LINE
  8
0
  6
CONTINUOUS
 62
     3
 10
869.9
 20
1683.4
 11
869.9
 21
1629.4
  0
LINE
  8
0
  6
CONTINUOUS
 62
     3
 10
869.9
 20
1629.4
 11
329.9
 21
1629.4
  0
LINE
  8
0
  6
CONTINUOUS
 62
     3
 10
329.9
 20
1629.4
 11
329.9
 21
1683.4
  0
CIRCLE
  8
0
  6
CONTINUOUS
 62
     3
 10
384.9
 20
1656.4
 40
2.6
  0
CIRCLE
  8
0
  6
CONTINUOUS
 62
     3
 10
334.9
 20
1656.4
 40
2.6
  0
CIRCLE
  8
0
  6
CONTINUOUS
 62
     3
 10
434.9
 20
1656.4
 40
2.6
  0
CIRCLE
  8
0
  6
CONTINUOUS
 62
     3
 10
814.9
 20
1656.4
 40
2.6
  0
CIRCLE
  8
0
  6
CONTINUOUS
 62
     3
 10
864.9
 20
1656.4
 40
2.6
  0
CIRCLE
  8
0
  6
CONTINUOUS
 62
     3
 10
764.9
 20
1656.4
 40
2.6
  0
LINE
  8
0
  6
CONTINUOUS
 62
     3
 10
869.9
 20
1140.9
 11
879.4
 21
1140.9
  0
ARC
  8
0
  6
CONTINUOUS
 62
     3
 10
879.4
 20
1142.9
 40
2.0
 50
270.0
 51
0.0
  0
LINE
  8
0
  6
CONTINUOUS
 62
     3
 10
879.4
 20
1171.9
 11
869.9
 21
1171.9
  0
LINE
  8
0
  6
CONTINUOUS
 62
     3
 10
881.4
 20
1142.9
 11
881.4
 21
1169.9
  0
ARC
  8
0
  6
CONTINUOUS
 62
     3
 10
879.4
 20
1169.9
 40
2.0
 50
0.0
 51
90.0
  0
LINE
  8
0
  6
CONTINUOUS
 62
     3
 10
329.9
 20
1140.9
 11
320.4
 21
1140.9
  0
ARC
  8
0
  6
CONTINUOUS
 62
     3
 10
320.4
 20
1142.9
 40
2.0
 50
180.0
 51
270.0
  0
LINE
  8
0
  6
CONTINUOUS
 62
     3
 10
320.4
 20
1171.9
 11
329.9
 21
1171.9
  0
LINE
  8
0
  6
CONTINUOUS
 62
     3
 10
318.4
 20
1142.9
 11
318.4
 21
1169.9
  0
ARC
  8
0
  6
CONTINUOUS
 62
     3
 10
320.4
 20
1169.9
 40
2.0
 50
90.0
 51
180.0
  0
LINE
  8
0
  6
CONTINUOUS
 62
     3
 10
329.9
 20
1640.9
 11
320.4
 21
1640.9
  0
ARC
  8
0
  6
CONTINUOUS
 62
     3
 10
320.4
 20
1642.9
 40
2.0
 50
180.0
 51
270.0
  0
LINE
  8
0
  6
CONTINUOUS
 62
     3
 10
320.4
 20
1671.9
 11
329.9
 21
1671.9
  0
LINE
  8
0
  6
CONTINUOUS
 62
     3
 10
318.4
 20
1642.9
 11
318.4
 21
1669.9
  0
ARC
  8
0
  6
CONTINUOUS
 62
     3
 10
320.4
 20
1669.9
 40
2.0
 50
90.0
 51
180.0
  0
LINE
  8
0
  6
CONTINUOUS
 62
     3
 10
869.9
 20
1640.9
 11
879.4
 21
1640.9
  0
ARC
  8
0
  6
CONTINUOUS
 62
     3
 10
879.4
 20
1642.9
 40
2.0
 50
270.0
 51
0.0
  0
LINE
  8
0
  6
CONTINUOUS
 62
     3
 10
879.4
 20
1671.9
 11
869.9
 21
1671.9
  0
LINE
  8
0
  6
CONTINUOUS
 62
     3
 10
881.4
 20
1642.9
 11
881.4
 21
1669.9
  0
ARC
  8
0
  6
CONTINUOUS
 62
     3
 10
879.4
 20
1669.9
 40
2.0
 50
0.0
 51
90.0
  0
LINE
  8
0
  6
CONTINUOUS
 62
     3
 10
564.9
 20
1629.4
 11
564.9
 21
1183.4
  0
LINE
  8
0
  6
CONTINUOUS
 62
     3
 10
634.9
 20
1183.4
 11
634.9
 21
1629.4
  0
LINE
  8
0
  6
CONTINUOUS
 62
     3
 10
840.431254808
 20
1183.4
 11
840.431254808
 21
1629.4
  0
LINE
  8
0
  6
CONTINUOUS
 62
     3
 10
828.275882371
 20
1629.4
 11
828.275882371
 21
1183.4
  0
LINE
  8
0
  6
CONTINUOUS
 62
     3
 10
803.655688546
 20
1183.4
 11
803.655688546
 21
1629.4
  0
CIRCLE
  8
0
  6
CONTINUOUS
 62
     1
 10
359.9
 20
1156.4
 40
15.0
  0
CIRCLE
  8
0
  6
CONTINUOUS
 62
     1
 10
359.9
 20
1656.4
 40
15.0
  0
CIRCLE
  8
0
  6
CONTINUOUS
 62
     1
 10
839.9
 20
1656.4
 40
15.0
  0
CIRCLE
  8
0
  6
CONTINUOUS
 62
     1
 10
839.9
 20
1156.4
 40
15.0
  0
LINE
  8
0
  6
CONTINUOUS
 62
     1
 10
831.09416611
 20
1168.543199311
 11
827.756800689
 21
1165.20583389
  0
LINE
  8
0
  6
CONTINUOUS
 62
     1
 10
824.975047537
 20
1157.898597338
 11
838.401402662
 21
1171.324952463
  0
LINE
  8
0
  6
CONTINUOUS
 62
     1
 10
842.732140068
 20
1171.13020647
 11
825.16979353
 21
1153.567859932
  0
LINE
  8
0
  6
CONTINUOUS
 62
     1
 10
826.268294733
 20
1150.140877735
 11
846.159122265
 21
1170.031705267
  0
LINE
  8
0
  6
CONTINUOUS
 62
     1
 10
848.987087951
 20
1168.334187554
 11
827.965812446
 21
1147.312912049
  0
LINE
  8
0
  6
CONTINUOUS
 62
     1
 10
830.165840634
 20
1144.987456837
 11
851.312543163
 21
1166.134159366
  0
LINE
  8
0
  6
CONTINUOUS
 62
     1
 10
853.144813266
 20
1163.440946069
 11
832.859053931
 21
1143.155186734
  0
LINE
  8
0
  6
CONTINUOUS
 62
     1
 10
836.114797761
 20
1141.885447165
 11
854.414552835
 21
1160.185202239
  0
LINE
  8
0
  6
CONTINUOUS
 62
     1
 10
854.897797581
 20
1156.142963585
 11
840.157036415
 21
1141.402202419
  0
LINE
  8
0
  6
CONTINUOUS
 62
     1
 10
845.958088639
 20
1142.677771244
 11
853.622228756
 21
1150.341911361
  0
LINE
  8
0
  6
CONTINUOUS
 62
     1
 10
347.756800689
 20
1165.20583389
 11
351.09416611
 21
1168.543199311
  0
LINE
  8
0
  6
CONTINUOUS
 62
     1
 10
358.401402662
 20
1171.324952463
 11
344.975047537
 21
1157.898597338
  0
LINE
  8
0
  6
CONTINUOUS
 62
     1
 10
345.16979353
 20
1153.567859932
 11
362.732140068
 21
1171.13020647
  0
LINE
  8
0
  6
CONTINUOUS
 62
     1
 10
366.159122265
 20
1170.031705267
 11
346.268294733
 21
1150.140877735
  0
LINE
  8
0
  6
CONTINUOUS
 62
     1
 10
347.965812446
 20
1147.312912049
 11
368.987087951
 21
1168.334187554
  0
LINE
  8
0
  6
CONTINUOUS
 62
     1
 10
371.312543163
 20
1166.134159366
 11
350.165840634
 21
1144.987456837
  0
LINE
  8
0
  6
CONTINUOUS
 62
     1
 10
352.859053931
 20
1143.155186734
 11
373.144813266
 21
1163.440946069
  0
LINE
  8
0
  6
CONTINUOUS
 62
     1
 10
374.414552835
 20
1160.185202239
 11
356.114797761
 21
1141.885447165
  0
LINE
  8
0
  6
CONTINUOUS
 62
     1
 10
360.157036415
 20
1141.402202419
 11
374.897797581
 21
1156.142963585
  0
LINE
  8
0
  6
CONTINUOUS
 62
     1
 10
373.622228756
 20
1150.341911361
 11
365.958088639
 21
1142.677771244
  0
LINE
  8
0
  6
CONTINUOUS
 62
     1
 10
351.09416611
 20
1668.543199311
 11
347.756800689
 21
1665.20583389
  0
LINE
  8
0
  6
CONTINUOUS
 62
     1
 10
344.975047537
 20
1657.898597338
 11
358.401402662
 21
1671.324952463
  0
LINE
  8
0
  6
CONTINUOUS
 62
     1
 10
362.732140068
 20
1671.13020647
 11
345.16979353
 21
1653.567859932
  0
LINE
  8
0
  6
CONTINUOUS
 62
     1
 10
346.268294733
 20
1650.140877735
 11
366.159122265
 21
1670.031705267
  0
LINE
  8
0
  6
CONTINUOUS
 62
     1
 10
368.987087951
 20
1668.334187554
 11
347.965812446
 21
1647.312912049
  0
LINE
  8
0
  6
CONTINUOUS
 62
     1
 10
350.165840634
 20
1644.987456837
 11
371.312543163
 21
1666.134159366
  0
LINE
  8
0
  6
CONTINUOUS
 62
     1
 10
373.144813266
 20
1663.440946069
 11
352.859053931
 21
1643.155186734
  0
LINE
  8
0
  6
CONTINUOUS
 62
     1
 10
356.114797761
 20
1641.885447165
 11
374.414552835
 21
1660.185202239
  0
LINE
  8
0
  6
CONTINUOUS
 62
     1
 10
374.897797581
 20
1656.142963585
 11
360.157036415
 21
1641.402202419
  0
LINE
  8
0
  6
CONTINUOUS
 62
     1
 10
365.958088639
 20
1642.677771244
 11
373.622228756
 21
1650.341911361
  0
LINE
  8
0
  6
CONTINUOUS
 62
     1
 10
827.756800689
 20
1665.20583389
 11
831.09416611
 21
1668.543199311
  0
LINE
  8
0
  6
CONTINUOUS
 62
     1
 10
838.401402662
 20
1671.324952463
 11
824.975047537
 21
1657.898597338
  0
LINE
  8
0
  6
CONTINUOUS
 62
     1
 10
825.16979353
 20
1653.567859932
 11
842.732140068
 21
1671.13020647
  0
LINE
  8
0
  6
CONTINUOUS
 62
     1
 10
846.159122265
 20
1670.031705267
 11
826.268294733
 21
1650.140877735
  0
LINE
  8
0
  6
CONTINUOUS
 62
     1
 10
827.965812446
 20
1647.312912049
 11
848.987087951
 21
1668.334187554
  0
LINE
  8
0
  6
CONTINUOUS
 62
     1
 10
851.312543163
 20
1666.134159366
 11
830.165840634
 21
1644.987456837
  0
LINE
  8
0
  6
CONTINUOUS
 62
     1
 10
832.859053931
 20
1643.155186734
 11
853.144813266
 21
1663.440946069
  0
LINE
  8
0
  6
CONTINUOUS
 62
     1
 10
854.414552835
 20
1660.185202239
 11
836.114797761
 21
1641.885447165
  0
LINE
  8
0
  6
CONTINUOUS
 62
     1
 10
840.157036415
 20
1641.402202419
 11
854.897797581
 21
1656.142963585
  0
LINE
  8
0
  6
CONTINUOUS
 62
     1
 10
853.622228756
 20
1650.341911361
 11
845.958088639
 21
1642.677771244
  0
LINE
  8
0
  6
CONTINUOUS
 62
     1
 10
814.9
 20
894.4
 11
804.9
 21
894.4
  0
LINE
  8
0
  6
CONTINUOUS
 62
     1
 10
809.9
 20
899.4
 11
809.9
 21
889.4
  0
CIRCLE
  8
0
  6
CONTINUOUS
 62
     3
 10
809.9
 20
894.4
 40
4.1
  0
LINE
  8
0
  6
CONTINUOUS
 62
     1
 10
842.626159821
 20
1004.690635205
 11
842.105215288
 21
1007.645058465
  0
LINE
  8
0
  6
CONTINUOUS
 62
     1
 10
812.560982697
 20
1002.435613135
 11
813.08192723
 21
999.481189875
  0
LINE
  8
0
  6
CONTINUOUS
 62
     1
 10
340.374205784
 20
916.130064595
 11
339.853261251
 21
919.084487854
  0
LINE
  8
0
  6
CONTINUOUS
 62
     1
 10
369.397493842
 20
924.293933184
 11
369.918438375
 21
921.339509925
  0
LINE
  8
0
  6
LTYPE1
 62
     1
 10
857.398276116
 20
1007.29535787
 11
325.602089489
 21
913.52534193
  0
LINE
  8
0
  6
LTYPE1
 62
     1
 10
325.602089489
 20
913.52534193
 11
328.55410851
 21
896.783610129
  0
ARC
  8
0
  6
LTYPE1
 62
     1
 10
358.0983411
 20
901.993055459
 40
30.0
 50
190.0
 51
280.0
  0
LINE
  8
0
  6
LTYPE1
 62
     1
 10
363.307795632
 20
872.448824491
 11
640.415749704
 21
921.310433363
  0
LINE
  8
0
  6
LTYPE1
 62
     1
 10
799.6393957
 20
866.209221376
 11
650.729116124
 21
920.408130719
  0
ARC
  8
0
  6
LTYPE1
 62
     1
 10
643.888713257
 20
901.614278303
 40
20.0
 50
70.0
 51
100.0
  0
LINE
  8
0
  6
LTYPE1
 62
     1
 10
838.090778624
 20
884.1393957
 11
865.725993633
 21
960.066524919
  0
ARC
  8
0
  6
LTYPE1
 62
     1
 10
809.9
 20
894.4
 40
30.0
 50
250.000025238
 51
340.000017846
  0
LINE
  8
0
  6
LTYPE1
 62
     1
 10
857.398276116
 20
1007.29535787
 11
865.725993633
 21
960.066524919
  0
LINE
  8
0
  6
LTYPE1
 62
     1
 10
842.105215288
 20
1007.645058465
 11
812.560982697
 21
1002.435613135
  0
LINE
  8
0
  6
LTYPE1
 62
     1
 10
339.853261251
 20
919.084487854
 11
369.397493842
 21
924.293933184
  0
LINE
  8
0
  6
CONTINUOUS
 62
     1
 10
329.9
 20
1119.4
 11
329.9
 21
1065.4
  0
LINE
  8
0
  6
CONTINUOUS
 62
     1
 10
329.9
 20
1069.4
 11
333.763703305
 21
1068.36472382
  0
LINE
  8
0
  6
CONTINUOUS
 62
     1
 10
329.9
 20
1069.4
 11
333.763703305
 21
1070.43527618
  0
LINE
  8
0
  6
CONTINUOUS
 62
     1
 10
329.9
 20
1069.4
 11
869.9
 21
1069.4
  0
LINE
  8
0
  6
CONTINUOUS
 62
     1
 10
869.9
 20
1069.4
 11
866.036296695
 21
1070.43527618
  0
LINE
  8
0
  6
CONTINUOUS
 62
     1
 10
869.9
 20
1069.4
 11
866.036296695
 21
1068.36472382
  0
LINE
  8
0
  6
CONTINUOUS
 62
     1
 10
869.9
 20
1119.4
 11
869.9
 21
1065.4
  0
TEXT
  8
0
  6
CONTINUOUS
 62
     1
 10
587.9
 20
1073.4
 30
0.0
 40
12.0
  1
５４０
 50
0.0
 41
0.666666667
 51
0.0
  7
KANJI0
  0
LINE
  8
0
  6
CONTINUOUS
 62
     1
 10
813.4
 20
247.4
 11
813.4
 21
215.4
  0
LINE
  8
0
  6
CONTINUOUS
 62
     1
 10
813.4
 20
219.4
 11
809.536296695
 21
220.43527618
  0
LINE
  8
0
  6
CONTINUOUS
 62
     1
 10
813.4
 20
219.4
 11
809.536296695
 21
218.36472382
  0
LINE
  8
0
  6
CONTINUOUS
 62
     1
 10
813.4
 20
219.4
 11
386.4
 21
219.4
  0
LINE
  8
0
  6
CONTINUOUS
 62
     1
 10
386.4
 20
219.4
 11
390.263703305
 21
218.36472382
  0
LINE
  8
0
  6
CONTINUOUS
 62
     1
 10
386.4
 20
219.4
 11
390.263703305
 21
220.43527618
  0
LINE
  8
0
  6
CONTINUOUS
 62
     1
 10
386.4
 20
247.4
 11
386.4
 21
215.4
  0
TEXT
  8
0
  6
CONTINUOUS
 62
     1
 10
587.9
 20
223.4
 30
0.0
 40
12.0
  1
４２７
 50
0.0
 41
0.666666667
 51
0.0
  7
KANJI0
  0
LINE
  8
0
  6
CONTINUOUS
 62
     1
 10
318.4
 20
344.899984741
 11
318.4
 21
175.4
  0
LINE
  8
0
  6
CONTINUOUS
 62
     1
 10
318.4
 20
179.4
 11
322.263703305
 21
178.36472382
  0
LINE
  8
0
  6
CONTINUOUS
 62
     1
 10
318.4
 20
179.4
 11
322.263703305
 21
180.43527618
  0
LINE
  8
0
  6
CONTINUOUS
 62
     1
 10
318.4
 20
179.4
 11
881.4
 21
179.4
  0
LINE
  8
0
  6
CONTINUOUS
 62
     1
 10
881.4
 20
179.4
 11
877.536296695
 21
180.43527618
  0
LINE
  8
0
  6
CONTINUOUS
 62
     1
 10
881.4
 20
179.4
 11
877.536296695
 21
178.36472382
  0
LINE
  8
0
  6
CONTINUOUS
 62
     1
 10
881.4
 20
344.899984741
 11
881.4
 21
175.4
  0
TEXT
  8
0
  6
CONTINUOUS
 62
     1
 10
587.9
 20
183.4
 30
0.0
 40
12.0
  1
５６３
 50
0.0
 41
0.666666667
 51
0.0
  7
KANJI0
  0
LINE
  8
0
  6
CONTINUOUS
 62
     1
 10
365.4
 20
253.4
 11
247.4
 21
253.4
  0
LINE
  8
0
  6
CONTINUOUS
 62
     1
 10
251.4
 20
253.4
 11
252.43527618
 21
257.263703305
  0
LINE
  8
0
  6
CONTINUOUS
 62
     1
 10
251.4
 20
253.4
 11
250.36472382
 21
257.263703305
  0
LINE
  8
0
  6
CONTINUOUS
 62
     1
 10
251.4
 20
253.4
 11
251.4
 21
927.4
  0
LINE
  8
0
  6
CONTINUOUS
 62
     1
 10
251.4
 20
927.4
 11
250.36472382
 21
923.536296695
  0
LINE
  8
0
  6
CONTINUOUS
 62
     1
 10
251.4
 20
927.4
 11
252.43527618
 21
923.536296695
  0
LINE
  8
0
  6
CONTINUOUS
 62
     1
 10
314.9
 20
927.4
 11
247.4
 21
927.4
  0
TEXT
  8
0
  6
CONTINUOUS
 62
     1
 10
255.4
 20
602.4
 30
0.0
 40
12.0
  1
６７４
 50
270.0
 41
0.666666667
 51
0.0
  7
KANJI0
  0
ARC
  8
0
  6
CONTINUOUS
 62
     1
 10
389.9
 20
894.4
 40
550.0
 50
0.0
 51
10.0
  0
LINE
  8
0
  6
CONTINUOUS
 62
     1
 10
939.9
 20
894.4
 11
940.93527618
 21
898.263703305
  0
LINE
  8
0
  6
CONTINUOUS
 62
     1
 10
939.9
 20
894.4
 11
938.86472382
 21
898.263703305
  0
LINE
  8
0
  6
CONTINUOUS
 62
     1
 10
931.544264157
 20
989.906497717
 11
931.195641186
 21
985.921718924
  0
LINE
  8
0
  6
CONTINUOUS
 62
     1
 10
931.544264157
 20
989.906497717
 11
933.234737204
 21
986.281266569
  0
TEXT
  8
0
  6
CONTINUOUS
 62
     1
 10
940.74599383
 20
954.638617859
 30
0.0
 40
12.0
  1
１０゜
 50
275.0
 41
0.666666667
 51
0.0
  7
KANJI0
  0
TEXT
  8
0
  6
CONTINUOUS
 62
     1
 10
919.9
 20
964.4
 30
1.2
 40
12.0
  1
２．５゜ｘ　４
 50
275.0
 41
0.9
 51
0.0
  7
KANJI1
  0
LINE
  8
0
  6
LTYPE2
 62
     1
 10
789.9
 20
894.4
 11
943.9
 21
894.4
  0
LINE
  8
0
  6
LTYPE2
 62
     1
 10
783.823101205
 20
963.859271067
 11
935.483495169
 21
990.601090427
  0
LINE
  8
0
  6
CONTINUOUS
 62
     1
 10
319.9
 20
1129.4
 11
247.4
 21
1129.4
  0
LINE
  8
0
  6
CONTINUOUS
 62
     1
 10
251.4
 20
1129.4
 11
252.43527618
 21
1133.263703305
  0
LINE
  8
0
  6
CONTINUOUS
 62
     1
 10
251.4
 20
1129.4
 11
250.36472382
 21
1133.263703305
  0
LINE
  8
0
  6
CONTINUOUS
 62
     1
 10
251.4
 20
1129.4
 11
251.4
 21
1683.4
  0
LINE
  8
0
  6
CONTINUOUS
 62
     1
 10
251.4
 20
1683.4
 11
250.36472382
 21
1679.536296695
  0
LINE
  8
0
  6
CONTINUOUS
 62
     1
 10
251.4
 20
1683.4
 11
252.43527618
 21
1679.536296695
  0
LINE
  8
0
  6
CONTINUOUS
 62
     1
 10
319.9
 20
1683.4
 11
247.4
 21
1683.4
  0
TEXT
  8
0
  6
CONTINUOUS
 62
     1
 10
255.4
 20
1434.4
 30
0.0
 40
12.0
  1
５５４～９５４
 50
270.0
 41
0.666666667
 51
0.0
  7
KANJI0
  0
LINE
  8
0
  6
CONTINUOUS
 62
     1
 10
291.9
 20
1656.4
 11
287.4
 21
1656.4
  0
LINE
  8
0
  6
CONTINUOUS
 62
     1
 10
291.4
 20
1656.4
 11
290.36472382
 21
1652.536296695
  0
LINE
  8
0
  6
CONTINUOUS
 62
     1
 10
291.4
 20
1656.4
 11
292.43527618
 21
1652.536296695
  0
LINE
  8
0
  6
CONTINUOUS
 62
     1
 10
291.4
 20
1656.4
 11
291.4
 21
1156.4
  0
LINE
  8
0
  6
CONTINUOUS
 62
     1
 10
291.4
 20
1156.4
 11
292.43527618
 21
1160.263703305
  0
LINE
  8
0
  6
CONTINUOUS
 62
     1
 10
291.4
 20
1156.4
 11
290.36472382
 21
1160.263703305
  0
LINE
  8
0
  6
CONTINUOUS
 62
     1
 10
291.9
 20
1156.4
 11
287.4
 21
1156.4
  0
TEXT
  8
0
  6
CONTINUOUS
 62
     1
 10
295.4
 20
1434.4
 30
0.0
 40
12.0
  1
５００～９００
 50
270.0
 41
0.666666667
 51
0.0
  7
KANJI0
  0
LINE
  8
0
  6
LTYPE2
 62
     1
 10
287.4
 20
1156.4
 11
884.9
 21
1156.4
  0
LINE
  8
0
  6
LTYPE2
 62
     1
 10
287.4
 20
1656.4
 11
879.9
 21
1656.4
  0
LINE
  8
0
  6
CONTINUOUS
 62
     1
 10
879.9
 20
1683.4
 11
931.4
 21
1683.4
  0
LINE
  8
0
  6
CONTINUOUS
 62
     1
 10
927.4
 20
1683.4
 11
926.36472382
 21
1679.536296695
  0
LINE
  8
0
  6
CONTINUOUS
 62
     1
 10
927.4
 20
1683.4
 11
928.43527618
 21
1679.536296695
  0
LINE
  8
0
  6
CONTINUOUS
 62
     1
 10
927.4
 20
1683.4
 11
927.4
 21
1629.4
  0
LINE
  8
0
  6
CONTINUOUS
 62
     1
 10
927.4
 20
1629.4
 11
928.43527618
 21
1633.263703305
  0
LINE
  8
0
  6
CONTINUOUS
 62
     1
 10
927.4
 20
1629.4
 11
926.36472382
 21
1633.263703305
  0
LINE
  8
0
  6
CONTINUOUS
 62
     1
 10
879.9
 20
1629.4
 11
931.4
 21
1629.4
  0
TEXT
  8
0
  6
CONTINUOUS
 62
     1
 10
931.4
 20
1664.4
 30
0.0
 40
12.0
  1
５４
 50
270.0
 41
0.666666667
 51
0.0
  7
KANJI0
  0
TEXT
  8
0
  6
CONTINUOUS
 62
     1
 10
881.4
 20
616.4
 30
1.8
 40
18.0
  1
側面図（横からの見付け）
 50
0.0
 41
0.9
 51
0.0
  7
KANJI2
  0
TEXT
  8
0
  6
CONTINUOUS
 62
     1
 10
881.4
 20
1386.4
 30
1.8
 40
18.0
  1
平面図（上からの見付け）
 50
0.0
 41
0.9
 51
0.0
  7
KANJI2
  0
TEXT
  8
0
  6
CONTINUOUS
 62
     1
 10
81.4
 20
139.9
 30
1.2
 40
12.0
  1
３５ＳＳ／００５　ＭＸＳ５４０ＡＳ
 50
0.0
 41
0.45
 51
0.0
  7
KANJI3
  0
TEXT
  8
0
  6
CONTINUOUS
 62
     1
 10
81.4
 20
159.9
 30
2.0
 40
20.0
  1
ＭＸＳ－５４０
 50
0.0
 41
0.9
 51
0.0
  7
KANJI4
  0
TEXT
  8
0
  6
CONTINUOUS
 62
     1
 10
844.05
 20
72.8
 30
1.8
 40
30.0
  1
用紙　Ａ４　　縮尺１／６
 50
0.0
 41
0.94
 51
0.0
  7
KANJI5
  0
ENDSEC
  0
EOF
