  0
SECTION
  2
HEADER
  9
$EXTMIN
 10
0.0
 20
0.0
 30
0.0
  9
$EXTMAX
 10
1470.0
 20
2079.0
 30
0.0
  9
$LIMMIN
 10
0.0
 20
0.0
  9
$LIMMAX
 10
1470.0
 20
2079.0
  9
$LTSCALE
 40
1.0
  9
$PDMODE
 70
     0
  0
ENDSEC
  0
SECTION
  2
TABLES
  0
TABLE
  2
LTYPE
 70
     3
  0
LTYPE
  2
CONTINUOUS
 70
    64
  3
Solid line
 72
    65
 73
     0
 40
0.0
  0
LTYPE
  2
LTYPE1
 70
    64
  3
CENTER
 72
    65
 73
     4
 40
105.0
 49
73.5
 49
-10.5
 49
10.5
 49
-10.5
  0
LTYPE
  2
LTYPE2
 70
    64
  3
HIDDEN
 72
    65
 73
     2
 40
14.0
 49
8.4
 49
-5.6
  0
ENDTAB
  0
TABLE
  2
LAYER
 70
   128
  0
LAYER
  2
0
 70
     0
 62
     7
  6
CONTINUOUS
  0
LAYER
  2
1
 70
     0
 62
     7
  6
CONTINUOUS
  0
LAYER
  2
2
 70
     0
 62
     7
  6
CONTINUOUS
  0
LAYER
  2
3
 70
     0
 62
     7
  6
CONTINUOUS
  0
LAYER
  2
4
 70
     0
 62
     7
  6
CONTINUOUS
  0
LAYER
  2
5
 70
     0
 62
     7
  6
CONTINUOUS
  0
LAYER
  2
6
 70
     0
 62
     7
  6
CONTINUOUS
  0
LAYER
  2
7
 70
     0
 62
     7
  6
CONTINUOUS
  0
LAYER
  2
8
 70
     0
 62
     7
  6
CONTINUOUS
  0
LAYER
  2
9
 70
     0
 62
     7
  6
CONTINUOUS
  0
LAYER
  2
10
 70
     0
 62
     7
  6
CONTINUOUS
  0
LAYER
  2
11
 70
     0
 62
     7
  6
CONTINUOUS
  0
LAYER
  2
12
 70
     0
 62
     7
  6
CONTINUOUS
  0
LAYER
  2
13
 70
     0
 62
     7
  6
CONTINUOUS
  0
LAYER
  2
14
 70
     0
 62
     7
  6
CONTINUOUS
  0
LAYER
  2
15
 70
     0
 62
     7
  6
CONTINUOUS
  0
LAYER
  2
16
 70
     0
 62
     7
  6
CONTINUOUS
  0
LAYER
  2
17
 70
     0
 62
     7
  6
CONTINUOUS
  0
LAYER
  2
18
 70
     0
 62
     7
  6
CONTINUOUS
  0
LAYER
  2
19
 70
     0
 62
     7
  6
CONTINUOUS
  0
LAYER
  2
20
 70
     0
 62
     7
  6
CONTINUOUS
  0
LAYER
  2
21
 70
     0
 62
     7
  6
CONTINUOUS
  0
LAYER
  2
22
 70
     0
 62
     7
  6
CONTINUOUS
  0
LAYER
  2
23
 70
     0
 62
     7
  6
CONTINUOUS
  0
LAYER
  2
24
 70
     0
 62
     7
  6
CONTINUOUS
  0
LAYER
  2
25
 70
     0
 62
     7
  6
CONTINUOUS
  0
LAYER
  2
26
 70
     0
 62
     7
  6
CONTINUOUS
  0
LAYER
  2
27
 70
     0
 62
     7
  6
CONTINUOUS
  0
LAYER
  2
28
 70
     0
 62
     7
  6
CONTINUOUS
  0
LAYER
  2
29
 70
     0
 62
     7
  6
CONTINUOUS
  0
LAYER
  2
30
 70
     0
 62
     7
  6
CONTINUOUS
  0
LAYER
  2
31
 70
     0
 62
     7
  6
CONTINUOUS
  0
LAYER
  2
32
 70
     0
 62
     7
  6
CONTINUOUS
  0
LAYER
  2
33
 70
     0
 62
     7
  6
CONTINUOUS
  0
LAYER
  2
34
 70
     0
 62
     7
  6
CONTINUOUS
  0
LAYER
  2
35
 70
     0
 62
     7
  6
CONTINUOUS
  0
LAYER
  2
36
 70
     0
 62
     7
  6
CONTINUOUS
  0
LAYER
  2
37
 70
     0
 62
     7
  6
CONTINUOUS
  0
LAYER
  2
38
 70
     0
 62
     7
  6
CONTINUOUS
  0
LAYER
  2
39
 70
     0
 62
     7
  6
CONTINUOUS
  0
LAYER
  2
40
 70
     0
 62
     7
  6
CONTINUOUS
  0
LAYER
  2
41
 70
     0
 62
     7
  6
CONTINUOUS
  0
LAYER
  2
42
 70
     0
 62
     7
  6
CONTINUOUS
  0
LAYER
  2
43
 70
     0
 62
     7
  6
CONTINUOUS
  0
LAYER
  2
44
 70
     0
 62
     7
  6
CONTINUOUS
  0
LAYER
  2
45
 70
     0
 62
     7
  6
CONTINUOUS
  0
LAYER
  2
46
 70
     0
 62
     7
  6
CONTINUOUS
  0
LAYER
  2
47
 70
     0
 62
     7
  6
CONTINUOUS
  0
LAYER
  2
48
 70
     0
 62
     7
  6
CONTINUOUS
  0
LAYER
  2
49
 70
     0
 62
     7
  6
CONTINUOUS
  0
LAYER
  2
50
 70
     0
 62
     7
  6
CONTINUOUS
  0
LAYER
  2
51
 70
     0
 62
     7
  6
CONTINUOUS
  0
LAYER
  2
52
 70
     0
 62
     7
  6
CONTINUOUS
  0
LAYER
  2
53
 70
     0
 62
     7
  6
CONTINUOUS
  0
LAYER
  2
54
 70
     0
 62
     7
  6
CONTINUOUS
  0
LAYER
  2
55
 70
     0
 62
     7
  6
CONTINUOUS
  0
LAYER
  2
56
 70
     0
 62
     7
  6
CONTINUOUS
  0
LAYER
  2
57
 70
     0
 62
     7
  6
CONTINUOUS
  0
LAYER
  2
58
 70
     0
 62
     7
  6
CONTINUOUS
  0
LAYER
  2
59
 70
     0
 62
     7
  6
CONTINUOUS
  0
LAYER
  2
60
 70
     0
 62
     7
  6
CONTINUOUS
  0
LAYER
  2
61
 70
     0
 62
     7
  6
CONTINUOUS
  0
LAYER
  2
62
 70
     0
 62
     7
  6
CONTINUOUS
  0
LAYER
  2
63
 70
     0
 62
     7
  6
CONTINUOUS
  0
LAYER
  2
64
 70
     0
 62
     7
  6
CONTINUOUS
  0
LAYER
  2
65
 70
     0
 62
     7
  6
CONTINUOUS
  0
LAYER
  2
66
 70
     0
 62
     7
  6
CONTINUOUS
  0
LAYER
  2
67
 70
     0
 62
     7
  6
CONTINUOUS
  0
LAYER
  2
68
 70
     0
 62
     7
  6
CONTINUOUS
  0
LAYER
  2
69
 70
     0
 62
     7
  6
CONTINUOUS
  0
LAYER
  2
70
 70
     0
 62
     7
  6
CONTINUOUS
  0
LAYER
  2
71
 70
     0
 62
     7
  6
CONTINUOUS
  0
LAYER
  2
72
 70
     0
 62
     7
  6
CONTINUOUS
  0
LAYER
  2
73
 70
     0
 62
     7
  6
CONTINUOUS
  0
LAYER
  2
74
 70
     0
 62
     7
  6
CONTINUOUS
  0
LAYER
  2
75
 70
     0
 62
     7
  6
CONTINUOUS
  0
LAYER
  2
76
 70
     0
 62
     7
  6
CONTINUOUS
  0
LAYER
  2
77
 70
     0
 62
     7
  6
CONTINUOUS
  0
LAYER
  2
78
 70
     0
 62
     7
  6
CONTINUOUS
  0
LAYER
  2
79
 70
     0
 62
     7
  6
CONTINUOUS
  0
LAYER
  2
80
 70
     0
 62
     7
  6
CONTINUOUS
  0
LAYER
  2
81
 70
     0
 62
     7
  6
CONTINUOUS
  0
LAYER
  2
82
 70
     0
 62
     7
  6
CONTINUOUS
  0
LAYER
  2
83
 70
     0
 62
     7
  6
CONTINUOUS
  0
LAYER
  2
84
 70
     0
 62
     7
  6
CONTINUOUS
  0
LAYER
  2
85
 70
     0
 62
     7
  6
CONTINUOUS
  0
LAYER
  2
86
 70
     0
 62
     7
  6
CONTINUOUS
  0
LAYER
  2
87
 70
     0
 62
     7
  6
CONTINUOUS
  0
LAYER
  2
88
 70
     0
 62
     7
  6
CONTINUOUS
  0
LAYER
  2
89
 70
     0
 62
     7
  6
CONTINUOUS
  0
LAYER
  2
90
 70
     0
 62
     7
  6
CONTINUOUS
  0
LAYER
  2
91
 70
     0
 62
     7
  6
CONTINUOUS
  0
LAYER
  2
92
 70
     0
 62
     7
  6
CONTINUOUS
  0
LAYER
  2
93
 70
     0
 62
     7
  6
CONTINUOUS
  0
LAYER
  2
94
 70
     0
 62
     7
  6
CONTINUOUS
  0
LAYER
  2
95
 70
     0
 62
     7
  6
CONTINUOUS
  0
LAYER
  2
96
 70
     0
 62
     7
  6
CONTINUOUS
  0
LAYER
  2
97
 70
     0
 62
     7
  6
CONTINUOUS
  0
LAYER
  2
98
 70
     0
 62
     7
  6
CONTINUOUS
  0
LAYER
  2
99
 70
     0
 62
     7
  6
CONTINUOUS
  0
LAYER
  2
100
 70
     0
 62
     7
  6
CONTINUOUS
  0
LAYER
  2
101
 70
     0
 62
     7
  6
CONTINUOUS
  0
LAYER
  2
102
 70
     0
 62
     7
  6
CONTINUOUS
  0
LAYER
  2
103
 70
     0
 62
     7
  6
CONTINUOUS
  0
LAYER
  2
104
 70
     0
 62
     7
  6
CONTINUOUS
  0
LAYER
  2
105
 70
     0
 62
     7
  6
CONTINUOUS
  0
LAYER
  2
106
 70
     0
 62
     7
  6
CONTINUOUS
  0
LAYER
  2
107
 70
     0
 62
     7
  6
CONTINUOUS
  0
LAYER
  2
108
 70
     0
 62
     7
  6
CONTINUOUS
  0
LAYER
  2
109
 70
     0
 62
     7
  6
CONTINUOUS
  0
LAYER
  2
110
 70
     0
 62
     7
  6
CONTINUOUS
  0
LAYER
  2
111
 70
     0
 62
     7
  6
CONTINUOUS
  0
LAYER
  2
112
 70
     0
 62
     7
  6
CONTINUOUS
  0
LAYER
  2
113
 70
     0
 62
     7
  6
CONTINUOUS
  0
LAYER
  2
114
 70
     0
 62
     7
  6
CONTINUOUS
  0
LAYER
  2
115
 70
     0
 62
     7
  6
CONTINUOUS
  0
LAYER
  2
116
 70
     0
 62
     7
  6
CONTINUOUS
  0
LAYER
  2
117
 70
     0
 62
     7
  6
CONTINUOUS
  0
LAYER
  2
118
 70
     0
 62
     7
  6
CONTINUOUS
  0
LAYER
  2
119
 70
     0
 62
     7
  6
CONTINUOUS
  0
LAYER
  2
120
 70
     0
 62
     7
  6
CONTINUOUS
  0
LAYER
  2
121
 70
     0
 62
     7
  6
CONTINUOUS
  0
LAYER
  2
122
 70
     0
 62
     7
  6
CONTINUOUS
  0
LAYER
  2
123
 70
     0
 62
     7
  6
CONTINUOUS
  0
LAYER
  2
124
 70
     0
 62
     7
  6
CONTINUOUS
  0
LAYER
  2
125
 70
     0
 62
     7
  6
CONTINUOUS
  0
LAYER
  2
126
 70
     0
 62
     7
  6
CONTINUOUS
  0
LAYER
  2
127
 70
     0
 62
     7
  6
CONTINUOUS
  0
ENDTAB
  0
TABLE
  2
STYLE
 70
     7
  0
STYLE
  2
STANDARD
 70
     0
 40
0.0
 41
1.0
 50
0.0
 71
     0
 42
0.2
  3
txt
  4

  0
STYLE
  2
KANJI0
 70
     0
 40
15.0
 41
0.75
 50
0.0
 71
     0
 42
15.0
  3

  4
bigfont
  0
STYLE
  2
KANJI1
 70
     0
 40
15.0
 41
0.9
 50
0.0
 71
     0
 42
15.0
  3

  4
bigfont
  0
STYLE
  2
KANJI2
 70
     0
 40
18.0
 41
0.7
 50
0.0
 71
     0
 42
18.0
  3

  4
bigfont
  0
STYLE
  2
KANJI3
 70
     0
 40
15.0
 41
0.9
 50
0.0
 71
     0
 42
15.0
  3

  4
bigfont
  0
STYLE
  2
KANJI4
 70
     0
 40
20.0
 41
0.9
 50
0.0
 71
     0
 42
20.0
  3

  4
bigfont
  0
STYLE
  2
KANJI5
 70
     0
 40
25.0
 41
1.0
 50
0.0
 71
     0
 42
25.0
  3

  4
bigfont
  0
ENDTAB
  0
TABLE
  2
VIEW
 70
     0
  0
ENDTAB
  0
ENDSEC
  0
SECTION
  2
BLOCKS
  0
ENDSEC
  0
SECTION
  2
ENTITIES
  0
LINE
  8
0
  6
CONTINUOUS
 62
     3
 10
950.2
 20
1929.6
 11
950.2
 21
1875.2
  0
LINE
  8
0
  6
CONTINUOUS
 62
     3
 10
350.2
 20
1375.0
 11
950.2
 21
1375.0
  0
LINE
  8
0
  6
CONTINUOUS
 62
     3
 10
950.2
 20
1375.0
 11
950.2
 21
1429.4
  0
LINE
  8
0
  6
CONTINUOUS
 62
     3
 10
950.2
 20
1429.4
 11
350.2
 21
1429.4
  0
LINE
  8
0
  6
CONTINUOUS
 62
     3
 10
350.2
 20
1429.4
 11
350.2
 21
1375.0
  0
LINE
  8
0
  6
CONTINUOUS
 62
     3
 10
350.2
 20
1929.4
 11
950.2
 21
1929.4
  0
LINE
  8
0
  6
CONTINUOUS
 62
     3
 10
950.2
 20
1875.0
 11
350.2
 21
1875.0
  0
LINE
  8
0
  6
CONTINUOUS
 62
     3
 10
350.2
 20
1875.0
 11
350.2
 21
1929.4
  0
LINE
  8
0
  6
CONTINUOUS
 62
     3
 10
622.4
 20
1429.4
 11
622.4
 21
1441.2
  0
LINE
  8
0
  6
CONTINUOUS
 62
     3
 10
622.4
 20
1441.2
 11
623.4
 21
1442.2
  0
LINE
  8
0
  6
CONTINUOUS
 62
     3
 10
623.4
 20
1442.2
 11
655.4
 21
1442.2
  0
LINE
  8
0
  6
CONTINUOUS
 62
     3
 10
655.4
 20
1442.2
 11
656.4
 21
1441.2
  0
LINE
  8
0
  6
CONTINUOUS
 62
     3
 10
656.4
 20
1429.4
 11
656.4
 21
1441.2
  0
LINE
  8
0
  6
CONTINUOUS
 62
     3
 10
656.9
 20
1470.2
 11
655.9
 21
1476.2
  0
LINE
  8
0
  6
CONTINUOUS
 62
     3
 10
622.9
 20
1476.2
 11
621.9
 21
1470.2
  0
LINE
  8
0
  6
CONTINUOUS
 62
     3
 10
621.9
 20
1470.2
 11
656.9
 21
1470.2
  0
LINE
  8
0
  6
CONTINUOUS
 62
     3
 10
622.9
 20
1476.2
 11
622.9
 21
1501.2
  0
ARC
  8
0
  6
CONTINUOUS
 62
     3
 10
623.9
 20
1501.2
 40
1.0
 50
90.0
 51
180.0
  0
LINE
  8
0
  6
CONTINUOUS
 62
     3
 10
623.9
 20
1502.2
 11
654.9
 21
1502.2
  0
ARC
  8
0
  6
CONTINUOUS
 62
     3
 10
654.9
 20
1501.2
 40
1.0
 50
0.0
 51
90.0
  0
LINE
  8
0
  6
CONTINUOUS
 62
     3
 10
655.9
 20
1501.2
 11
655.9
 21
1476.2
  0
LINE
  8
0
  6
CONTINUOUS
 62
     3
 10
656.9
 20
1470.2
 11
656.9
 21
1448.2
  0
ARC
  8
0
  6
CONTINUOUS
 62
     3
 10
655.9
 20
1448.2
 40
1.0
 50
270.0
 51
0.0
  0
LINE
  8
0
  6
CONTINUOUS
 62
     3
 10
655.9
 20
1447.2
 11
639.4
 21
1447.2
  0
LINE
  8
0
  6
CONTINUOUS
 62
     3
 10
626.7
 20
1502.2
 11
626.7
 21
1862.2
  0
LINE
  8
0
  6
CONTINUOUS
 62
     3
 10
652.1
 20
1502.2
 11
652.1
 21
1862.2
  0
LINE
  8
0
  6
CONTINUOUS
 62
     3
 10
639.4
 20
1447.2
 11
622.9
 21
1447.2
  0
ARC
  8
0
  6
CONTINUOUS
 62
     3
 10
622.9
 20
1448.2
 40
1.0
 50
180.0
 51
270.0
  0
LINE
  8
0
  6
CONTINUOUS
 62
     3
 10
621.9
 20
1448.2
 11
621.9
 21
1470.2
  0
LINE
  8
0
  6
CONTINUOUS
 62
     3
 10
544.2
 20
1441.2
 11
545.2
 21
1442.2
  0
LINE
  8
0
  6
CONTINUOUS
 62
     3
 10
545.2
 20
1442.2
 11
577.2
 21
1442.2
  0
LINE
  8
0
  6
CONTINUOUS
 62
     3
 10
577.2
 20
1442.2
 11
578.2
 21
1441.2
  0
LINE
  8
0
  6
CONTINUOUS
 62
     3
 10
578.2
 20
1429.4
 11
578.2
 21
1441.2
  0
LINE
  8
0
  6
CONTINUOUS
 62
     3
 10
578.7
 20
1470.2
 11
577.7
 21
1476.2
  0
LINE
  8
0
  6
CONTINUOUS
 62
     3
 10
544.7
 20
1476.2
 11
543.7
 21
1470.2
  0
LINE
  8
0
  6
CONTINUOUS
 62
     3
 10
543.7
 20
1470.2
 11
578.7
 21
1470.2
  0
LINE
  8
0
  6
CONTINUOUS
 62
     3
 10
544.7
 20
1476.2
 11
544.7
 21
1501.2
  0
ARC
  8
0
  6
CONTINUOUS
 62
     3
 10
545.7
 20
1501.2
 40
1.0
 50
90.0
 51
180.0
  0
LINE
  8
0
  6
CONTINUOUS
 62
     3
 10
545.7
 20
1502.2
 11
576.7
 21
1502.2
  0
ARC
  8
0
  6
CONTINUOUS
 62
     3
 10
576.7
 20
1501.2
 40
1.0
 50
0.0
 51
90.0
  0
LINE
  8
0
  6
CONTINUOUS
 62
     3
 10
577.7
 20
1501.2
 11
577.7
 21
1476.2
  0
LINE
  8
0
  6
CONTINUOUS
 62
     3
 10
578.7
 20
1470.2
 11
578.7
 21
1448.2
  0
ARC
  8
0
  6
CONTINUOUS
 62
     3
 10
577.7
 20
1448.2
 40
1.0
 50
270.0
 51
0.0
  0
LINE
  8
0
  6
CONTINUOUS
 62
     3
 10
577.7
 20
1447.2
 11
561.2
 21
1447.2
  0
LINE
  8
0
  6
CONTINUOUS
 62
     3
 10
548.5
 20
1502.2
 11
548.5
 21
1862.2
  0
LINE
  8
0
  6
CONTINUOUS
 62
     3
 10
573.9
 20
1502.2
 11
573.9
 21
1862.2
  0
LINE
  8
0
  6
CONTINUOUS
 62
     3
 10
561.2
 20
1447.2
 11
544.7
 21
1447.2
  0
ARC
  8
0
  6
CONTINUOUS
 62
     3
 10
544.7
 20
1448.2
 40
1.0
 50
180.0
 51
270.0
  0
LINE
  8
0
  6
CONTINUOUS
 62
     3
 10
543.7
 20
1448.2
 11
543.7
 21
1470.2
  0
LINE
  8
0
  6
CONTINUOUS
 62
     3
 10
578.3
 20
1863.2
 11
578.3
 21
1875.2
  0
LINE
  8
0
  6
CONTINUOUS
 62
     3
 10
578.3
 20
1863.2
 11
577.3
 21
1862.2
  0
LINE
  8
0
  6
CONTINUOUS
 62
     3
 10
577.3
 20
1862.2
 11
545.3
 21
1862.2
  0
LINE
  8
0
  6
CONTINUOUS
 62
     3
 10
545.3
 20
1862.2
 11
544.3
 21
1863.2
  0
LINE
  8
0
  6
CONTINUOUS
 62
     3
 10
544.3
 20
1863.2
 11
544.3
 21
1864.1
  0
LINE
  8
0
  6
CONTINUOUS
 62
     3
 10
622.5
 20
1863.2
 11
622.5
 21
1874.9
  0
LINE
  8
0
  6
CONTINUOUS
 62
     3
 10
622.5
 20
1863.2
 11
623.5
 21
1862.2
  0
LINE
  8
0
  6
CONTINUOUS
 62
     3
 10
623.5
 20
1862.2
 11
655.5
 21
1862.2
  0
LINE
  8
0
  6
CONTINUOUS
 62
     3
 10
655.5
 20
1862.2
 11
656.5
 21
1863.2
  0
LINE
  8
0
  6
CONTINUOUS
 62
     3
 10
656.5
 20
1863.2
 11
656.5
 21
1874.9
  0
LINE
  8
0
  6
CONTINUOUS
 62
     1
 10
350.2
 20
1426.9
 11
348.2
 21
1426.9
  0
LINE
  8
0
  6
CONTINUOUS
 62
     1
 10
348.2
 20
1426.9
 11
348.2
 21
1377.5
  0
LINE
  8
0
  6
CONTINUOUS
 62
     1
 10
348.2
 20
1377.5
 11
350.2
 21
1377.5
  0
LINE
  8
0
  6
CONTINUOUS
 62
     1
 10
350.2
 20
1877.5
 11
348.2
 21
1877.5
  0
LINE
  8
0
  6
CONTINUOUS
 62
     1
 10
348.2
 20
1877.5
 11
348.2
 21
1926.9
  0
LINE
  8
0
  6
CONTINUOUS
 62
     1
 10
348.2
 20
1926.9
 11
350.2
 21
1926.9
  0
LINE
  8
0
  6
CONTINUOUS
 62
     1
 10
548.4
 20
1429.3
 11
547.5
 21
1430.2
  0
LINE
  8
0
  6
CONTINUOUS
 62
     1
 10
553.4
 20
1929.5
 11
553.4
 21
1936.5
  0
LINE
  8
0
  6
CONTINUOUS
 62
     1
 10
553.4
 20
1936.5
 11
554.4
 21
1937.5
  0
LINE
  8
0
  6
CONTINUOUS
 62
     1
 10
554.4
 20
1937.5
 11
573.6
 21
1937.5
  0
LINE
  8
0
  6
CONTINUOUS
 62
     1
 10
573.6
 20
1937.5
 11
574.6
 21
1936.5
  0
LINE
  8
0
  6
CONTINUOUS
 62
     1
 10
574.6
 20
1936.5
 11
574.6
 21
1929.5
  0
LINE
  8
0
  6
CONTINUOUS
 62
     1
 10
558.5
 20
1929.5
 11
558.5
 21
1936.5
  0
LINE
  8
0
  6
CONTINUOUS
 62
     1
 10
558.5
 20
1936.5
 11
557.5
 21
1937.5
  0
LINE
  8
0
  6
CONTINUOUS
 62
     1
 10
558.5
 20
1936.5
 11
560.5
 21
1937.5
  0
LINE
  8
0
  6
CONTINUOUS
 62
     1
 10
567.5
 20
1937.5
 11
569.5
 21
1936.5
  0
LINE
  8
0
  6
CONTINUOUS
 62
     1
 10
569.5
 20
1936.5
 11
570.5
 21
1937.5
  0
LINE
  8
0
  6
CONTINUOUS
 62
     1
 10
569.5
 20
1936.5
 11
569.5
 21
1929.5
  0
LINE
  8
0
  6
CONTINUOUS
 62
     1
 10
623.0
 20
1929.5
 11
623.0
 21
1936.5
  0
LINE
  8
0
  6
CONTINUOUS
 62
     1
 10
623.0
 20
1936.5
 11
624.0
 21
1937.5
  0
LINE
  8
0
  6
CONTINUOUS
 62
     1
 10
624.0
 20
1937.5
 11
643.2
 21
1937.5
  0
LINE
  8
0
  6
CONTINUOUS
 62
     1
 10
643.2
 20
1937.5
 11
644.2
 21
1936.5
  0
LINE
  8
0
  6
CONTINUOUS
 62
     1
 10
644.2
 20
1936.5
 11
644.2
 21
1929.5
  0
LINE
  8
0
  6
CONTINUOUS
 62
     1
 10
628.1
 20
1929.5
 11
628.1
 21
1936.5
  0
LINE
  8
0
  6
CONTINUOUS
 62
     1
 10
628.1
 20
1936.5
 11
627.1
 21
1937.5
  0
LINE
  8
0
  6
CONTINUOUS
 62
     1
 10
628.1
 20
1936.5
 11
630.1
 21
1937.5
  0
LINE
  8
0
  6
CONTINUOUS
 62
     1
 10
637.1
 20
1937.5
 11
639.1
 21
1936.5
  0
LINE
  8
0
  6
CONTINUOUS
 62
     1
 10
639.1
 20
1936.5
 11
640.1
 21
1937.5
  0
LINE
  8
0
  6
CONTINUOUS
 62
     1
 10
639.1
 20
1936.5
 11
639.1
 21
1929.5
  0
LINE
  8
0
  6
CONTINUOUS
 62
     1
 10
533.2
 20
1375.0
 11
533.2
 21
1374.6
  0
LINE
  8
0
  6
CONTINUOUS
 62
     1
 10
533.2
 20
1374.6
 11
547.2
 21
1374.6
  0
LINE
  8
0
  6
CONTINUOUS
 62
     1
 10
547.2
 20
1374.6
 11
547.2
 21
1375.0
  0
LINE
  8
0
  6
CONTINUOUS
 62
     1
 10
535.9
 20
1371.1
 11
544.4
 21
1371.1
  0
ARC
  8
0
  6
CONTINUOUS
 62
     1
 10
540.2
 20
1377.2
 40
7.5
 50
200.4
 51
234.8
  0
ARC
  8
0
  6
CONTINUOUS
 62
     1
 10
540.2
 20
1377.2
 40
7.5
 50
304.5
 51
339.6
  0
LINE
  8
0
  6
CONTINUOUS
 62
     1
 10
553.4
 20
1375.1
 11
553.4
 21
1368.1
  0
LINE
  8
0
  6
CONTINUOUS
 62
     1
 10
553.4
 20
1368.1
 11
554.4
 21
1367.1
  0
LINE
  8
0
  6
CONTINUOUS
 62
     1
 10
554.4
 20
1367.1
 11
573.6
 21
1367.1
  0
LINE
  8
0
  6
CONTINUOUS
 62
     1
 10
573.6
 20
1367.1
 11
574.6
 21
1368.1
  0
LINE
  8
0
  6
CONTINUOUS
 62
     1
 10
574.6
 20
1368.1
 11
574.6
 21
1375.1
  0
LINE
  8
0
  6
CONTINUOUS
 62
     1
 10
558.5
 20
1375.1
 11
558.5
 21
1368.1
  0
LINE
  8
0
  6
CONTINUOUS
 62
     1
 10
558.5
 20
1368.1
 11
557.5
 21
1367.1
  0
LINE
  8
0
  6
CONTINUOUS
 62
     1
 10
558.5
 20
1368.1
 11
560.5
 21
1367.1
  0
LINE
  8
0
  6
CONTINUOUS
 62
     1
 10
567.5
 20
1367.1
 11
569.5
 21
1368.1
  0
LINE
  8
0
  6
CONTINUOUS
 62
     1
 10
569.5
 20
1368.1
 11
570.5
 21
1367.1
  0
LINE
  8
0
  6
CONTINUOUS
 62
     1
 10
569.5
 20
1368.1
 11
569.5
 21
1375.1
  0
LINE
  8
0
  6
CONTINUOUS
 62
     1
 10
532.9
 20
1429.4
 11
532.9
 21
1436.8
  0
LINE
  8
0
  6
CONTINUOUS
 62
     1
 10
532.9
 20
1436.8
 11
533.9
 21
1437.8
  0
LINE
  8
0
  6
CONTINUOUS
 62
     1
 10
533.9
 20
1437.8
 11
546.5
 21
1437.8
  0
LINE
  8
0
  6
CONTINUOUS
 62
     1
 10
546.5
 20
1437.8
 11
545.5
 21
1440.4
  0
LINE
  8
0
  6
CONTINUOUS
 62
     1
 10
545.5
 20
1440.4
 11
535.1
 21
1440.4
  0
LINE
  8
0
  6
CONTINUOUS
 62
     1
 10
535.1
 20
1440.4
 11
534.1
 21
1437.8
  0
LINE
  8
0
  6
CONTINUOUS
 62
     1
 10
536.2
 20
1440.4
 11
536.2
 21
1444.0
  0
LINE
  8
0
  6
CONTINUOUS
 62
     1
 10
536.2
 20
1444.0
 11
537.2
 21
1445.0
  0
LINE
  8
0
  6
CONTINUOUS
 62
     1
 10
537.2
 20
1445.0
 11
543.2
 21
1445.0
  0
LINE
  8
0
  6
CONTINUOUS
 62
     1
 10
543.2
 20
1445.0
 11
544.2
 21
1444.0
  0
LINE
  8
0
  6
CONTINUOUS
 62
     1
 10
544.2
 20
1440.4
 11
544.2
 21
1444.0
  0
LINE
  8
0
  6
CONTINUOUS
 62
     1
 10
537.2
 20
1440.4
 11
537.2
 21
1445.0
  0
LINE
  8
0
  6
CONTINUOUS
 62
     1
 10
536.2
 20
1444.0
 11
544.2
 21
1444.0
  0
LINE
  8
0
  6
CONTINUOUS
 62
     1
 10
543.2
 20
1440.4
 11
543.2
 21
1445.0
  0
LINE
  8
0
  6
CONTINUOUS
 62
     1
 10
535.2
 20
1437.8
 11
536.2
 21
1436.8
  0
LINE
  8
0
  6
CONTINUOUS
 62
     1
 10
536.2
 20
1436.8
 11
538.2
 21
1437.8
  0
LINE
  8
0
  6
CONTINUOUS
 62
     1
 10
542.2
 20
1437.8
 11
544.2
 21
1436.8
  0
LINE
  8
0
  6
CONTINUOUS
 62
     1
 10
544.2
 20
1436.8
 11
545.2
 21
1437.8
  0
LINE
  8
0
  6
CONTINUOUS
 62
     1
 10
544.2
 20
1436.8
 11
544.2
 21
1429.4
  0
LINE
  8
0
  6
CONTINUOUS
 62
     1
 10
536.2
 20
1429.4
 11
536.2
 21
1436.8
  0
LINE
  8
0
  6
CONTINUOUS
 62
     1
 10
546.5
 20
1437.8
 11
547.5
 21
1436.8
  0
LINE
  8
0
  6
CONTINUOUS
 62
     1
 10
547.5
 20
1436.8
 11
547.5
 21
1429.4
  0
LINE
  8
0
  6
CONTINUOUS
 62
     1
 10
533.2
 20
1929.4
 11
533.2
 21
1929.8
  0
LINE
  8
0
  6
CONTINUOUS
 62
     1
 10
533.2
 20
1929.8
 11
547.2
 21
1929.8
  0
LINE
  8
0
  6
CONTINUOUS
 62
     1
 10
547.2
 20
1929.8
 11
547.2
 21
1929.4
  0
LINE
  8
0
  6
CONTINUOUS
 62
     1
 10
535.9
 20
1933.3
 11
544.4
 21
1933.3
  0
ARC
  8
0
  6
CONTINUOUS
 62
     1
 10
540.2
 20
1927.2
 40
7.5
 50
125.2
 51
159.6
  0
ARC
  8
0
  6
CONTINUOUS
 62
     1
 10
540.2
 20
1927.2
 40
7.5
 50
20.4
 51
55.5
  0
LINE
  8
0
  6
CONTINUOUS
 62
     1
 10
532.9
 20
1875.0
 11
532.9
 21
1867.6
  0
LINE
  8
0
  6
CONTINUOUS
 62
     1
 10
532.9
 20
1867.6
 11
533.9
 21
1866.6
  0
LINE
  8
0
  6
CONTINUOUS
 62
     1
 10
533.9
 20
1866.6
 11
546.5
 21
1866.6
  0
LINE
  8
0
  6
CONTINUOUS
 62
     1
 10
546.5
 20
1866.6
 11
547.5
 21
1867.6
  0
LINE
  8
0
  6
CONTINUOUS
 62
     1
 10
547.5
 20
1867.6
 11
547.5
 21
1875.0
  0
LINE
  8
0
  6
CONTINUOUS
 62
     1
 10
546.5
 20
1866.6
 11
545.5
 21
1864.0
  0
LINE
  8
0
  6
CONTINUOUS
 62
     1
 10
545.5
 20
1864.0
 11
535.1
 21
1864.0
  0
LINE
  8
0
  6
CONTINUOUS
 62
     1
 10
535.1
 20
1864.0
 11
534.1
 21
1866.6
  0
LINE
  8
0
  6
CONTINUOUS
 62
     1
 10
536.2
 20
1864.0
 11
536.2
 21
1860.4
  0
LINE
  8
0
  6
CONTINUOUS
 62
     1
 10
536.2
 20
1860.4
 11
537.2
 21
1859.4
  0
LINE
  8
0
  6
CONTINUOUS
 62
     1
 10
537.2
 20
1859.4
 11
543.2
 21
1859.4
  0
LINE
  8
0
  6
CONTINUOUS
 62
     1
 10
543.2
 20
1859.4
 11
544.2
 21
1860.4
  0
LINE
  8
0
  6
CONTINUOUS
 62
     1
 10
544.2
 20
1864.0
 11
544.2
 21
1860.4
  0
LINE
  8
0
  6
CONTINUOUS
 62
     1
 10
537.2
 20
1864.0
 11
537.2
 21
1859.4
  0
LINE
  8
0
  6
CONTINUOUS
 62
     1
 10
536.2
 20
1860.4
 11
544.2
 21
1860.4
  0
LINE
  8
0
  6
CONTINUOUS
 62
     1
 10
543.2
 20
1864.0
 11
543.2
 21
1859.4
  0
LINE
  8
0
  6
CONTINUOUS
 62
     1
 10
535.2
 20
1866.6
 11
536.2
 21
1867.6
  0
LINE
  8
0
  6
CONTINUOUS
 62
     1
 10
536.2
 20
1867.6
 11
538.2
 21
1866.6
  0
LINE
  8
0
  6
CONTINUOUS
 62
     1
 10
542.2
 20
1866.6
 11
544.2
 21
1867.6
  0
LINE
  8
0
  6
CONTINUOUS
 62
     1
 10
544.2
 20
1867.6
 11
545.2
 21
1866.6
  0
LINE
  8
0
  6
CONTINUOUS
 62
     1
 10
544.2
 20
1867.6
 11
544.2
 21
1875.0
  0
LINE
  8
0
  6
CONTINUOUS
 62
     1
 10
536.2
 20
1875.0
 11
536.2
 21
1867.6
  0
CIRCLE
  8
0
  6
CONTINUOUS
 62
     1
 10
900.2
 20
1402.2
 40
20.0
  0
CIRCLE
  8
0
  6
CONTINUOUS
 62
     1
 10
400.2
 20
1402.2
 40
20.0
  0
CIRCLE
  8
0
  6
CONTINUOUS
 62
     1
 10
400.2
 20
1902.2
 40
20.0
  0
CIRCLE
  8
0
  6
CONTINUOUS
 62
     1
 10
900.2
 20
1902.2
 40
20.0
  0
LINE
  8
0
  6
CONTINUOUS
 62
     1
 10
629.0
 20
1374.9
 11
629.0
 21
1367.9
  0
LINE
  8
0
  6
CONTINUOUS
 62
     1
 10
629.0
 20
1367.9
 11
630.0
 21
1366.9
  0
LINE
  8
0
  6
CONTINUOUS
 62
     1
 10
630.0
 20
1366.9
 11
649.2
 21
1366.9
  0
LINE
  8
0
  6
CONTINUOUS
 62
     1
 10
649.2
 20
1366.9
 11
650.2
 21
1367.9
  0
LINE
  8
0
  6
CONTINUOUS
 62
     1
 10
650.2
 20
1367.9
 11
650.2
 21
1374.9
  0
LINE
  8
0
  6
CONTINUOUS
 62
     1
 10
634.1
 20
1374.9
 11
634.1
 21
1367.9
  0
LINE
  8
0
  6
CONTINUOUS
 62
     1
 10
634.1
 20
1367.9
 11
633.1
 21
1366.9
  0
LINE
  8
0
  6
CONTINUOUS
 62
     1
 10
634.1
 20
1367.9
 11
636.1
 21
1366.9
  0
LINE
  8
0
  6
CONTINUOUS
 62
     1
 10
643.1
 20
1366.9
 11
645.1
 21
1367.9
  0
LINE
  8
0
  6
CONTINUOUS
 62
     1
 10
645.1
 20
1367.9
 11
646.1
 21
1366.9
  0
LINE
  8
0
  6
CONTINUOUS
 62
     1
 10
645.1
 20
1367.9
 11
645.1
 21
1374.9
  0
LINE
  8
0
  6
CONTINUOUS
 62
     1
 10
655.9
 20
1447.2
 11
655.9
 21
1445.2
  0
LINE
  8
0
  6
CONTINUOUS
 62
     1
 10
655.9
 20
1445.2
 11
622.9
 21
1445.2
  0
LINE
  8
0
  6
CONTINUOUS
 62
     1
 10
622.9
 20
1445.2
 11
622.9
 21
1447.2
  0
LINE
  8
0
  6
CONTINUOUS
 62
     1
 10
656.9
 20
1460.2
 11
659.9
 21
1460.2
  0
LINE
  8
0
  6
CONTINUOUS
 62
     1
 10
659.9
 20
1454.2
 11
656.9
 21
1454.2
  0
LINE
  8
0
  6
CONTINUOUS
 62
     1
 10
659.9
 20
1457.2
 11
659.9
 21
1463.3
  0
LINE
  8
0
  6
CONTINUOUS
 62
     1
 10
659.9
 20
1463.3
 11
660.9
 21
1463.3
  0
LINE
  8
0
  6
CONTINUOUS
 62
     1
 10
660.9
 20
1463.3
 11
660.9
 21
1451.1
  0
LINE
  8
0
  6
CONTINUOUS
 62
     1
 10
660.9
 20
1451.1
 11
659.9
 21
1451.1
  0
LINE
  8
0
  6
CONTINUOUS
 62
     1
 10
659.9
 20
1451.1
 11
659.9
 21
1457.2
  0
LINE
  8
0
  6
CONTINUOUS
 62
     1
 10
660.9
 20
1462.7
 11
663.9
 21
1462.7
  0
LINE
  8
0
  6
CONTINUOUS
 62
     1
 10
663.9
 20
1462.7
 11
664.9
 21
1461.7
  0
LINE
  8
0
  6
CONTINUOUS
 62
     1
 10
664.9
 20
1461.7
 11
664.9
 21
1452.7
  0
LINE
  8
0
  6
CONTINUOUS
 62
     1
 10
664.9
 20
1452.7
 11
663.9
 21
1451.7
  0
LINE
  8
0
  6
CONTINUOUS
 62
     1
 10
663.9
 20
1451.7
 11
660.9
 21
1451.7
  0
LINE
  8
0
  6
CONTINUOUS
 62
     1
 10
655.8
 20
1445.2
 11
653.8
 21
1443.2
  0
LINE
  8
0
  6
CONTINUOUS
 62
     1
 10
653.8
 20
1443.2
 11
624.8
 21
1443.2
  0
LINE
  8
0
  6
CONTINUOUS
 62
     1
 10
624.8
 20
1443.2
 11
622.8
 21
1445.2
  0
LINE
  8
0
  6
CONTINUOUS
 62
     1
 10
628.4
 20
1443.2
 11
628.4
 21
1442.2
  0
LINE
  8
0
  6
CONTINUOUS
 62
     1
 10
650.4
 20
1442.2
 11
650.4
 21
1443.2
  0
LINE
  8
0
  6
CONTINUOUS
 62
     1
 10
577.7
 20
1447.2
 11
577.7
 21
1445.2
  0
LINE
  8
0
  6
CONTINUOUS
 62
     1
 10
577.7
 20
1445.2
 11
544.7
 21
1445.2
  0
LINE
  8
0
  6
CONTINUOUS
 62
     1
 10
544.7
 20
1445.2
 11
544.7
 21
1447.2
  0
LINE
  8
0
  6
CONTINUOUS
 62
     1
 10
578.7
 20
1460.2
 11
581.7
 21
1460.2
  0
LINE
  8
0
  6
CONTINUOUS
 62
     1
 10
581.7
 20
1454.2
 11
578.7
 21
1454.2
  0
LINE
  8
0
  6
CONTINUOUS
 62
     1
 10
581.7
 20
1457.2
 11
581.7
 21
1463.3
  0
LINE
  8
0
  6
CONTINUOUS
 62
     1
 10
581.7
 20
1463.3
 11
582.7
 21
1463.3
  0
LINE
  8
0
  6
CONTINUOUS
 62
     1
 10
582.7
 20
1463.3
 11
582.7
 21
1451.1
  0
LINE
  8
0
  6
CONTINUOUS
 62
     1
 10
582.7
 20
1451.1
 11
581.7
 21
1451.1
  0
LINE
  8
0
  6
CONTINUOUS
 62
     1
 10
581.7
 20
1451.1
 11
581.7
 21
1457.2
  0
LINE
  8
0
  6
CONTINUOUS
 62
     1
 10
582.7
 20
1462.7
 11
585.7
 21
1462.7
  0
LINE
  8
0
  6
CONTINUOUS
 62
     1
 10
585.7
 20
1462.7
 11
586.7
 21
1461.7
  0
LINE
  8
0
  6
CONTINUOUS
 62
     1
 10
586.7
 20
1461.7
 11
586.7
 21
1452.7
  0
LINE
  8
0
  6
CONTINUOUS
 62
     1
 10
586.7
 20
1452.7
 11
585.7
 21
1451.7
  0
LINE
  8
0
  6
CONTINUOUS
 62
     1
 10
585.7
 20
1451.7
 11
582.7
 21
1451.7
  0
LINE
  8
0
  6
CONTINUOUS
 62
     1
 10
577.6
 20
1445.2
 11
575.6
 21
1443.2
  0
LINE
  8
0
  6
CONTINUOUS
 62
     1
 10
575.6
 20
1443.2
 11
546.6
 21
1443.2
  0
LINE
  8
0
  6
CONTINUOUS
 62
     1
 10
546.6
 20
1443.2
 11
544.6
 21
1445.2
  0
LINE
  8
0
  6
CONTINUOUS
 62
     1
 10
550.2
 20
1443.2
 11
550.2
 21
1442.2
  0
LINE
  8
0
  6
CONTINUOUS
 62
     1
 10
572.2
 20
1442.2
 11
572.2
 21
1443.2
  0
LINE
  8
0
  6
CONTINUOUS
 62
     1
 10
1060.2
 20
1402.2
 11
1062.141142838
 21
1409.444443697
  0
LINE
  8
0
  6
CONTINUOUS
 62
     1
 10
1060.2
 20
1402.2
 11
1058.258857162
 21
1409.444443697
  0
LINE
  8
0
  6
CONTINUOUS
 62
     1
 10
1060.2
 20
1402.2
 11
1060.2
 21
1902.2
  0
LINE
  8
0
  6
CONTINUOUS
 62
     1
 10
1060.2
 20
1902.2
 11
1058.258857162
 21
1894.955556303
  0
LINE
  8
0
  6
CONTINUOUS
 62
     1
 10
1060.2
 20
1902.2
 11
1062.141142838
 21
1894.955556303
  0
LINE
  8
0
  6
CONTINUOUS
 62
     1
 10
960.2
 20
1929.4
 11
1105.2
 21
1929.4
  0
LINE
  8
0
  6
CONTINUOUS
 62
     1
 10
1100.2
 20
1929.4
 11
1098.258857162
 21
1922.155556303
  0
LINE
  8
0
  6
CONTINUOUS
 62
     1
 10
1100.2
 20
1929.4
 11
1102.141142838
 21
1922.155556303
  0
LINE
  8
0
  6
CONTINUOUS
 62
     1
 10
1100.2
 20
1929.4
 11
1100.2
 21
1375.0
  0
LINE
  8
0
  6
CONTINUOUS
 62
     1
 10
1100.2
 20
1375.0
 11
1102.141142838
 21
1382.244443697
  0
LINE
  8
0
  6
CONTINUOUS
 62
     1
 10
1100.2
 20
1375.0
 11
1098.258857162
 21
1382.244443697
  0
LINE
  8
0
  6
CONTINUOUS
 62
     1
 10
960.2
 20
1375.0
 11
1105.2
 21
1375.0
  0
LINE
  8
0
  6
CONTINUOUS
 62
     1
 10
362.3
 20
1299.0
 11
350.2
 21
1302.2
  0
LINE
  8
0
  6
CONTINUOUS
 62
     1
 10
350.2
 20
1302.2
 11
362.3
 21
1305.4
  0
LINE
  8
0
  6
CONTINUOUS
 62
     1
 10
350.2
 20
1302.2
 11
540.2
 21
1302.2
  0
LINE
  8
0
  6
CONTINUOUS
 62
     1
 10
528.1
 20
1299.0
 11
540.2
 21
1302.2
  0
LINE
  8
0
  6
CONTINUOUS
 62
     1
 10
540.2
 20
1302.2
 11
528.1
 21
1305.4
  0
TEXT
  8
0
  6
CONTINUOUS
 62
     1
 10
425.5
 20
1309.7
 30
1.875
 40
15.0
  1
１９０
 50
0.0
 41
0.75
 51
0.0
  7
KANJI0
  0
LINE
  8
0
  6
CONTINUOUS
 62
     1
 10
552.3
 20
1299.0
 11
540.2
 21
1302.2
  0
LINE
  8
0
  6
CONTINUOUS
 62
     1
 10
540.2
 20
1302.2
 11
552.3
 21
1305.4
  0
LINE
  8
0
  6
CONTINUOUS
 62
     1
 10
540.2
 20
1302.2
 11
950.2
 21
1302.2
  0
LINE
  8
0
  6
CONTINUOUS
 62
     1
 10
938.1
 20
1299.0
 11
950.2
 21
1302.2
  0
LINE
  8
0
  6
CONTINUOUS
 62
     1
 10
950.2
 20
1302.2
 11
938.1
 21
1305.4
  0
TEXT
  8
0
  6
CONTINUOUS
 62
     1
 10
725.5
 20
1309.7
 30
1.875
 40
15.0
  1
４１０
 50
0.0
 41
0.75
 51
0.0
  7
KANJI0
  0
LINE
  8
0
  6
CONTINUOUS
 62
     1
 10
350.2
 20
1302.2
 11
350.2
 21
1262.2
  0
LINE
  8
0
  6
CONTINUOUS
 62
     1
 10
950.2
 20
1302.2
 11
950.2
 21
1262.2
  0
LINE
  8
0
  6
CONTINUOUS
 62
     1
 10
362.3
 20
1269.0
 11
350.2
 21
1272.2
  0
LINE
  8
0
  6
CONTINUOUS
 62
     1
 10
350.2
 20
1272.2
 11
362.3
 21
1275.4
  0
LINE
  8
0
  6
CONTINUOUS
 62
     1
 10
350.2
 20
1272.2
 11
950.2
 21
1272.2
  0
LINE
  8
0
  6
CONTINUOUS
 62
     1
 10
938.1
 20
1269.0
 11
950.2
 21
1272.2
  0
LINE
  8
0
  6
CONTINUOUS
 62
     1
 10
950.2
 20
1272.2
 11
938.1
 21
1275.4
  0
TEXT
  8
0
  6
CONTINUOUS
 62
     1
 10
630.5
 20
1279.7
 30
1.875
 40
15.0
  1
６００
 50
0.0
 41
0.75
 51
0.0
  7
KANJI0
  0
LINE
  8
0
  6
CONTINUOUS
 62
     1
 10
362.3
 20
1275.4
 11
350.2
 21
1272.2
  0
LINE
  8
0
  6
CONTINUOUS
 62
     1
 10
350.2
 20
1272.2
 11
362.3
 21
1269.0
  0
LINE
  8
0
  6
CONTINUOUS
 62
     1
 10
350.2
 20
1369.2
 11
350.2
 21
1292.2
  0
LINE
  8
0
  6
CONTINUOUS
 62
     1
 10
540.2
 20
1369.2
 11
540.2
 21
1292.2
  0
LINE
  8
0
  6
CONTINUOUS
 62
     1
 10
950.2
 20
1369.2
 11
950.2
 21
1292.2
  0
LINE
  8
0
  6
LTYPE1
 62
     1
 10
340.2
 20
1402.2
 11
1065.2
 21
1402.2
  0
LINE
  8
0
  6
LTYPE1
 62
     1
 10
340.2
 20
1902.2
 11
1065.2
 21
1902.2
  0
TEXT
  8
0
  6
CONTINUOUS
 62
     1
 10
1055.2
 20
1612.2
 30
1.5
 40
15.0
  1
５００～９００
 50
90.0
 41
0.9
 51
0.0
  7
KANJI1
  0
TEXT
  8
0
  6
CONTINUOUS
 62
     1
 10
1095.2
 20
1612.2
 30
1.5
 40
15.0
  1
５５５～９５５
 50
90.0
 41
0.9
 51
0.0
  7
KANJI1
  0
LINE
  8
0
  6
CONTINUOUS
 62
     1
 10
272.4
 20
1387.1
 11
269.2
 21
1375.0
  0
LINE
  8
0
  6
CONTINUOUS
 62
     1
 10
269.2
 20
1375.0
 11
266.0
 21
1387.1
  0
LINE
  8
0
  6
CONTINUOUS
 62
     1
 10
269.2
 20
1375.0
 11
269.2
 21
1429.4
  0
LINE
  8
0
  6
CONTINUOUS
 62
     1
 10
272.4
 20
1417.3
 11
269.2
 21
1429.4
  0
LINE
  8
0
  6
CONTINUOUS
 62
     1
 10
269.2
 20
1429.4
 11
266.0
 21
1417.3
  0
TEXT
  8
0
  6
CONTINUOUS
 62
     1
 10
261.7
 20
1376.0
 30
1.875
 40
15.0
  1
５４．４
 50
90.0
 41
0.75
 51
0.0
  7
KANJI0
  0
LINE
  8
0
  6
CONTINUOUS
 62
     1
 10
272.4
 20
1887.1
 11
269.2
 21
1875.0
  0
LINE
  8
0
  6
CONTINUOUS
 62
     1
 10
269.2
 20
1875.0
 11
266.0
 21
1887.1
  0
LINE
  8
0
  6
CONTINUOUS
 62
     1
 10
269.2
 20
1875.0
 11
269.2
 21
1929.4
  0
LINE
  8
0
  6
CONTINUOUS
 62
     1
 10
272.4
 20
1917.3
 11
269.2
 21
1929.4
  0
LINE
  8
0
  6
CONTINUOUS
 62
     1
 10
269.2
 20
1929.4
 11
266.0
 21
1917.3
  0
TEXT
  8
0
  6
CONTINUOUS
 62
     1
 10
261.7
 20
1876.0
 30
1.875
 40
15.0
  1
５４．４
 50
90.0
 41
0.75
 51
0.0
  7
KANJI0
  0
LINE
  8
0
  6
CONTINUOUS
 62
     1
 10
339.2
 20
1429.4
 11
259.2
 21
1429.4
  0
LINE
  8
0
  6
CONTINUOUS
 62
     1
 10
339.2
 20
1375.0
 11
259.2
 21
1375.0
  0
LINE
  8
0
  6
CONTINUOUS
 62
     1
 10
339.2
 20
1875.0
 11
259.2
 21
1875.0
  0
LINE
  8
0
  6
CONTINUOUS
 62
     1
 10
339.2
 20
1929.4
 11
259.2
 21
1929.4
  0
LINE
  8
0
  6
CONTINUOUS
 62
     3
 10
350.0
 20
300.0
 11
950.0
 21
300.0
  0
LINE
  8
0
  6
CONTINUOUS
 62
     3
 10
950.0
 20
300.0
 11
950.0
 21
330.0
  0
LINE
  8
0
  6
CONTINUOUS
 62
     3
 10
950.0
 20
330.0
 11
350.0
 21
330.0
  0
LINE
  8
0
  6
CONTINUOUS
 62
     3
 10
350.0
 20
330.0
 11
350.0
 21
300.0
  0
LINE
  8
0
  6
CONTINUOUS
 62
     3
 10
672.8
 20
330.1
 11
574.3
 21
888.5
  0
LINE
  8
0
  6
CONTINUOUS
 62
     3
 10
622.1
 20
330.0
 11
524.0
 21
885.9
  0
LINE
  8
0
  6
CONTINUOUS
 62
     3
 10
946.9
 20
977.9
 11
346.9
 21
977.9
  0
LINE
  8
0
  6
CONTINUOUS
 62
     3
 10
346.9
 20
945.9
 11
346.9
 21
977.9
  0
LINE
  8
0
  6
CONTINUOUS
 62
     3
 10
506.9
 20
885.9
 11
556.9
 21
885.9
  0
LINE
  8
0
  6
CONTINUOUS
 62
     3
 10
946.9
 20
945.9
 11
946.9
 21
977.9
  0
POINT
  8
0
  6
CONTINUOUS
 62
     3
 10
346.9
 20
973.9
  0
POINT
  8
0
  6
CONTINUOUS
 62
     3
 10
344.9
 20
975.9
  0
LINE
  8
0
  6
CONTINUOUS
 62
     3
 10
946.9
 20
945.9
 11
556.9
 21
885.9
  0
LINE
  8
0
  6
CONTINUOUS
 62
     3
 10
506.9
 20
885.9
 11
346.9
 21
945.9
  0
LINE
  8
0
  6
CONTINUOUS
 62
     3
 10
350.0
 20
299.9
 11
350.0
 21
296.9
  0
LINE
  8
0
  6
CONTINUOUS
 62
     3
 10
350.0
 20
296.9
 11
393.9
 21
296.9
  0
LINE
  8
0
  6
CONTINUOUS
 62
     3
 10
950.0
 20
299.9
 11
950.0
 21
296.9
  0
LINE
  8
0
  6
CONTINUOUS
 62
     3
 10
905.9
 20
296.9
 11
950.0
 21
296.9
  0
LINE
  8
0
  6
CONTINUOUS
 62
     3
 10
906.0
 20
296.9
 11
906.0
 21
299.9
  0
LINE
  8
0
  6
CONTINUOUS
 62
     3
 10
394.0
 20
296.9
 11
394.0
 21
299.9
  0
LINE
  8
0
  6
CONTINUOUS
 62
     1
 10
950.0
 20
330.0
 11
952.5
 21
330.0
  0
ARC
  8
0
  6
CONTINUOUS
 62
     1
 10
952.5
 20
327.0
 40
3.0
 50
0.0
 51
90.0
  0
LINE
  8
0
  6
CONTINUOUS
 62
     1
 10
955.5
 20
327.0
 11
955.5
 21
303.0
  0
ARC
  8
0
  6
CONTINUOUS
 62
     1
 10
952.5
 20
303.0
 40
3.0
 50
270.0
 51
0.0
  0
LINE
  8
0
  6
CONTINUOUS
 62
     1
 10
952.5
 20
300.0
 11
950.0
 21
300.0
  0
LINE
  8
0
  6
CONTINUOUS
 62
     1
 10
350.0
 20
300.0
 11
347.5
 21
300.0
  0
ARC
  8
0
  6
CONTINUOUS
 62
     1
 10
347.5
 20
303.0
 40
3.0
 50
180.0
 51
270.0
  0
LINE
  8
0
  6
CONTINUOUS
 62
     1
 10
344.5
 20
303.0
 11
344.5
 21
327.0
  0
ARC
  8
0
  6
CONTINUOUS
 62
     1
 10
347.5
 20
327.0
 40
3.0
 50
90.0
 51
180.0
  0
LINE
  8
0
  6
CONTINUOUS
 62
     1
 10
347.5
 20
330.0
 11
350.0
 21
330.0
  0
LINE
  8
0
  6
CONTINUOUS
 62
     1
 10
950.0
 20
240.5
 11
950.0
 21
289.9
  0
LINE
  8
0
  6
CONTINUOUS
 62
     1
 10
350.0
 20
240.5
 11
350.0
 21
290.0
  0
LINE
  8
0
  6
CONTINUOUS
 62
     1
 10
350.0
 20
241.0
 11
350.0
 21
200.2
  0
LINE
  8
0
  6
CONTINUOUS
 62
     1
 10
950.0
 20
241.0
 11
950.0
 21
200.2
  0
LINE
  8
0
  6
CONTINUOUS
 62
     1
 10
362.1
 20
207.0
 11
350.0
 21
210.2
  0
LINE
  8
0
  6
CONTINUOUS
 62
     1
 10
350.0
 20
210.2
 11
362.1
 21
213.4
  0
LINE
  8
0
  6
CONTINUOUS
 62
     1
 10
350.0
 20
210.2
 11
950.0
 21
210.2
  0
LINE
  8
0
  6
CONTINUOUS
 62
     1
 10
937.9
 20
207.0
 11
950.0
 21
210.2
  0
LINE
  8
0
  6
CONTINUOUS
 62
     1
 10
950.0
 20
210.2
 11
937.9
 21
213.4
  0
TEXT
  8
0
  6
CONTINUOUS
 62
     1
 10
630.3
 20
217.7
 30
1.875
 40
15.0
  1
６００
 50
0.0
 41
0.75
 51
0.0
  7
KANJI0
  0
CIRCLE
  8
0
  6
CONTINUOUS
 62
     1
 10
537.0
 20
955.9
 40
7.0
  0
LINE
  8
0
  6
CONTINUOUS
 62
     1
 10
535.2
 20
958.2
 11
534.2
 21
955.4
  0
LINE
  8
0
  6
CONTINUOUS
 62
     1
 10
534.2
 20
955.4
 11
536.1
 21
953.2
  0
LINE
  8
0
  6
CONTINUOUS
 62
     1
 10
536.1
 20
953.2
 11
538.9
 21
953.7
  0
LINE
  8
0
  6
CONTINUOUS
 62
     1
 10
538.9
 20
953.7
 11
539.9
 21
956.4
  0
LINE
  8
0
  6
CONTINUOUS
 62
     1
 10
539.9
 20
956.4
 11
538.0
 21
958.6
  0
LINE
  8
0
  6
CONTINUOUS
 62
     1
 10
538.0
 20
958.6
 11
535.2
 21
958.2
  0
CIRCLE
  8
0
  6
CONTINUOUS
 62
     1
 10
537.0
 20
955.9
 40
3.5
  0
CIRCLE
  8
0
  6
CONTINUOUS
 62
     1
 10
561.4
 20
818.1
 40
12.0
  0
LINE
  8
0
  6
CONTINUOUS
 62
     1
 10
568.4
 20
826.5
 11
557.6
 21
828.4
  0
LINE
  8
0
  6
CONTINUOUS
 62
     1
 10
557.6
 20
828.4
 11
550.6
 21
820.0
  0
LINE
  8
0
  6
CONTINUOUS
 62
     1
 10
550.6
 20
820.0
 11
554.3
 21
809.6
  0
LINE
  8
0
  6
CONTINUOUS
 62
     1
 10
554.3
 20
809.6
 11
565.1
 21
807.8
  0
LINE
  8
0
  6
CONTINUOUS
 62
     1
 10
565.1
 20
807.8
 11
572.2
 21
816.1
  0
LINE
  8
0
  6
CONTINUOUS
 62
     1
 10
572.2
 20
816.1
 11
568.4
 21
826.5
  0
LINE
  8
0
  6
CONTINUOUS
 62
     1
 10
647.9
 20
382.0
 11
637.6
 21
385.7
  0
LINE
  8
0
  6
CONTINUOUS
 62
     1
 10
637.6
 20
385.7
 11
629.2
 21
378.7
  0
LINE
  8
0
  6
CONTINUOUS
 62
     1
 10
629.2
 20
378.7
 11
631.1
 21
367.8
  0
LINE
  8
0
  6
CONTINUOUS
 62
     1
 10
631.1
 20
367.8
 11
641.4
 21
364.1
  0
LINE
  8
0
  6
CONTINUOUS
 62
     1
 10
641.4
 20
364.1
 11
649.8
 21
371.1
  0
LINE
  8
0
  6
CONTINUOUS
 62
     1
 10
649.8
 20
371.1
 11
647.9
 21
382.0
  0
CIRCLE
  8
0
  6
CONTINUOUS
 62
     1
 10
639.5
 20
374.9
 40
12.0
  0
LINE
  8
0
  6
CONTINUOUS
 62
     1
 10
672.9
 20
330.0
 11
672.9
 21
540.0
  0
LINE
  8
0
  6
CONTINUOUS
 62
     1
 10
949.9
 20
335.0
 11
949.9
 21
540.0
  0
LINE
  8
0
  6
CONTINUOUS
 62
     1
 10
685.0
 20
526.8
 11
672.9
 21
530.0
  0
LINE
  8
0
  6
CONTINUOUS
 62
     1
 10
672.9
 20
530.0
 11
685.0
 21
533.2
  0
LINE
  8
0
  6
CONTINUOUS
 62
     1
 10
672.9
 20
530.0
 11
949.9
 21
530.0
  0
LINE
  8
0
  6
CONTINUOUS
 62
     1
 10
937.8
 20
526.8
 11
949.9
 21
530.0
  0
LINE
  8
0
  6
CONTINUOUS
 62
     1
 10
949.9
 20
530.0
 11
937.8
 21
533.2
  0
TEXT
  8
0
  6
CONTINUOUS
 62
     1
 10
791.7
 20
537.5
 30
1.875
 40
15.0
  1
２７７
 50
0.0
 41
0.75
 51
0.0
  7
KANJI0
  0
LINE
  8
0
  6
CONTINUOUS
 62
     1
 10
346.9
 20
977.9
 11
346.9
 21
997.9
  0
LINE
  8
0
  6
CONTINUOUS
 62
     1
 10
346.9
 20
997.9
 11
344.9
 21
997.9
  0
LINE
  8
0
  6
CONTINUOUS
 62
     1
 10
344.9
 20
997.9
 11
344.9
 21
975.9
  0
ARC
  8
0
  6
CONTINUOUS
 62
     1
 10
346.9
 20
975.9
 40
2.0
 50
180.0
 51
270.0
  0
ARC
  8
0
  6
CONTINUOUS
 62
     1
 10
534.3
 20
906.0
 40
4.1
 50
230.0
 51
317.0
  0
CIRCLE
  8
0
  6
CONTINUOUS
 62
     1
 10
523.2
 20
907.9
 40
4.1
  0
LINE
  8
0
  6
CONTINUOUS
 62
     1
 10
551.0
 20
911.2
 11
544.4
 21
913.6
  0
LINE
  8
0
  6
CONTINUOUS
 62
     1
 10
544.4
 20
913.6
 11
539.0
 21
909.0
  0
LINE
  8
0
  6
CONTINUOUS
 62
     1
 10
539.0
 20
909.0
 11
540.2
 21
902.2
  0
LINE
  8
0
  6
CONTINUOUS
 62
     1
 10
540.2
 20
902.2
 11
546.8
 21
899.8
  0
LINE
  8
0
  6
CONTINUOUS
 62
     1
 10
546.8
 20
899.8
 11
552.2
 21
904.3
  0
LINE
  8
0
  6
CONTINUOUS
 62
     1
 10
552.2
 20
904.3
 11
551.0
 21
911.2
  0
CIRCLE
  8
0
  6
CONTINUOUS
 62
     1
 10
545.6
 20
906.7
 40
9.0
  0
ARC
  8
0
  6
CONTINUOUS
 62
     1
 10
534.3
 20
906.0
 40
4.1
 50
50.0
 51
230.0
  0
LINE
  8
0
  6
LTYPE2
 62
     1
 10
895.7
 20
1155.4
 11
356.5
 21
892.4
  0
LINE
  8
0
  6
LTYPE2
 62
     1
 10
909.7
 20
1126.6
 11
895.7
 21
1155.4
  0
LINE
  8
0
  6
LTYPE2
 62
     1
 10
909.7
 20
1126.6
 11
585.5
 21
901.8
  0
LINE
  8
0
  6
LTYPE2
 62
     1
 10
370.5
 20
863.6
 11
356.5
 21
892.4
  0
LINE
  8
0
  6
LTYPE2
 62
     1
 10
540.6
 20
879.8
 11
370.5
 21
863.6
  0
LINE
  8
0
  6
CONTINUOUS
 62
     1
 10
916.9
 20
955.9
 11
972.9
 21
955.9
  0
ARC
  8
0
  6
CONTINUOUS
 62
     1
 10
536.9
 20
955.9
 40
450.0
 50
0.0
 51
26.0
  0
LINE
  8
0
  6
CONTINUOUS
 62
     1
 10
988.8
 20
963.2
 11
986.9
 21
955.9
  0
LINE
  8
0
  6
CONTINUOUS
 62
     1
 10
986.9
 20
955.9
 11
984.9
 21
963.1
  0
LINE
  8
0
  6
CONTINUOUS
 62
     1
 10
942.7
 20
1145.8
 11
941.4
 21
1153.2
  0
LINE
  8
0
  6
CONTINUOUS
 62
     1
 10
941.4
 20
1153.2
 11
946.2
 21
1147.4
  0
LINE
  8
0
  6
CONTINUOUS
 62
     1
 10
916.9
 20
955.9
 11
992.9
 21
955.9
  0
LINE
  8
0
  6
CONTINUOUS
 62
     1
 10
878.4
 20
1122.5
 11
946.8
 21
1155.8
  0
LINE
  8
0
  6
CONTINUOUS
 62
     1
 10
376.9
 20
977.9
 11
376.9
 21
980.9
  0
LINE
  8
0
  6
CONTINUOUS
 62
     1
 10
376.9
 20
980.9
 11
416.9
 21
980.9
  0
LINE
  8
0
  6
CONTINUOUS
 62
     1
 10
416.9
 20
980.9
 11
416.9
 21
977.9
  0
LINE
  8
0
  6
CONTINUOUS
 62
     1
 10
916.9
 20
977.9
 11
916.9
 21
980.9
  0
LINE
  8
0
  6
CONTINUOUS
 62
     1
 10
876.9
 20
980.9
 11
876.9
 21
977.9
  0
LINE
  8
0
  6
CONTINUOUS
 62
     1
 10
876.7
 20
980.9
 11
916.7
 21
980.9
  0
LINE
  8
0
  6
CONTINUOUS
 62
     1
 10
345.9
 20
297.0
 11
219.9
 21
297.0
  0
TEXT
  8
0
  6
CONTINUOUS
 62
     1
 10
972.2
 20
1076.4
 30
0.9
 40
18.0
  1
２６゜
 50
283.0
 41
0.7
 51
0.0
  7
KANJI2
  0
LINE
  8
0
  6
CONTINUOUS
 62
     1
 10
346.9
 20
935.9
 11
346.9
 21
763.0
  0
LINE
  8
0
  6
CONTINUOUS
 62
     1
 10
346.9
 20
768.0
 11
354.144443697
 21
766.058857162
  0
LINE
  8
0
  6
CONTINUOUS
 62
     1
 10
346.9
 20
768.0
 11
354.144443697
 21
769.941142838
  0
LINE
  8
0
  6
CONTINUOUS
 62
     1
 10
346.9
 20
768.0
 11
524.0
 21
768.0
  0
LINE
  8
0
  6
CONTINUOUS
 62
     1
 10
524.0
 20
768.0
 11
516.755556303
 21
769.941142838
  0
LINE
  8
0
  6
CONTINUOUS
 62
     1
 10
524.0
 20
768.0
 11
516.755556303
 21
766.058857162
  0
LINE
  8
0
  6
CONTINUOUS
 62
     1
 10
524.0
 20
865.9
 11
524.0
 21
763.0
  0
TEXT
  8
0
  6
CONTINUOUS
 62
     1
 10
415.2
 20
773.0
 30
0.0
 40
15.0
  1
１７７
 50
0.0
 41
0.9
 51
0.0
  7
KANJI3
  0
LINE
  8
0
  6
CONTINUOUS
 62
     1
 10
360.5
 20
863.6
 11
264.9
 21
863.6
  0
LINE
  8
0
  6
CONTINUOUS
 62
     1
 10
269.9
 20
863.6
 11
267.958857162
 21
856.355556303
  0
LINE
  8
0
  6
CONTINUOUS
 62
     1
 10
269.9
 20
863.6
 11
271.841142838
 21
856.355556303
  0
LINE
  8
0
  6
CONTINUOUS
 62
     1
 10
269.9
 20
863.6
 11
269.9
 21
297.0
  0
LINE
  8
0
  6
CONTINUOUS
 62
     1
 10
269.9
 20
297.0
 11
271.841142838
 21
304.244443697
  0
LINE
  8
0
  6
CONTINUOUS
 62
     1
 10
269.9
 20
297.0
 11
267.958857162
 21
304.244443697
  0
TEXT
  8
0
  6
CONTINUOUS
 62
     1
 10
264.9
 20
560.05
 30
0.0
 40
15.0
  1
５６６
 50
90.0
 41
0.9
 51
0.0
  7
KANJI3
  0
LINE
  8
0
  6
CONTINUOUS
 62
     1
 10
956.9
 20
977.9
 11
1100.2
 21
977.9
  0
LINE
  8
0
  6
CONTINUOUS
 62
     1
 10
1095.2
 20
977.9
 11
1093.258857162
 21
970.655556303
  0
LINE
  8
0
  6
CONTINUOUS
 62
     1
 10
1095.2
 20
977.9
 11
1097.141142838
 21
970.655556303
  0
LINE
  8
0
  6
CONTINUOUS
 62
     1
 10
1095.2
 20
977.9
 11
1095.2
 21
299.9
  0
LINE
  8
0
  6
CONTINUOUS
 62
     1
 10
1095.2
 20
299.9
 11
1097.141142838
 21
307.144443697
  0
LINE
  8
0
  6
CONTINUOUS
 62
     1
 10
1095.2
 20
299.9
 11
1093.258857162
 21
307.144443697
  0
LINE
  8
0
  6
CONTINUOUS
 62
     1
 10
956.9
 20
299.9
 11
1100.2
 21
299.9
  0
TEXT
  8
0
  6
CONTINUOUS
 62
     1
 10
1090.2
 20
618.65
 30
0.0
 40
15.0
  1
６８０
 50
90.0
 41
0.9
 51
0.0
  7
KANJI3
  0
LINE
  8
0
  6
CONTINUOUS
 62
     1
 10
219.9
 20
945.9
 11
217.958857162
 21
938.655556303
  0
LINE
  8
0
  6
CONTINUOUS
 62
     1
 10
219.9
 20
945.9
 11
221.841142838
 21
938.655556303
  0
LINE
  8
0
  6
CONTINUOUS
 62
     1
 10
219.9
 20
945.9
 11
219.9
 21
297.0
  0
LINE
  8
0
  6
CONTINUOUS
 62
     1
 10
219.9
 20
297.0
 11
221.841142838
 21
304.244443697
  0
LINE
  8
0
  6
CONTINUOUS
 62
     1
 10
219.9
 20
297.0
 11
217.958857162
 21
304.244443697
  0
LINE
  8
0
  6
CONTINUOUS
 62
     1
 10
229.9
 20
297.0
 11
214.9
 21
297.0
  0
TEXT
  8
0
  6
CONTINUOUS
 62
     1
 10
214.9
 20
601.2
 30
0.0
 40
15.0
  1
６４８
 50
90.0
 41
0.9
 51
0.0
  7
KANJI3
  0
LINE
  8
0
  6
CONTINUOUS
 62
     1
 10
219.9
 20
945.9
 11
221.841142838
 21
953.144443697
  0
LINE
  8
0
  6
CONTINUOUS
 62
     1
 10
219.9
 20
945.9
 11
217.958857162
 21
953.144443697
  0
LINE
  8
0
  6
CONTINUOUS
 62
     1
 10
219.9
 20
945.9
 11
219.9
 21
977.9
  0
LINE
  8
0
  6
CONTINUOUS
 62
     1
 10
219.9
 20
977.9
 11
217.958857162
 21
970.655556303
  0
LINE
  8
0
  6
CONTINUOUS
 62
     1
 10
219.9
 20
977.9
 11
221.841142838
 21
970.655556303
  0
TEXT
  8
0
  6
CONTINUOUS
 62
     1
 10
214.9
 20
948.4
 30
0.0
 40
15.0
  1
３２
 50
90.0
 41
0.9
 51
0.0
  7
KANJI3
  0
LINE
  8
0
  6
CONTINUOUS
 62
     1
 10
339.2
 20
977.9
 11
214.9
 21
977.9
  0
LINE
  8
0
  6
CONTINUOUS
 62
     1
 10
339.2
 20
945.9
 11
214.9
 21
945.9
  0
TEXT
  8
0
  6
CONTINUOUS
 62
     1
 10
169.2
 20
1950.4
 30
2.0
 40
20.0
  1
平面図（上から見る）
 50
0.0
 41
0.9
 51
0.0
  7
KANJI4
  0
TEXT
  8
0
  6
CONTINUOUS
 62
     1
 10
169.2
 20
1020.4
 30
2.0
 40
20.0
  1
側面図（横から見る）
 50
0.0
 41
0.9
 51
0.0
  7
KANJI4
  0
TEXT
  8
0
  6
CONTINUOUS
 62
     1
 10
169.2
 20
120.4
 30
2.0
 40
20.0
  1
ＭＸＳ－５０９Ｎ
 50
0.0
 41
0.9
 51
0.0
  7
KANJI4
  0
LINE
  8
0
  6
CONTINUOUS
 62
     1
 10
350.2
 20
1865.4
 11
350.2
 21
1715.4
  0
LINE
  8
0
  6
CONTINUOUS
 62
     1
 10
350.2
 20
1720.4
 11
357.444443697
 21
1718.458857162
  0
LINE
  8
0
  6
CONTINUOUS
 62
     1
 10
350.2
 20
1720.4
 11
357.444443697
 21
1722.341142838
  0
LINE
  8
0
  6
CONTINUOUS
 62
     1
 10
350.2
 20
1720.4
 11
548.5
 21
1720.4
  0
LINE
  8
0
  6
CONTINUOUS
 62
     1
 10
548.5
 20
1720.4
 11
541.255556303
 21
1722.341142838
  0
LINE
  8
0
  6
CONTINUOUS
 62
     1
 10
548.5
 20
1720.4
 11
541.255556303
 21
1718.458857162
  0
TEXT
  8
0
  6
CONTINUOUS
 62
     1
 10
429.1
 20
1725.4
 30
0.0
 40
15.0
  1
１９８
 50
0.0
 41
0.9
 51
0.0
  7
KANJI3
  0
LINE
  8
0
  6
CONTINUOUS
 62
     1
 10
350.2
 20
1720.4
 11
350.2
 21
1675.4
  0
LINE
  8
0
  6
CONTINUOUS
 62
     1
 10
350.2
 20
1680.4
 11
357.444443697
 21
1678.458857162
  0
LINE
  8
0
  6
CONTINUOUS
 62
     1
 10
350.2
 20
1680.4
 11
357.444443697
 21
1682.341142838
  0
LINE
  8
0
  6
CONTINUOUS
 62
     1
 10
350.2
 20
1680.4
 11
626.7
 21
1680.4
  0
LINE
  8
0
  6
CONTINUOUS
 62
     1
 10
626.7
 20
1680.4
 11
619.455556303
 21
1682.341142838
  0
LINE
  8
0
  6
CONTINUOUS
 62
     1
 10
626.7
 20
1680.4
 11
619.455556303
 21
1678.458857162
  0
TEXT
  8
0
  6
CONTINUOUS
 62
     1
 10
468.2
 20
1685.4
 30
0.0
 40
15.0
  1
２７６
 50
0.0
 41
0.9
 51
0.0
  7
KANJI3
  0
TEXT
  8
0
  6
CONTINUOUS
 62
     1
 10
169.2
 20
70.4
 30
1.5
 40
25.0
  1
Ａ４　１／７
 50
0.0
 41
1.0
 51
0.0
  7
KANJI5
  0
ENDSEC
  0
EOF
