  0
SECTION
  2
HEADER
  9
$EXTMIN
 10
0.0
 20
0.0
 30
0.0
  9
$EXTMAX
 10
630.0
 20
445.5
 30
0.0
  9
$LIMMIN
 10
0.0
 20
0.0
  9
$LIMMAX
 10
630.0
 20
445.5
  9
$LTSCALE
 40
1.0
  9
$PDMODE
 70
     0
  0
ENDSEC
  0
SECTION
  2
TABLES
  0
TABLE
  2
LTYPE
 70
     4
  0
LTYPE
  2
CONTINUOUS
 70
    64
  3
Solid line
 72
    65
 73
     0
 40
0.0
  0
LTYPE
  2
LTYPE1
 70
    64
  3
CENTER
 72
    65
 73
     4
 40
22.5
 49
15.75
 49
-2.25
 49
2.25
 49
-2.25
  0
LTYPE
  2
LTYPE2
 70
    64
  3
PHANTOM
 72
    65
 73
     6
 40
22.5
 49
16.875
 49
-1.125
 49
1.125
 49
-1.125
 49
1.125
 49
-1.125
  0
LTYPE
  2
LTYPE3
 70
    64
  3
HIDDEN
 72
    65
 73
     2
 40
4.5
 49
2.7
 49
-1.8
  0
ENDTAB
  0
TABLE
  2
LAYER
 70
   128
  0
LAYER
  2
0
 70
     0
 62
     7
  6
CONTINUOUS
  0
LAYER
  2
1
 70
     0
 62
     7
  6
CONTINUOUS
  0
LAYER
  2
2
 70
     0
 62
     7
  6
CONTINUOUS
  0
LAYER
  2
3
 70
     0
 62
     7
  6
CONTINUOUS
  0
LAYER
  2
4
 70
     0
 62
     7
  6
CONTINUOUS
  0
LAYER
  2
5
 70
     0
 62
     7
  6
CONTINUOUS
  0
LAYER
  2
6
 70
     0
 62
     7
  6
CONTINUOUS
  0
LAYER
  2
7
 70
     0
 62
     7
  6
CONTINUOUS
  0
LAYER
  2
8
 70
     0
 62
     7
  6
CONTINUOUS
  0
LAYER
  2
9
 70
     0
 62
     7
  6
CONTINUOUS
  0
LAYER
  2
10
 70
     0
 62
     7
  6
CONTINUOUS
  0
LAYER
  2
11
 70
     0
 62
     7
  6
CONTINUOUS
  0
LAYER
  2
12
 70
     0
 62
     7
  6
CONTINUOUS
  0
LAYER
  2
13
 70
     0
 62
     7
  6
CONTINUOUS
  0
LAYER
  2
14
 70
     0
 62
     7
  6
CONTINUOUS
  0
LAYER
  2
15
 70
     0
 62
     7
  6
CONTINUOUS
  0
LAYER
  2
16
 70
     0
 62
     7
  6
CONTINUOUS
  0
LAYER
  2
17
 70
     0
 62
     7
  6
CONTINUOUS
  0
LAYER
  2
18
 70
     0
 62
     7
  6
CONTINUOUS
  0
LAYER
  2
19
 70
     0
 62
     7
  6
CONTINUOUS
  0
LAYER
  2
20
 70
     0
 62
     7
  6
CONTINUOUS
  0
LAYER
  2
21
 70
     0
 62
     7
  6
CONTINUOUS
  0
LAYER
  2
22
 70
     0
 62
     7
  6
CONTINUOUS
  0
LAYER
  2
23
 70
     0
 62
     7
  6
CONTINUOUS
  0
LAYER
  2
24
 70
     0
 62
     7
  6
CONTINUOUS
  0
LAYER
  2
25
 70
     0
 62
     7
  6
CONTINUOUS
  0
LAYER
  2
26
 70
     0
 62
     7
  6
CONTINUOUS
  0
LAYER
  2
27
 70
     0
 62
     7
  6
CONTINUOUS
  0
LAYER
  2
28
 70
     0
 62
     7
  6
CONTINUOUS
  0
LAYER
  2
29
 70
     0
 62
     7
  6
CONTINUOUS
  0
LAYER
  2
30
 70
     0
 62
     7
  6
CONTINUOUS
  0
LAYER
  2
31
 70
     0
 62
     7
  6
CONTINUOUS
  0
LAYER
  2
32
 70
     0
 62
     7
  6
CONTINUOUS
  0
LAYER
  2
33
 70
     0
 62
     7
  6
CONTINUOUS
  0
LAYER
  2
34
 70
     0
 62
     7
  6
CONTINUOUS
  0
LAYER
  2
35
 70
     0
 62
     7
  6
CONTINUOUS
  0
LAYER
  2
36
 70
     0
 62
     7
  6
CONTINUOUS
  0
LAYER
  2
37
 70
     0
 62
     7
  6
CONTINUOUS
  0
LAYER
  2
38
 70
     0
 62
     7
  6
CONTINUOUS
  0
LAYER
  2
39
 70
     0
 62
     7
  6
CONTINUOUS
  0
LAYER
  2
40
 70
     0
 62
     7
  6
CONTINUOUS
  0
LAYER
  2
41
 70
     0
 62
     7
  6
CONTINUOUS
  0
LAYER
  2
42
 70
     0
 62
     7
  6
CONTINUOUS
  0
LAYER
  2
43
 70
     0
 62
     7
  6
CONTINUOUS
  0
LAYER
  2
44
 70
     0
 62
     7
  6
CONTINUOUS
  0
LAYER
  2
45
 70
     0
 62
     7
  6
CONTINUOUS
  0
LAYER
  2
46
 70
     0
 62
     7
  6
CONTINUOUS
  0
LAYER
  2
47
 70
     0
 62
     7
  6
CONTINUOUS
  0
LAYER
  2
48
 70
     0
 62
     7
  6
CONTINUOUS
  0
LAYER
  2
49
 70
     0
 62
     7
  6
CONTINUOUS
  0
LAYER
  2
50
 70
     0
 62
     7
  6
CONTINUOUS
  0
LAYER
  2
51
 70
     0
 62
     7
  6
CONTINUOUS
  0
LAYER
  2
52
 70
     0
 62
     7
  6
CONTINUOUS
  0
LAYER
  2
53
 70
     0
 62
     7
  6
CONTINUOUS
  0
LAYER
  2
54
 70
     0
 62
     7
  6
CONTINUOUS
  0
LAYER
  2
55
 70
     0
 62
     7
  6
CONTINUOUS
  0
LAYER
  2
56
 70
     0
 62
     7
  6
CONTINUOUS
  0
LAYER
  2
57
 70
     0
 62
     7
  6
CONTINUOUS
  0
LAYER
  2
58
 70
     0
 62
     7
  6
CONTINUOUS
  0
LAYER
  2
59
 70
     0
 62
     7
  6
CONTINUOUS
  0
LAYER
  2
60
 70
     0
 62
     7
  6
CONTINUOUS
  0
LAYER
  2
61
 70
     0
 62
     7
  6
CONTINUOUS
  0
LAYER
  2
62
 70
     0
 62
     7
  6
CONTINUOUS
  0
LAYER
  2
63
 70
     0
 62
     7
  6
CONTINUOUS
  0
LAYER
  2
64
 70
     0
 62
     7
  6
CONTINUOUS
  0
LAYER
  2
65
 70
     0
 62
     7
  6
CONTINUOUS
  0
LAYER
  2
66
 70
     0
 62
     7
  6
CONTINUOUS
  0
LAYER
  2
67
 70
     0
 62
     7
  6
CONTINUOUS
  0
LAYER
  2
68
 70
     0
 62
     7
  6
CONTINUOUS
  0
LAYER
  2
69
 70
     0
 62
     7
  6
CONTINUOUS
  0
LAYER
  2
70
 70
     0
 62
     7
  6
CONTINUOUS
  0
LAYER
  2
71
 70
     0
 62
     7
  6
CONTINUOUS
  0
LAYER
  2
72
 70
     0
 62
     7
  6
CONTINUOUS
  0
LAYER
  2
73
 70
     0
 62
     7
  6
CONTINUOUS
  0
LAYER
  2
74
 70
     0
 62
     7
  6
CONTINUOUS
  0
LAYER
  2
75
 70
     0
 62
     7
  6
CONTINUOUS
  0
LAYER
  2
76
 70
     0
 62
     7
  6
CONTINUOUS
  0
LAYER
  2
77
 70
     0
 62
     7
  6
CONTINUOUS
  0
LAYER
  2
78
 70
     0
 62
     7
  6
CONTINUOUS
  0
LAYER
  2
79
 70
     0
 62
     7
  6
CONTINUOUS
  0
LAYER
  2
80
 70
     0
 62
     7
  6
CONTINUOUS
  0
LAYER
  2
81
 70
     0
 62
     7
  6
CONTINUOUS
  0
LAYER
  2
82
 70
     0
 62
     7
  6
CONTINUOUS
  0
LAYER
  2
83
 70
     0
 62
     7
  6
CONTINUOUS
  0
LAYER
  2
84
 70
     0
 62
     7
  6
CONTINUOUS
  0
LAYER
  2
85
 70
     0
 62
     7
  6
CONTINUOUS
  0
LAYER
  2
86
 70
     0
 62
     7
  6
CONTINUOUS
  0
LAYER
  2
87
 70
     0
 62
     7
  6
CONTINUOUS
  0
LAYER
  2
88
 70
     0
 62
     7
  6
CONTINUOUS
  0
LAYER
  2
89
 70
     0
 62
     7
  6
CONTINUOUS
  0
LAYER
  2
90
 70
     0
 62
     7
  6
CONTINUOUS
  0
LAYER
  2
91
 70
     0
 62
     7
  6
CONTINUOUS
  0
LAYER
  2
92
 70
     0
 62
     7
  6
CONTINUOUS
  0
LAYER
  2
93
 70
     0
 62
     7
  6
CONTINUOUS
  0
LAYER
  2
94
 70
     0
 62
     7
  6
CONTINUOUS
  0
LAYER
  2
95
 70
     0
 62
     7
  6
CONTINUOUS
  0
LAYER
  2
96
 70
     0
 62
     7
  6
CONTINUOUS
  0
LAYER
  2
97
 70
     0
 62
     7
  6
CONTINUOUS
  0
LAYER
  2
98
 70
     0
 62
     7
  6
CONTINUOUS
  0
LAYER
  2
99
 70
     0
 62
     7
  6
CONTINUOUS
  0
LAYER
  2
100
 70
     0
 62
     7
  6
CONTINUOUS
  0
LAYER
  2
101
 70
     0
 62
     7
  6
CONTINUOUS
  0
LAYER
  2
102
 70
     0
 62
     7
  6
CONTINUOUS
  0
LAYER
  2
103
 70
     0
 62
     7
  6
CONTINUOUS
  0
LAYER
  2
104
 70
     0
 62
     7
  6
CONTINUOUS
  0
LAYER
  2
105
 70
     0
 62
     7
  6
CONTINUOUS
  0
LAYER
  2
106
 70
     0
 62
     7
  6
CONTINUOUS
  0
LAYER
  2
107
 70
     0
 62
     7
  6
CONTINUOUS
  0
LAYER
  2
108
 70
     0
 62
     7
  6
CONTINUOUS
  0
LAYER
  2
109
 70
     0
 62
     7
  6
CONTINUOUS
  0
LAYER
  2
110
 70
     0
 62
     7
  6
CONTINUOUS
  0
LAYER
  2
111
 70
     0
 62
     7
  6
CONTINUOUS
  0
LAYER
  2
112
 70
     0
 62
     7
  6
CONTINUOUS
  0
LAYER
  2
113
 70
     0
 62
     7
  6
CONTINUOUS
  0
LAYER
  2
114
 70
     0
 62
     7
  6
CONTINUOUS
  0
LAYER
  2
115
 70
     0
 62
     7
  6
CONTINUOUS
  0
LAYER
  2
116
 70
     0
 62
     7
  6
CONTINUOUS
  0
LAYER
  2
117
 70
     0
 62
     7
  6
CONTINUOUS
  0
LAYER
  2
118
 70
     0
 62
     7
  6
CONTINUOUS
  0
LAYER
  2
119
 70
     0
 62
     7
  6
CONTINUOUS
  0
LAYER
  2
120
 70
     0
 62
     7
  6
CONTINUOUS
  0
LAYER
  2
121
 70
     0
 62
     7
  6
CONTINUOUS
  0
LAYER
  2
122
 70
     0
 62
     7
  6
CONTINUOUS
  0
LAYER
  2
123
 70
     0
 62
     7
  6
CONTINUOUS
  0
LAYER
  2
124
 70
     0
 62
     7
  6
CONTINUOUS
  0
LAYER
  2
125
 70
     0
 62
     7
  6
CONTINUOUS
  0
LAYER
  2
126
 70
     0
 62
     7
  6
CONTINUOUS
  0
LAYER
  2
127
 70
     0
 62
     7
  6
CONTINUOUS
  0
ENDTAB
  0
TABLE
  2
STYLE
 70
     6
  0
STYLE
  2
STANDARD
 70
     0
 40
0.0
 41
1.0
 50
0.0
 71
     0
 42
0.2
  3
txt
  4

  0
STYLE
  2
KANJI0
 70
     0
 40
6.363636364
 41
0.9
 50
0.0
 71
     0
 42
6.363636364
  3

  4
bigfont
  0
STYLE
  2
KANJI1
 70
     0
 40
8.484848485
 41
0.9
 50
0.0
 71
     0
 42
8.484848485
  3

  4
bigfont
  0
STYLE
  2
KANJI2
 70
     0
 40
4.5
 41
0.433333333
 50
0.0
 71
     0
 42
4.5
  3

  4
bigfont
  0
STYLE
  2
KANJI3
 70
     0
 40
4.5
 41
0.9
 50
0.0
 71
     0
 42
4.5
  3

  4
bigfont
  0
STYLE
  2
KANJI4
 70
     0
 40
7.5
 41
0.9
 50
0.0
 71
     0
 42
7.5
  3

  4
bigfont
  0
ENDTAB
  0
TABLE
  2
VIEW
 70
     0
  0
ENDTAB
  0
ENDSEC
  0
SECTION
  2
BLOCKS
  0
ENDSEC
  0
SECTION
  2
ENTITIES
  0
POLYLINE
  8
2
  6
CONTINUOUS
 62
     1
 66
     1
 70
     1
  0
VERTEX
  8
2
  6
CONTINUOUS
 62
     1
 10
21.212121212
 20
21.212121212
  0
VERTEX
  8
2
  6
CONTINUOUS
 62
     1
 10
604.545454545
 20
21.212121212
  0
VERTEX
  8
2
  6
CONTINUOUS
 62
     1
 10
604.545454545
 20
424.242424242
  0
VERTEX
  8
2
  6
CONTINUOUS
 62
     1
 10
21.212121212
 20
424.242424242
  0
SEQEND
  0
LINE
  8
2
  6
CONTINUOUS
 62
     1
 10
456.060606061
 20
33.939393939
 11
604.545454545
 21
33.939393939
  0
LINE
  8
2
  6
CONTINUOUS
 62
     1
 10
604.545454545
 20
46.666666667
 11
456.060606061
 21
46.666666667
  0
LINE
  8
2
  6
CONTINUOUS
 62
     1
 10
456.060606061
 20
59.393939394
 11
604.545454545
 21
59.393939394
  0
LINE
  8
2
  6
CONTINUOUS
 62
     1
 10
604.545454545
 20
72.121212121
 11
456.060606061
 21
72.121212121
  0
LINE
  8
2
  6
CONTINUOUS
 62
     1
 10
456.060606061
 20
84.848484848
 11
604.545454545
 21
84.848484848
  0
LINE
  8
2
  6
CONTINUOUS
 62
     1
 10
604.545454545
 20
97.575757576
 11
456.060606061
 21
97.575757576
  0
LINE
  8
2
  6
CONTINUOUS
 62
     1
 10
456.060606061
 20
97.575757576
 11
456.060606061
 21
21.212121212
  0
TEXT
  8
2
  6
CONTINUOUS
 62
     1
 10
461.363636364
 20
62.575757576
 30
0.636363636
 40
6.363636364
  1
黒色半艶消し焼付け塗装
 50
0.0
 41
0.9
 51
0.0
  7
KANJI0
  0
TEXT
  8
2
  6
CONTINUOUS
 62
     1
 10
461.363636364
 20
86.96969697
 30
0.848484848
 40
8.484848485
  1
ＢＣＨ－６０
 50
0.0
 41
0.9
 51
0.0
  7
KANJI1
  0
TEXT
  8
2
  6
CONTINUOUS
 62
     1
 10
461.363636364
 20
49.848484848
 30
0.636363636
 40
6.363636364
  1
自重　　１．３８ｋｇ
 50
0.0
 41
0.9
 51
0.0
  7
KANJI0
  0
TEXT
  8
2
  6
CONTINUOUS
 62
     1
 10
461.363636364
 20
37.121212121
 30
0.636363636
 40
6.363636364
  1
耐荷重　　１０ｋｇ
 50
0.0
 41
0.9
 51
0.0
  7
KANJI0
  0
TEXT
  8
2
  6
CONTINUOUS
 62
     1
 10
461.363636364
 20
75.303030303
 30
0.636363636
 40
6.363636364
  1
バトンクランプハンガー
 50
0.0
 41
0.9
 51
0.0
  7
KANJI0
  0
LINE
  8
6
  6
CONTINUOUS
 62
     1
 10
448.0
 20
131.95
 11
448.0
 21
120.75
  0
LINE
  8
6
  6
CONTINUOUS
 62
     1
 10
448.0
 20
123.75
 11
450.897777479
 21
122.973542865
  0
LINE
  8
6
  6
CONTINUOUS
 62
     1
 10
448.0
 20
123.75
 11
450.897777479
 21
124.526457135
  0
LINE
  8
6
  6
CONTINUOUS
 62
     1
 10
448.0
 20
123.75
 11
491.0
 21
123.75
  0
LINE
  8
6
  6
CONTINUOUS
 62
     1
 10
491.0
 20
123.75
 11
488.102222521
 21
124.526457135
  0
LINE
  8
6
  6
CONTINUOUS
 62
     1
 10
491.0
 20
123.75
 11
488.102222521
 21
122.973542865
  0
LINE
  8
6
  6
CONTINUOUS
 62
     1
 10
491.0
 20
169.249999401
 11
491.0
 21
120.75
  0
TEXT
  8
6
  6
CONTINUOUS
 62
     1
 10
464.925
 20
125.25
 30
0.45
 40
4.5
  1
（４３）
 50
0.0
 41
0.433333333
 51
0.0
  7
KANJI2
  0
LINE
  8
6
  6
CONTINUOUS
 62
     1
 10
336.2
 20
101.25
 11
357.2
 21
101.25
  0
LINE
  8
6
  6
CONTINUOUS
 62
     1
 10
354.2
 20
101.25
 11
353.423542865
 21
98.352222521
  0
LINE
  8
6
  6
CONTINUOUS
 62
     1
 10
354.2
 20
101.25
 11
354.976457135
 21
98.352222521
  0
LINE
  8
6
  6
CONTINUOUS
 62
     1
 10
354.2
 20
101.25
 11
354.2
 21
61.25
  0
LINE
  8
6
  6
CONTINUOUS
 62
     1
 10
354.2
 20
61.25
 11
354.976457135
 21
64.147777479
  0
LINE
  8
6
  6
CONTINUOUS
 62
     1
 10
354.2
 20
61.25
 11
353.423542865
 21
64.147777479
  0
LINE
  8
6
  6
CONTINUOUS
 62
     1
 10
336.2
 20
61.25
 11
357.2
 21
61.25
  0
TEXT
  8
6
  6
CONTINUOUS
 62
     1
 10
352.7
 20
79.075
 30
0.45
 40
4.5
  1
４０
 50
90.0
 41
0.433333333
 51
0.0
  7
KANJI2
  0
LINE
  8
6
  6
CONTINUOUS
 62
     1
 10
339.2
 20
64.25
 11
339.2
 21
43.25
  0
LINE
  8
6
  6
CONTINUOUS
 62
     1
 10
339.2
 20
46.25
 11
336.302222521
 21
47.026457135
  0
LINE
  8
6
  6
CONTINUOUS
 62
     1
 10
339.2
 20
46.25
 11
336.302222521
 21
45.473542865
  0
LINE
  8
6
  6
CONTINUOUS
 62
     1
 10
339.2
 20
46.25
 11
252.7
 21
46.25
  0
LINE
  8
6
  6
CONTINUOUS
 62
     1
 10
252.7
 20
46.25
 11
255.597777479
 21
45.473542865
  0
LINE
  8
6
  6
CONTINUOUS
 62
     1
 10
252.7
 20
46.25
 11
255.597777479
 21
47.026457135
  0
LINE
  8
6
  6
CONTINUOUS
 62
     1
 10
252.7
 20
64.25
 11
252.7
 21
43.25
  0
TEXT
  8
6
  6
CONTINUOUS
 62
     1
 10
293.775
 20
47.75
 30
0.45
 40
4.5
  1
８６
 50
0.0
 41
0.433333333
 51
0.0
  7
KANJI2
  0
LINE
  8
6
  6
CONTINUOUS
 62
     1
 10
265.95
 20
74.25
 11
265.95
 21
119.25
  0
LINE
  8
6
  6
CONTINUOUS
 62
     1
 10
265.95
 20
116.25
 11
268.847777479
 21
115.473542865
  0
LINE
  8
6
  6
CONTINUOUS
 62
     1
 10
265.95
 20
116.25
 11
268.847777479
 21
117.026457135
  0
LINE
  8
6
  6
CONTINUOUS
 62
     1
 10
265.95
 20
116.25
 11
325.95
 21
116.25
  0
LINE
  8
6
  6
CONTINUOUS
 62
     1
 10
325.95
 20
116.25
 11
323.052222521
 21
117.026457135
  0
LINE
  8
6
  6
CONTINUOUS
 62
     1
 10
325.95
 20
116.25
 11
323.052222521
 21
115.473542865
  0
LINE
  8
6
  6
CONTINUOUS
 62
     1
 10
325.95
 20
74.25
 11
325.95
 21
119.25
  0
TEXT
  8
6
  6
CONTINUOUS
 62
     1
 10
293.775
 20
117.75
 30
0.45
 40
4.5
  1
６０
 50
0.0
 41
0.433333333
 51
0.0
  7
KANJI2
  0
LINE
  8
6
  6
CONTINUOUS
 62
     1
 10
263.25
 20
77.95
 11
260.62301697
 21
76.501221148
  0
LINE
  8
6
  6
CONTINUOUS
 62
     1
 10
263.25
 20
77.95
 11
261.699355387
 21
75.381829195
  0
LINE
  8
6
  6
CONTINUOUS
 62
     1
 10
263.25
 20
77.95
 11
242.45
 21
57.95
  0
LINE
  8
6
  6
CONTINUOUS
 62
     1
 10
242.45
 20
57.95
 11
215.9
 21
57.95
  0
TEXT
  8
6
  6
CONTINUOUS
 62
     1
 10
215.9
 20
59.45
 30
0.45
 40
4.5
  1
２－φ６．２
 50
0.0
 41
0.9
 51
0.0
  7
KANJI3
  0
LINE
  8
6
  6
CONTINUOUS
 62
     1
 10
342.2
 20
138.75
 11
357.2
 21
138.75
  0
LINE
  8
6
  6
CONTINUOUS
 62
     1
 10
354.2
 20
138.75
 11
354.976457135
 21
141.647777479
  0
LINE
  8
6
  6
CONTINUOUS
 62
     1
 10
354.2
 20
138.75
 11
353.423542865
 21
141.647777479
  0
LINE
  8
6
  6
CONTINUOUS
 62
     1
 10
354.2
 20
138.75
 11
354.2
 21
193.250000066
  0
LINE
  8
6
  6
CONTINUOUS
 62
     1
 10
354.2
 20
193.250000066
 11
353.423542865
 21
190.352222587
  0
LINE
  8
6
  6
CONTINUOUS
 62
     1
 10
354.2
 20
193.250000066
 11
354.976457135
 21
190.352222587
  0
LINE
  8
6
  6
CONTINUOUS
 62
     1
 10
288.95
 20
193.250000066
 11
357.2
 21
193.250000066
  0
TEXT
  8
6
  6
CONTINUOUS
 62
     1
 10
352.7
 20
161.425000033
 30
0.45
 40
4.5
  1
５４．５
 50
90.0
 41
0.433333333
 51
0.0
  7
KANJI2
  0
LINE
  8
6
  6
CONTINUOUS
 62
     1
 10
357.2
 20
138.75
 11
367.2
 21
138.75
  0
LINE
  8
6
  6
CONTINUOUS
 62
     1
 10
364.2
 20
138.75
 11
364.976457135
 21
141.647777479
  0
LINE
  8
6
  6
CONTINUOUS
 62
     1
 10
364.2
 20
138.75
 11
363.423542865
 21
141.647777479
  0
LINE
  8
6
  6
CONTINUOUS
 62
     1
 10
354.2
 20
318.25
 11
354.976457135
 21
321.147777479
  0
LINE
  8
6
  6
CONTINUOUS
 62
     1
 10
354.2
 20
318.25
 11
353.423542865
 21
321.147777479
  0
LINE
  8
6
  6
CONTINUOUS
 62
     1
 10
276.45
 20
318.25
 11
357.2
 21
318.25
  0
LINE
  8
6
  6
CONTINUOUS
 62
     1
 10
430.1
 20
363.65
 11
430.1
 21
378.65
  0
LINE
  8
6
  6
CONTINUOUS
 62
     1
 10
430.1
 20
375.65
 11
432.997777479
 21
374.873542865
  0
LINE
  8
6
  6
CONTINUOUS
 62
     1
 10
430.1
 20
375.65
 11
432.997777479
 21
376.426457135
  0
LINE
  8
6
  6
CONTINUOUS
 62
     1
 10
430.1
 20
375.65
 11
465.9
 21
375.65
  0
LINE
  8
6
  6
CONTINUOUS
 62
     1
 10
465.9
 20
375.65
 11
463.002222521
 21
376.426457135
  0
LINE
  8
6
  6
CONTINUOUS
 62
     1
 10
465.9
 20
375.65
 11
463.002222521
 21
374.873542865
  0
LINE
  8
6
  6
CONTINUOUS
 62
     1
 10
465.9
 20
363.65
 11
465.9
 21
378.65
  0
TEXT
  8
6
  6
CONTINUOUS
 62
     1
 10
443.425
 20
377.15
 30
0.45
 40
4.5
  1
３５．８
 50
0.0
 41
0.433333333
 51
0.0
  7
KANJI2
  0
LINE
  8
6
  6
CONTINUOUS
 62
     1
 10
415.9
 20
385.65
 11
418.797777479
 21
384.873542865
  0
LINE
  8
6
  6
CONTINUOUS
 62
     1
 10
415.9
 20
385.65
 11
418.797777479
 21
386.426457135
  0
LINE
  8
6
  6
CONTINUOUS
 62
     1
 10
415.9
 20
385.65
 11
480.1
 21
385.65
  0
LINE
  8
6
  6
CONTINUOUS
 62
     1
 10
480.1
 20
385.65
 11
477.202222521
 21
386.426457135
  0
LINE
  8
6
  6
CONTINUOUS
 62
     1
 10
480.1
 20
385.65
 11
477.202222521
 21
384.873542865
  0
TEXT
  8
6
  6
CONTINUOUS
 62
     1
 10
443.425
 20
387.15
 30
0.45
 40
4.5
  1
６４．２
 50
0.0
 41
0.433333333
 51
0.0
  7
KANJI2
  0
LINE
  8
6
  6
CONTINUOUS
 62
     1
 10
308.45
 20
353.650002699
 11
308.45
 21
378.65
  0
LINE
  8
6
  6
CONTINUOUS
 62
     1
 10
308.45
 20
375.65
 11
305.552222521
 21
376.426457135
  0
LINE
  8
6
  6
CONTINUOUS
 62
     1
 10
308.45
 20
375.65
 11
305.552222521
 21
374.873542865
  0
LINE
  8
6
  6
CONTINUOUS
 62
     1
 10
308.45
 20
375.65
 11
283.45
 21
375.65
  0
LINE
  8
6
  6
CONTINUOUS
 62
     1
 10
283.45
 20
375.65
 11
286.347777479
 21
374.873542865
  0
LINE
  8
6
  6
CONTINUOUS
 62
     1
 10
283.45
 20
375.65
 11
286.347777479
 21
376.426457135
  0
TEXT
  8
6
  6
CONTINUOUS
 62
     1
 10
293.775
 20
377.15
 30
0.45
 40
4.5
  1
２５
 50
0.0
 41
0.433333333
 51
0.0
  7
KANJI2
  0
LINE
  8
6
  6
CONTINUOUS
 62
     1
 10
308.45
 20
378.65
 11
308.45
 21
388.65
  0
LINE
  8
6
  6
CONTINUOUS
 62
     1
 10
308.45
 20
385.65
 11
305.552222521
 21
386.426457135
  0
LINE
  8
6
  6
CONTINUOUS
 62
     1
 10
308.45
 20
385.65
 11
305.552222521
 21
384.873542865
  0
LINE
  8
6
  6
CONTINUOUS
 62
     1
 10
308.45
 20
385.65
 11
206.45
 21
385.65
  0
LINE
  8
6
  6
CONTINUOUS
 62
     1
 10
206.45
 20
385.65
 11
209.347777479
 21
384.873542865
  0
LINE
  8
6
  6
CONTINUOUS
 62
     1
 10
206.45
 20
385.65
 11
209.347777479
 21
386.426457135
  0
TEXT
  8
6
  6
CONTINUOUS
 62
     1
 10
254.075
 20
387.15
 30
0.45
 40
4.5
  1
１０２
 50
0.0
 41
0.433333333
 51
0.0
  7
KANJI2
  0
LINE
  8
6
  6
CONTINUOUS
 62
     1
 10
308.45
 20
388.65
 11
308.45
 21
398.65
  0
LINE
  8
6
  6
CONTINUOUS
 62
     1
 10
308.45
 20
395.65
 11
305.552222521
 21
396.426457135
  0
LINE
  8
6
  6
CONTINUOUS
 62
     1
 10
308.45
 20
395.65
 11
305.552222521
 21
394.873542865
  0
LINE
  8
6
  6
CONTINUOUS
 62
     1
 10
308.45
 20
395.65
 11
198.450002
 21
395.65
  0
LINE
  8
6
  6
CONTINUOUS
 62
     1
 10
198.450002
 20
395.65
 11
201.347779479
 21
394.873542865
  0
LINE
  8
6
  6
CONTINUOUS
 62
     1
 10
198.450002
 20
395.65
 11
201.347779479
 21
396.426457135
  0
TEXT
  8
6
  6
CONTINUOUS
 62
     1
 10
250.075001
 20
397.15
 30
0.45
 40
4.5
  1
１１０
 50
0.0
 41
0.433333333
 51
0.0
  7
KANJI2
  0
LINE
  8
6
  6
CONTINUOUS
 62
     1
 10
364.2
 20
138.75
 11
364.2
 21
360.65
  0
LINE
  8
6
  6
CONTINUOUS
 62
     1
 10
364.2
 20
360.65
 11
363.423542865
 21
357.752222521
  0
LINE
  8
6
  6
CONTINUOUS
 62
     1
 10
364.2
 20
360.65
 11
364.976457135
 21
357.752222521
  0
LINE
  8
6
  6
CONTINUOUS
 62
     1
 10
301.450003815
 20
360.65
 11
367.2
 21
360.65
  0
LINE
  8
6
  6
CONTINUOUS
 62
     1
 10
354.2
 20
360.65
 11
353.423542865
 21
357.752222521
  0
LINE
  8
6
  6
CONTINUOUS
 62
     1
 10
354.2
 20
360.65
 11
354.976457135
 21
357.752222521
  0
LINE
  8
6
  6
CONTINUOUS
 62
     1
 10
354.2
 20
360.65
 11
354.2
 21
318.25
  0
TEXT
  8
6
  6
CONTINUOUS
 62
     1
 10
352.7
 20
334.875
 30
0.45
 40
4.5
  1
４２．４
 50
90.0
 41
0.433333333
 51
0.0
  7
KANJI2
  0
TEXT
  8
6
  6
CONTINUOUS
 62
     1
 10
362.7
 20
243.925
 30
0.45
 40
4.5
  1
２２１．９
 50
90.0
 41
0.433333333
 51
0.0
  7
KANJI2
  0
LINE
  8
6
  6
CONTINUOUS
 62
     1
 10
283.45
 20
311.250002699
 11
283.45
 21
378.65
  0
LINE
  8
6
  6
CONTINUOUS
 62
     1
 10
206.45
 20
331.25
 11
206.45
 21
388.65
  0
LINE
  8
6
  6
CONTINUOUS
 62
     1
 10
198.450002
 20
246.25000005
 11
198.450002
 21
398.65
  0
LINE
  8
6
  6
CONTINUOUS
 62
     1
 10
415.9
 20
331.25
 11
415.9
 21
388.65
  0
LINE
  8
6
  6
CONTINUOUS
 62
     1
 10
480.1
 20
331.25
 11
480.1
 21
388.65
  0
LINE
  8
0
  6
CONTINUOUS
 62
     3
 10
435.3
 20
286.25
 11
460.7
 21
286.25
  0
ARC
  8
0
  6
CONTINUOUS
 62
     1
 10
427.8
 20
274.25
 40
12.5
 50
306.869897646
 51
53.130102354
  0
LINE
  8
0
  6
CONTINUOUS
 62
     1
 10
433.3
 20
284.25
 11
435.3
 21
284.25
  0
LINE
  8
0
  6
CONTINUOUS
 62
     1
 10
433.3
 20
264.25
 11
435.3
 21
264.25
  0
ARC
  8
0
  6
CONTINUOUS
 62
     1
 10
468.2
 20
274.25
 40
12.5
 50
126.869897646
 51
233.130102354
  0
LINE
  8
0
  6
CONTINUOUS
 62
     1
 10
462.7
 20
284.25
 11
460.7
 21
284.25
  0
LINE
  8
0
  6
CONTINUOUS
 62
     1
 10
462.7
 20
264.25
 11
460.7
 21
264.25
  0
LINE
  8
0
  6
CONTINUOUS
 62
     3
 10
435.3
 20
284.25
 11
435.3
 21
286.25
  0
LINE
  8
0
  6
CONTINUOUS
 62
     3
 10
460.7
 20
284.25
 11
460.7
 21
286.25
  0
LINE
  8
0
  6
CONTINUOUS
 62
     1
 10
433.3
 20
263.25
 11
435.3
 21
263.25
  0
LINE
  8
0
  6
CONTINUOUS
 62
     3
 10
435.3
 20
263.25
 11
435.3
 21
264.25
  0
LINE
  8
0
  6
CONTINUOUS
 62
     1
 10
462.7
 20
263.25
 11
460.7
 21
263.25
  0
LINE
  8
0
  6
CONTINUOUS
 62
     3
 10
460.7
 20
263.25
 11
460.7
 21
264.25
  0
LINE
  8
0
  6
CONTINUOUS
 62
     1
 10
426.1
 20
271.9
 11
426.1
 21
276.6
  0
LINE
  8
0
  6
CONTINUOUS
 62
     1
 10
430.1
 20
279.5
 11
429.3
 21
279.5
  0
LINE
  8
0
  6
CONTINUOUS
 62
     1
 10
430.1
 20
269.0
 11
430.1
 21
279.5
  0
LINE
  8
0
  6
CONTINUOUS
 62
     1
 10
430.1
 20
269.0
 11
429.3
 21
269.0
  0
ARC
  8
0
  6
CONTINUOUS
 62
     1
 10
429.549728261
 20
276.00892054
 40
3.5
 50
94.091583944
 51
170.277302687
  0
ARC
  8
0
  6
CONTINUOUS
 62
     1
 10
429.549728261
 20
272.49107946
 40
3.5
 50
189.722697313
 51
265.908416056
  0
LINE
  8
0
  6
CONTINUOUS
 62
     1
 10
426.1
 20
250.9
 11
426.1
 21
255.6
  0
LINE
  8
0
  6
CONTINUOUS
 62
     1
 10
430.1
 20
258.5
 11
429.3
 21
258.5
  0
LINE
  8
0
  6
CONTINUOUS
 62
     1
 10
430.1
 20
248.0
 11
430.1
 21
258.5
  0
LINE
  8
0
  6
CONTINUOUS
 62
     1
 10
430.1
 20
248.0
 11
429.3
 21
248.0
  0
ARC
  8
0
  6
CONTINUOUS
 62
     1
 10
429.549728261
 20
255.00892054
 40
3.5
 50
94.091583944
 51
170.277302687
  0
ARC
  8
0
  6
CONTINUOUS
 62
     1
 10
429.549728261
 20
251.49107946
 40
3.5
 50
189.722697313
 51
265.908416056
  0
LINE
  8
0
  6
CONTINUOUS
 62
     1
 10
469.9
 20
276.6
 11
469.9
 21
271.9
  0
LINE
  8
0
  6
CONTINUOUS
 62
     1
 10
465.9
 20
269.0
 11
466.7
 21
269.0
  0
LINE
  8
0
  6
CONTINUOUS
 62
     1
 10
465.9
 20
279.5
 11
465.9
 21
269.0
  0
LINE
  8
0
  6
CONTINUOUS
 62
     1
 10
465.9
 20
279.5
 11
466.7
 21
279.5
  0
ARC
  8
0
  6
CONTINUOUS
 62
     1
 10
466.450271739
 20
272.49107946
 40
3.5
 50
274.091583944
 51
350.277302687
  0
ARC
  8
0
  6
CONTINUOUS
 62
     1
 10
466.450271739
 20
276.00892054
 40
3.5
 50
9.722697313
 51
85.908416056
  0
LINE
  8
0
  6
CONTINUOUS
 62
     3
 10
425.9
 20
233.25
 11
425.9
 21
253.25
  0
LINE
  8
0
  6
CONTINUOUS
 62
     3
 10
426.1
 20
253.25
 11
425.9
 21
253.25
  0
LINE
  8
0
  6
CONTINUOUS
 62
     1
 10
469.9
 20
250.9
 11
469.9
 21
255.6
  0
LINE
  8
0
  6
CONTINUOUS
 62
     1
 10
465.9
 20
258.5
 11
466.7
 21
258.5
  0
LINE
  8
0
  6
CONTINUOUS
 62
     1
 10
465.9
 20
248.0
 11
465.9
 21
258.5
  0
LINE
  8
0
  6
CONTINUOUS
 62
     1
 10
465.9
 20
248.0
 11
466.7
 21
248.0
  0
ARC
  8
0
  6
CONTINUOUS
 62
     1
 10
466.450271739
 20
255.00892054
 40
3.5
 50
9.722697313
 51
85.908416056
  0
ARC
  8
0
  6
CONTINUOUS
 62
     1
 10
466.450271739
 20
251.49107946
 40
3.5
 50
274.091583944
 51
350.277302687
  0
LINE
  8
0
  6
CONTINUOUS
 62
     3
 10
470.1
 20
233.25
 11
470.1
 21
253.25
  0
LINE
  8
0
  6
CONTINUOUS
 62
     3
 10
469.9
 20
253.25
 11
470.1
 21
253.25
  0
LINE
  8
0
  6
CONTINUOUS
 62
     3
 10
448.0
 20
179.250000066
 11
435.5
 21
179.250000066
  0
ARC
  8
0
  6
CONTINUOUS
 62
     3
 10
435.5
 20
180.750000066
 40
1.5
 50
180.0
 51
270.0
  0
LINE
  8
0
  6
CONTINUOUS
 62
     3
 10
448.0
 20
172.249999934
 11
435.5
 21
172.249999934
  0
ARC
  8
0
  6
CONTINUOUS
 62
     3
 10
435.5
 20
170.749999934
 40
1.5
 50
90.0
 51
180.0
  0
ARC
  8
0
  6
CONTINUOUS
 62
     3
 10
460.5
 20
205.749999934
 40
1.5
 50
0.0
 51
90.0
  0
LINE
  8
0
  6
CONTINUOUS
 62
     3
 10
437.0
 20
148.25
 11
434.5
 21
154.75
  0
LINE
  8
0
  6
CONTINUOUS
 62
     3
 10
459.0
 20
148.25
 11
461.5
 21
154.75
  0
LINE
  8
0
  6
CONTINUOUS
 62
     3
 10
459.0
 20
148.25
 11
437.0
 21
148.25
  0
CIRCLE
  8
0
  6
CONTINUOUS
 62
     3
 10
448.0
 20
160.25
 40
3.0
  0
LINE
  8
0
  6
CONTINUOUS
 62
     1
 10
435.5
 20
170.749999934
 11
435.5
 21
167.250000972
  0
ARC
  8
0
  6
CONTINUOUS
 62
     1
 10
448.0
 20
167.25
 40
12.5
 50
179.999995482
 51
0.000004353
  0
LINE
  8
0
  6
CONTINUOUS
 62
     1
 10
460.5
 20
205.749999934
 11
460.5
 21
167.250000935
  0
LINE
  8
0
  6
CONTINUOUS
 62
     3
 10
462.0
 20
205.749999934
 11
462.0
 21
154.75
  0
LINE
  8
0
  6
CONTINUOUS
 62
     3
 10
434.0
 20
170.749999934
 11
434.0
 21
154.75
  0
LINE
  8
0
  6
CONTINUOUS
 62
     3
 10
462.0
 20
154.75
 11
434.0
 21
154.75
  0
LINE
  8
0
  6
CONTINUOUS
 62
     1
 10
448.0
 20
170.749999934
 11
435.5
 21
170.749999934
  0
LINE
  8
0
  6
CONTINUOUS
 62
     3
 10
428.999999923
 20
189.850000665
 11
429.000000077
 21
196.650000665
  0
LINE
  8
0
  6
CONTINUOUS
 62
     3
 10
429.000000077
 20
196.650000665
 11
429.599999946
 21
197.250000535
  0
LINE
  8
0
  6
CONTINUOUS
 62
     3
 10
428.999999923
 20
189.850000665
 11
429.600000054
 21
189.250000535
  0
LINE
  8
0
  6
CONTINUOUS
 62
     1
 10
429.599999946
 20
197.250000535
 11
429.600000054
 21
189.250000535
  0
LINE
  8
0
  6
CONTINUOUS
 62
     3
 10
421.000000056
 20
195.750000861
 11
421.500000069
 21
196.25000085
  0
LINE
  8
0
  6
CONTINUOUS
 62
     3
 10
421.499999931
 20
190.25000085
 11
428.999999932
 21
190.250000665
  0
LINE
  8
0
  6
CONTINUOUS
 62
     3
 10
420.999999944
 20
190.750000861
 11
421.000000056
 21
195.750000861
  0
LINE
  8
0
  6
CONTINUOUS
 62
     3
 10
421.499999931
 20
190.25000085
 11
420.999999944
 21
190.750000861
  0
LINE
  8
0
  6
CONTINUOUS
 62
     1
 10
421.500000069
 20
196.25000085
 11
421.499999931
 21
190.25000085
  0
LINE
  8
0
  6
CONTINUOUS
 62
     1
 10
429.000000077
 20
196.650000665
 11
434.0
 21
196.650000542
  0
LINE
  8
0
  6
CONTINUOUS
 62
     3
 10
429.599999946
 20
197.250000535
 11
434.0
 21
197.250000436
  0
LINE
  8
0
  6
CONTINUOUS
 62
     1
 10
428.999999923
 20
189.850000665
 11
434.0
 21
189.850000542
  0
LINE
  8
0
  6
CONTINUOUS
 62
     3
 10
429.600000054
 20
189.250000535
 11
434.0
 21
189.250000436
  0
LINE
  8
0
  6
CONTINUOUS
 62
     1
 10
449.732050808
 20
160.25
 11
448.866025404
 21
161.75
  0
LINE
  8
0
  6
CONTINUOUS
 62
     1
 10
448.866025404
 20
161.75
 11
447.133974596
 21
161.75
  0
LINE
  8
0
  6
CONTINUOUS
 62
     1
 10
447.133974596
 20
161.75
 11
446.267949192
 21
160.25
  0
LINE
  8
0
  6
CONTINUOUS
 62
     1
 10
446.267949192
 20
160.25
 11
447.133974596
 21
158.75
  0
LINE
  8
0
  6
CONTINUOUS
 62
     1
 10
447.133974596
 20
158.75
 11
448.866025404
 21
158.75
  0
LINE
  8
0
  6
CONTINUOUS
 62
     1
 10
448.866025404
 20
158.75
 11
449.732050808
 21
160.25
  0
LINE
  8
0
  6
CONTINUOUS
 62
     3
 10
441.0
 20
145.25
 11
441.0
 21
148.25
  0
LINE
  8
0
  6
CONTINUOUS
 62
     3
 10
455.0
 20
145.25
 11
455.0
 21
148.25
  0
LINE
  8
0
  6
CONTINUOUS
 62
     3
 10
468.0
 20
145.25
 11
468.0
 21
138.75
  0
LINE
  8
0
  6
CONTINUOUS
 62
     3
 10
468.0
 20
145.25
 11
428.0
 21
145.25
  0
LINE
  8
0
  6
CONTINUOUS
 62
     3
 10
428.0
 20
145.25
 11
428.0
 21
138.75
  0
LINE
  8
0
  6
CONTINUOUS
 62
     3
 10
468.0
 20
138.75
 11
428.0
 21
138.75
  0
LINE
  8
0
  6
CONTINUOUS
 62
     3
 10
468.0
 20
140.75
 11
428.0
 21
140.75
  0
LINE
  8
0
  6
CONTINUOUS
 62
     3
 10
426.0
 20
196.250000739
 11
429.000000068
 21
196.250000665
  0
LINE
  8
0
  6
CONTINUOUS
 62
     3
 10
421.500000069
 20
196.25000085
 11
424.0
 21
196.250000789
  0
ARC
  8
0
  6
CONTINUOUS
 62
     3
 10
236.45
 20
308.25
 40
10.0
 50
90.0
 51
179.999978133
  0
LINE
  8
0
  6
CONTINUOUS
 62
     3
 10
273.45
 20
318.25
 11
236.45
 21
318.25
  0
ARC
  8
0
  6
CONTINUOUS
 62
     3
 10
273.45
 20
308.25
 40
10.0
 50
0.000015462
 51
90.0
  0
LINE
  8
0
  6
CONTINUOUS
 62
     3
 10
206.45
 20
308.25
 11
206.45
 21
328.25
  0
ARC
  8
0
  6
CONTINUOUS
 62
     3
 10
216.45
 20
328.25
 40
10.0
 50
90.0
 51
180.0
  0
LINE
  8
0
  6
CONTINUOUS
 62
     3
 10
283.45
 20
308.250002697
 11
283.45
 21
263.258734639
  0
ARC
  8
0
  6
CONTINUOUS
 62
     3
 10
273.450003815
 20
263.25
 40
10.0
 50
270.0
 51
0.050045803
  0
ARC
  8
0
  6
CONTINUOUS
 62
     3
 10
216.45
 20
308.25
 40
10.0
 50
334.158065066
 51
0.000021867
  0
ARC
  8
0
  6
CONTINUOUS
 62
     3
 10
216.45
 20
308.25
 40
10.0
 50
180.0
 51
287.457602132
  0
LINE
  8
0
  6
CONTINUOUS
 62
     3
 10
308.45
 20
286.25
 11
308.65
 21
286.25
  0
LINE
  8
0
  6
CONTINUOUS
 62
     3
 10
283.25
 20
286.25
 11
283.45
 21
286.25
  0
LINE
  8
0
  6
CONTINUOUS
 62
     3
 10
283.25
 20
261.26000634
 11
283.25
 21
286.25
  0
LINE
  8
0
  6
CONTINUOUS
 62
     1
 10
298.259401077
 20
253.25
 11
297.104700538
 21
255.25
  0
LINE
  8
0
  6
CONTINUOUS
 62
     1
 10
297.104700538
 20
255.25
 11
294.795299462
 21
255.25
  0
LINE
  8
0
  6
CONTINUOUS
 62
     1
 10
294.795299462
 20
255.25
 11
293.640598923
 21
253.25
  0
LINE
  8
0
  6
CONTINUOUS
 62
     1
 10
293.640598923
 20
253.25
 11
294.795299462
 21
251.25
  0
LINE
  8
0
  6
CONTINUOUS
 62
     1
 10
294.795299462
 20
251.25
 11
297.104700538
 21
251.25
  0
LINE
  8
0
  6
CONTINUOUS
 62
     1
 10
297.104700538
 20
251.25
 11
298.259401077
 21
253.25
  0
CIRCLE
  8
0
  6
CONTINUOUS
 62
     1
 10
295.95
 20
253.25
 40
2.75
  0
LINE
  8
0
  6
CONTINUOUS
 62
     1
 10
298.259401077
 20
274.25
 11
297.104700538
 21
276.25
  0
LINE
  8
0
  6
CONTINUOUS
 62
     1
 10
297.104700538
 20
276.25
 11
294.795299462
 21
276.25
  0
LINE
  8
0
  6
CONTINUOUS
 62
     1
 10
294.795299462
 20
276.25
 11
293.640598923
 21
274.25
  0
LINE
  8
0
  6
CONTINUOUS
 62
     1
 10
293.640598923
 20
274.25
 11
294.795299462
 21
272.25
  0
LINE
  8
0
  6
CONTINUOUS
 62
     1
 10
294.795299462
 20
272.25
 11
297.104700538
 21
272.25
  0
LINE
  8
0
  6
CONTINUOUS
 62
     1
 10
297.104700538
 20
272.25
 11
298.259401077
 21
274.25
  0
CIRCLE
  8
0
  6
CONTINUOUS
 62
     1
 10
295.95
 20
274.25
 40
5.25
  0
CIRCLE
  8
0
  6
CONTINUOUS
 62
     1
 10
295.95
 20
274.25
 40
2.75
  0
ARC
  8
0
  6
CONTINUOUS
 62
     3
 10
295.95
 20
193.250000066
 40
14.0
 50
180.0
 51
0.0
  0
ARC
  8
0
  6
CONTINUOUS
 62
     3
 10
283.45
 20
170.749999934
 40
1.5
 50
89.999981786
 51
180.0
  0
LINE
  8
0
  6
CONTINUOUS
 62
     3
 10
308.450000674
 20
172.249999934
 11
283.450000477
 21
172.249999934
  0
ARC
  8
0
  6
CONTINUOUS
 62
     3
 10
308.45
 20
170.749999934
 40
1.5
 50
0.0
 51
89.999974242
  0
LINE
  8
0
  6
CONTINUOUS
 62
     3
 10
284.95
 20
148.25
 11
282.45
 21
154.75
  0
LINE
  8
0
  6
CONTINUOUS
 62
     3
 10
306.95
 20
148.25
 11
309.45
 21
154.75
  0
LINE
  8
0
  6
CONTINUOUS
 62
     3
 10
306.95
 20
148.25
 11
284.95
 21
148.25
  0
LINE
  8
0
  6
CONTINUOUS
 62
     1
 10
283.45
 20
170.749999934
 11
283.45
 21
167.250000972
  0
LINE
  8
0
  6
CONTINUOUS
 62
     3
 10
309.95
 20
154.75
 11
281.95
 21
154.75
  0
ARC
  8
0
  6
CONTINUOUS
 62
     1
 10
295.95
 20
167.25
 40
12.5
 50
179.999995482
 51
0.000005263
  0
LINE
  8
0
  6
CONTINUOUS
 62
     1
 10
308.45
 20
167.250001153
 11
308.45
 21
170.749999934
  0
LINE
  8
0
  6
CONTINUOUS
 62
     1
 10
308.45
 20
170.749999934
 11
283.450000477
 21
170.749999934
  0
ARC
  8
0
  6
CONTINUOUS
 62
     1
 10
295.95
 20
193.250000066
 40
12.5
 50
180.0
 51
0.0
  0
LINE
  8
0
  6
CONTINUOUS
 62
     3
 10
308.65
 20
244.214130928
 11
308.65
 21
286.25
  0
ARC
  8
0
  6
CONTINUOUS
 62
     1
 10
295.95
 20
253.25
 40
5.25
 50
285.967112291
 51
254.032887709
  0
ARC
  8
0
  6
CONTINUOUS
 62
     1
 10
216.45
 20
318.25
 40
5.0
 50
53.130104719
 51
306.869895281
  0
LINE
  8
0
  6
CONTINUOUS
 62
     3
 10
288.95
 20
145.25
 11
288.95
 21
148.25
  0
LINE
  8
0
  6
CONTINUOUS
 62
     3
 10
302.95
 20
145.25
 11
302.95
 21
148.25
  0
LINE
  8
0
  6
CONTINUOUS
 62
     3
 10
339.2
 20
138.75
 11
339.2
 21
140.75
  0
LINE
  8
0
  6
CONTINUOUS
 62
     3
 10
252.7
 20
138.75
 11
252.7
 21
140.75
  0
LINE
  8
0
  6
CONTINUOUS
 62
     3
 10
277.45
 20
140.75
 11
252.7
 21
140.75
  0
LINE
  8
0
  6
CONTINUOUS
 62
     3
 10
278.278427125
 20
138.75
 11
252.7
 21
138.75
  0
LINE
  8
0
  6
CONTINUOUS
 62
     3
 10
339.2
 20
140.75
 11
314.45
 21
140.75
  0
LINE
  8
0
  6
CONTINUOUS
 62
     3
 10
339.2
 20
138.75
 11
313.621572875
 21
138.75
  0
LINE
  8
0
  6
CONTINUOUS
 62
     3
 10
313.621572875
 20
138.75
 11
309.121572875
 21
143.25
  0
LINE
  8
0
  6
CONTINUOUS
 62
     3
 10
278.278427125
 20
138.75
 11
282.778427125
 21
143.25
  0
LINE
  8
0
  6
CONTINUOUS
 62
     3
 10
277.45
 20
140.75
 11
281.95
 21
145.25
  0
LINE
  8
0
  6
CONTINUOUS
 62
     3
 10
309.95
 20
145.25
 11
281.95
 21
145.25
  0
LINE
  8
0
  6
CONTINUOUS
 62
     3
 10
314.45
 20
140.75
 11
309.95
 21
145.25
  0
LINE
  8
0
  6
CONTINUOUS
 62
     3
 10
309.121572875
 20
143.25
 11
282.778427125
 21
143.25
  0
LINE
  8
0
  6
CONTINUOUS
 62
     1
 10
295.95
 20
142.368365096
 11
290.95
 21
143.25
  0
LINE
  8
0
  6
CONTINUOUS
 62
     1
 10
295.95
 20
142.368365096
 11
300.95
 21
143.25
  0
LINE
  8
0
  6
CONTINUOUS
 62
     1
 10
278.278427125
 20
101.25
 11
278.278427125
 21
61.25
  0
LINE
  8
0
  6
CONTINUOUS
 62
     1
 10
282.778427125
 20
101.25
 11
282.778427125
 21
61.25
  0
LINE
  8
0
  6
CONTINUOUS
 62
     1
 10
309.121572875
 20
101.25
 11
309.121572875
 21
61.25
  0
LINE
  8
0
  6
CONTINUOUS
 62
     1
 10
313.621572875
 20
101.25
 11
313.621572875
 21
61.25
  0
LINE
  8
0
  6
LTYPE1
 62
     1
 10
344.2
 20
81.25
 11
247.7
 21
81.25
  0
CIRCLE
  8
0
  6
CONTINUOUS
 62
     1
 10
295.95
 20
81.25
 40
5.0
  0
CIRCLE
  8
0
  6
CONTINUOUS
 62
     3
 10
265.95
 20
81.25
 40
3.1
  0
CIRCLE
  8
0
  6
CONTINUOUS
 62
     3
 10
325.95
 20
81.25
 40
3.1
  0
ARC
  8
0
  6
CONTINUOUS
 62
     3
 10
333.2
 20
95.25
 40
6.0
 50
0.0
 51
90.0
  0
LINE
  8
0
  6
CONTINUOUS
 62
     3
 10
339.2
 20
95.25
 11
339.2
 21
67.25
  0
ARC
  8
0
  6
CONTINUOUS
 62
     3
 10
333.2
 20
67.25
 40
6.0
 50
270.0
 51
0.0
  0
LINE
  8
0
  6
CONTINUOUS
 62
     3
 10
333.2
 20
61.25
 11
258.7
 21
61.25
  0
ARC
  8
0
  6
CONTINUOUS
 62
     3
 10
258.7
 20
67.25
 40
6.0
 50
180.0
 51
270.0
  0
LINE
  8
0
  6
CONTINUOUS
 62
     3
 10
333.2
 20
101.25
 11
258.7
 21
101.25
  0
LINE
  8
0
  6
CONTINUOUS
 62
     3
 10
252.7
 20
95.25
 11
252.7
 21
67.25
  0
ARC
  8
0
  6
CONTINUOUS
 62
     3
 10
258.7
 20
95.25
 40
6.0
 50
90.0
 51
180.0
  0
CIRCLE
  8
0
  6
CONTINUOUS
 62
     3
 10
295.95
 20
193.25
 40
4.0
  0
ARC
  8
0
  6
CONTINUOUS
 62
     1
 10
290.884272585
 20
194.562648634
 40
0.03303361
 50
205.605475354
 51
345.511083738
  0
LINE
  8
0
  6
LTYPE1
 62
     1
 10
295.95
 20
105.25
 11
295.95
 21
57.25
  0
LINE
  8
0
  6
CONTINUOUS
 62
     3
 10
415.9
 20
250.25
 11
415.9
 21
328.25
  0
LINE
  8
0
  6
CONTINUOUS
 62
     3
 10
421.9
 20
250.250003815
 11
421.9
 21
328.250003815
  0
LINE
  8
0
  6
CONTINUOUS
 62
     3
 10
430.1
 20
338.25
 11
425.9
 21
338.25
  0
ARC
  8
0
  6
CONTINUOUS
 62
     3
 10
425.9
 20
328.25
 40
10.0
 50
90.0
 51
180.0
  0
LINE
  8
0
  6
CONTINUOUS
 62
     3
 10
425.9
 20
332.25
 11
430.1
 21
332.25
  0
ARC
  8
0
  6
CONTINUOUS
 62
     3
 10
425.9
 20
328.25
 40
4.0
 50
90.0
 51
179.999945358
  0
LINE
  8
0
  6
CONTINUOUS
 62
     3
 10
465.9
 20
338.25
 11
470.1
 21
338.25
  0
ARC
  8
0
  6
CONTINUOUS
 62
     3
 10
470.1
 20
328.25
 40
10.0
 50
0.0
 51
90.0
  0
LINE
  8
0
  6
CONTINUOUS
 62
     3
 10
470.1
 20
332.25
 11
465.9
 21
332.25
  0
ARC
  8
0
  6
CONTINUOUS
 62
     3
 10
470.1
 20
328.25
 40
4.0
 50
0.000054642
 51
90.0
  0
LINE
  8
0
  6
CONTINUOUS
 62
     3
 10
480.1
 20
250.250005395
 11
480.1
 21
328.25
  0
LINE
  8
0
  6
CONTINUOUS
 62
     3
 10
474.1
 20
250.250005395
 11
474.1
 21
328.250003815
  0
CIRCLE
  8
0
  6
LTYPE2
 62
     1
 10
273.45
 20
308.25
 40
10.0
  0
ARC
  8
0
  6
CONTINUOUS
 62
     3
 10
295.95
 20
193.250000066
 40
22.0
 50
309.521196359
 51
48.590377761
  0
ARC
  8
0
  6
CONTINUOUS
 62
     3
 10
295.95
 20
193.250000066
 40
22.0
 50
131.409622239
 51
230.478803641
  0
ARC
  8
0
  6
CONTINUOUS
 62
     3
 10
490.0
 20
214.249999401
 40
1.0
 50
0.0
 51
89.999998711
  0
LINE
  8
0
  6
CONTINUOUS
 62
     3
 10
477.000000023
 20
215.249999693
 11
490.000000023
 21
215.249999401
  0
ARC
  8
0
  6
CONTINUOUS
 62
     3
 10
477.0
 20
214.249999693
 40
1.0
 50
89.999998711
 51
180.0
  0
LINE
  8
0
  6
CONTINUOUS
 62
     3
 10
462.0
 20
201.249999716
 11
476.0
 21
201.249999716
  0
ARC
  8
0
  6
CONTINUOUS
 62
     3
 10
477.0
 20
172.249999693
 40
1.0
 50
180.0
 51
269.999998711
  0
LINE
  8
0
  6
CONTINUOUS
 62
     3
 10
462.0
 20
185.249999716
 11
476.0
 21
185.249999716
  0
LINE
  8
0
  6
CONTINUOUS
 62
     3
 10
476.0
 20
172.249999693
 11
476.0
 21
214.249999693
  0
ARC
  8
0
  6
CONTINUOUS
 62
     3
 10
490.0
 20
172.249999401
 40
1.0
 50
269.999998711
 51
0.0
  0
LINE
  8
0
  6
CONTINUOUS
 62
     3
 10
491.0
 20
172.249999401
 11
491.0
 21
214.249999401
  0
LINE
  8
0
  6
CONTINUOUS
 62
     3
 10
476.999999977
 20
171.249999693
 11
489.999999977
 21
171.249999401
  0
CIRCLE
  8
0
  6
CONTINUOUS
 62
     1
 10
295.95
 20
193.25
 40
3.5
  0
ARC
  8
0
  6
CONTINUOUS
 62
     3
 10
208.450002
 20
243.25
 40
10.0
 50
89.999983846
 51
270.00001558
  0
ARC
  8
0
  6
CONTINUOUS
 62
     3
 10
222.449999835
 20
243.25
 40
3.0
 50
179.999936907
 51
0.000063093
  0
LINE
  8
0
  6
CONTINUOUS
 62
     3
 10
225.449999835
 20
243.250003304
 11
225.449999835
 21
335.25
  0
LINE
  8
0
  6
CONTINUOUS
 62
     3
 10
219.449999835
 20
243.250003304
 11
219.449999835
 21
335.250003815
  0
ARC
  8
0
  6
CONTINUOUS
 62
     3
 10
222.449999835
 20
335.25
 40
3.0
 50
0.0
 51
179.999927149
  0
LINE
  8
0
  6
CONTINUOUS
 62
     3
 10
225.449999835
 20
253.25
 11
273.450009209
 21
253.25
  0
LINE
  8
0
  6
CONTINUOUS
 62
     3
 10
208.450002444
 20
253.25
 11
219.449999835
 21
253.25
  0
ARC
  8
0
  6
CONTINUOUS
 62
     1
 10
216.45
 20
318.25
 40
5.0
 50
53.130104719
 51
306.869895281
  0
LINE
  8
0
  6
CONTINUOUS
 62
     3
 10
219.449999835
 20
335.25
 11
219.449999835
 21
338.25
  0
LINE
  8
0
  6
CONTINUOUS
 62
     3
 10
216.45
 20
338.25
 11
219.449999835
 21
338.25
  0
ARC
  8
0
  6
CONTINUOUS
 62
     3
 10
234.649999835
 20
340.85
 40
3.0
 50
180.0
 51
0.0
  0
LINE
  8
0
  6
CONTINUOUS
 62
     3
 10
231.649999835
 20
340.85
 11
231.649999835
 21
343.85
  0
ARC
  8
0
  6
CONTINUOUS
 62
     3
 10
246.849999835
 20
346.45
 40
3.0
 50
180.0
 51
0.0
  0
LINE
  8
0
  6
CONTINUOUS
 62
     3
 10
243.849999835
 20
346.45
 11
243.849999835
 21
349.45
  0
ARC
  8
0
  6
CONTINUOUS
 62
     3
 10
259.049999835
 20
352.05
 40
3.0
 50
180.0
 51
0.0
  0
LINE
  8
0
  6
CONTINUOUS
 62
     3
 10
256.049999835
 20
352.05
 11
256.049999835
 21
355.05
  0
ARC
  8
0
  6
CONTINUOUS
 62
     3
 10
271.249999835
 20
357.65
 40
3.0
 50
180.0
 51
0.0
  0
LINE
  8
0
  6
CONTINUOUS
 62
     3
 10
225.449999835
 20
335.25
 11
225.449999835
 21
340.85
  0
LINE
  8
0
  6
CONTINUOUS
 62
     3
 10
228.449999835
 20
343.85
 11
231.649999835
 21
343.85
  0
ARC
  8
0
  6
CONTINUOUS
 62
     3
 10
228.449999835
 20
340.85
 40
3.0
 50
90.0
 51
180.0
  0
LINE
  8
0
  6
CONTINUOUS
 62
     3
 10
237.649999835
 20
340.85
 11
237.649999835
 21
346.45
  0
LINE
  8
0
  6
CONTINUOUS
 62
     3
 10
240.649999835
 20
349.45
 11
243.849999835
 21
349.45
  0
ARC
  8
0
  6
CONTINUOUS
 62
     3
 10
240.649999835
 20
346.45
 40
3.0
 50
90.0
 51
180.0
  0
LINE
  8
0
  6
CONTINUOUS
 62
     3
 10
249.849999835
 20
346.45
 11
249.849999835
 21
352.05
  0
LINE
  8
0
  6
CONTINUOUS
 62
     3
 10
252.849999835
 20
355.05
 11
256.049999835
 21
355.05
  0
ARC
  8
0
  6
CONTINUOUS
 62
     3
 10
252.849999835
 20
352.05
 40
3.0
 50
90.0
 51
180.0
  0
LINE
  8
0
  6
CONTINUOUS
 62
     3
 10
262.049999835
 20
352.05
 11
262.049999835
 21
357.65
  0
ARC
  8
0
  6
CONTINUOUS
 62
     3
 10
265.049999835
 20
357.65
 40
3.0
 50
90.0
 51
180.0
  0
POINT
  8
0
  6
CONTINUOUS
 62
     3
 10
268.249999835
 20
357.65
  0
ARC
  8
0
  6
CONTINUOUS
 62
     3
 10
265.249999835
 20
357.65
 40
3.0
 50
0.0
 51
90.0
  0
ARC
  8
0
  6
CONTINUOUS
 62
     3
 10
277.249999835
 20
357.65
 40
3.0
 50
90.0
 51
180.0
  0
LINE
  8
0
  6
CONTINUOUS
 62
     3
 10
277.249999835
 20
360.65
 11
298.45
 21
360.65
  0
LINE
  8
0
  6
CONTINUOUS
 62
     3
 10
265.049999835
 20
360.65
 11
265.249999835
 21
360.65
  0
CIRCLE
  8
0
  6
CONTINUOUS
 62
     1
 10
291.029077168
 20
338.064114877
 40
5.0
  0
CIRCLE
  8
0
  6
CONTINUOUS
 62
     1
 10
208.450002
 20
243.249999895
 40
5.0
  0
CIRCLE
  8
0
  6
CONTINUOUS
 62
     3
 10
208.450002
 20
243.249999895
 40
6.5
  0
ARC
  8
0
  6
CONTINUOUS
 62
     3
 10
298.45
 20
350.65
 40
10.0
 50
0.000030901
 51
90.0
  0
LINE
  8
0
  6
CONTINUOUS
 62
     3
 10
462.7
 20
360.65
 11
465.9
 21
360.65
  0
LINE
  8
0
  6
CONTINUOUS
 62
     3
 10
430.1
 20
360.65
 11
433.3
 21
360.65
  0
LINE
  8
0
  6
CONTINUOUS
 62
     3
 10
462.7
 20
330.064114877
 11
433.3
 21
330.064114877
  0
LINE
  8
0
  6
CONTINUOUS
 62
     3
 10
462.7
 20
346.064114877
 11
433.3
 21
346.064114877
  0
LINE
  8
0
  6
CONTINUOUS
 62
     3
 10
462.7
 20
310.25
 11
433.3
 21
310.25
  0
LINE
  8
0
  6
CONTINUOUS
 62
     3
 10
462.7
 20
326.25
 11
433.3
 21
326.25
  0
LINE
  8
0
  6
LTYPE3
 62
     1
 10
219.433108966
 20
269.984422364
 11
219.385116586
 21
269.486730962
  0
CIRCLE
  8
0
  6
LTYPE2
 62
     1
 10
256.95
 20
291.75
 40
26.5
  0
LINE
  8
0
  6
CONTINUOUS
 62
     3
 10
205.911858249
 20
275.86286708
 11
209.390564007
 21
283.066935808
  0
ARC
  8
0
  6
CONTINUOUS
 62
     3
 10
214.916944269
 20
271.51448497
 40
10.0
 50
154.22500683
 51
244.224998249
  0
LINE
  8
0
  6
CONTINUOUS
 62
     3
 10
212.061257629
 20
283.998276551
 11
209.390564007
 21
283.066935808
  0
LINE
  8
0
  6
CONTINUOUS
 62
     3
 10
215.663291994
 20
282.258923672
 11
216.594632736
 21
279.58823005
  0
LINE
  8
0
  6
CONTINUOUS
 62
     3
 10
219.265326358
 20
280.519570793
 11
216.594632736
 21
279.58823005
  0
LINE
  8
0
  6
CONTINUOUS
 62
     3
 10
212.061257629
 20
283.998276551
 11
212.992598372
 21
281.327582929
  0
LINE
  8
0
  6
CONTINUOUS
 62
     3
 10
215.663291994
 20
282.258923672
 11
212.992598372
 21
281.327582929
  0
LINE
  8
0
  6
CONTINUOUS
 62
     3
 10
237.27549818
 20
271.822806397
 11
238.206838922
 21
269.152112775
  0
LINE
  8
0
  6
CONTINUOUS
 62
     3
 10
237.27549818
 20
271.822806397
 11
234.604804558
 21
270.891465654
  0
LINE
  8
0
  6
CONTINUOUS
 62
     3
 10
233.673463815
 20
273.562159276
 11
231.002770193
 21
272.630818533
  0
LINE
  8
0
  6
CONTINUOUS
 62
     3
 10
233.673463815
 20
273.562159276
 11
234.604804558
 21
270.891465654
  0
LINE
  8
0
  6
CONTINUOUS
 62
     3
 10
230.071429451
 20
275.301512155
 11
231.002770193
 21
272.630818533
  0
LINE
  8
0
  6
CONTINUOUS
 62
     3
 10
230.071429451
 20
275.301512155
 11
227.400735829
 21
274.370171413
  0
LINE
  8
0
  6
CONTINUOUS
 62
     3
 10
240.877532544
 20
270.083453518
 11
238.206838922
 21
269.152112775
  0
LINE
  8
0
  6
CONTINUOUS
 62
     3
 10
240.877532544
 20
270.083453518
 11
241.808873287
 21
267.412759896
  0
LINE
  8
0
  6
CONTINUOUS
 62
     3
 10
244.479566908
 20
268.344100639
 11
245.410907651
 21
265.673407017
  0
LINE
  8
0
  6
CONTINUOUS
 62
     3
 10
244.479566908
 20
268.344100639
 11
241.808873287
 21
267.412759896
  0
LINE
  8
0
  6
CONTINUOUS
 62
     3
 10
251.683635637
 20
264.86539488
 11
252.61497638
 21
262.194701259
  0
LINE
  8
0
  6
CONTINUOUS
 62
     3
 10
251.683635637
 20
264.86539488
 11
249.012942015
 21
263.934054138
  0
LINE
  8
0
  6
CONTINUOUS
 62
     3
 10
248.081601273
 20
266.60474776
 11
245.410907651
 21
265.673407017
  0
LINE
  8
0
  6
CONTINUOUS
 62
     3
 10
248.081601273
 20
266.60474776
 11
249.012942015
 21
263.934054138
  0
LINE
  8
0
  6
CONTINUOUS
 62
     3
 10
262.48973873
 20
259.647336243
 11
259.819045108
 21
258.7159955
  0
LINE
  8
0
  6
CONTINUOUS
 62
     3
 10
258.887704366
 20
261.386689122
 11
259.819045108
 21
258.7159955
  0
LINE
  8
0
  6
CONTINUOUS
 62
     3
 10
258.887704366
 20
261.386689122
 11
256.217010744
 21
260.45534838
  0
LINE
  8
0
  6
CONTINUOUS
 62
     3
 10
255.285670001
 20
263.126042001
 11
256.217010744
 21
260.45534838
  0
LINE
  8
0
  6
CONTINUOUS
 62
     3
 10
255.285670001
 20
263.126042001
 11
252.61497638
 21
262.194701259
  0
LINE
  8
0
  6
CONTINUOUS
 62
     3
 10
226.469395087
 20
277.040865034
 11
227.400735829
 21
274.370171413
  0
LINE
  8
0
  6
CONTINUOUS
 62
     3
 10
226.469395087
 20
277.040865034
 11
225.449999835
 21
276.685375238
  0
LINE
  8
0
  6
CONTINUOUS
 62
     3
 10
219.265326358
 20
280.519570793
 11
219.449999835
 21
279.990004916
  0
ARC
  8
0
  6
CONTINUOUS
 62
     1
 10
214.916944314
 20
271.514484482
 40
5.0
 50
24.958846585
 51
335.041153415
  0
ARC
  8
0
  6
CONTINUOUS
 62
     3
 10
214.916944314
 20
271.514484482
 40
6.5
 50
45.781771001
 51
314.218228999
  0
LINE
  8
0
  6
CONTINUOUS
 62
     3
 10
210.568561962
 20
262.509398971
 11
219.449999835
 21
258.220724024
  0
LINE
  8
0
  6
CONTINUOUS
 62
     3
 10
225.449999835
 20
255.323439818
 11
229.743896471
 21
253.25
  0
LINE
  8
0
  6
CONTINUOUS
 62
     1
 10
198.305045436
 20
216.842327197
 11
206.103539979
 21
215.05809547
  0
LINE
  8
0
  6
CONTINUOUS
 62
     1
 10
205.518652936
 20
215.191912839
 11
205.969722616
 21
214.473208453
  0
LINE
  8
0
  6
CONTINUOUS
 62
     1
 10
198.88993254
 20
216.708509658
 11
198.171228154
 21
216.257439977
  0
LINE
  8
0
  6
CONTINUOUS
 62
     3
 10
193.290653335
 20
212.860383971
 11
191.060363855
 21
203.112265566
  0
ARC
  8
0
  6
CONTINUOUS
 62
     3
 10
175.265404634
 20
192.364276387
 40
1.0
 50
167.112998711
 51
257.113
  0
LINE
  8
0
  6
CONTINUOUS
 62
     3
 10
177.189969373
 20
205.259858986
 11
174.290592816
 21
192.587305353
  0
ARC
  8
0
  6
CONTINUOUS
 62
     3
 10
178.164781191
 20
205.03683002
 40
1.0
 50
77.113
 51
167.112998711
  0
LINE
  8
0
  6
CONTINUOUS
 62
     3
 10
208.887642421
 20
209.291920517
 11
206.657353022
 21
199.543802463
  0
ARC
  8
0
  6
CONTINUOUS
 62
     3
 10
216.207501197
 20
182.99706074
 40
1.0
 50
257.113
 51
347.112998711
  0
LINE
  8
0
  6
CONTINUOUS
 62
     3
 10
220.081689572
 20
195.446585408
 11
217.182313015
 21
182.774031775
  0
ARC
  8
0
  6
CONTINUOUS
 62
     3
 10
219.106877754
 20
195.669614373
 40
1.0
 50
347.112998711
 51
77.113
  0
LINE
  8
0
  6
CONTINUOUS
 62
     3
 10
193.290653335
 20
212.860383971
 11
208.887642421
 21
209.291920517
  0
LINE
  8
0
  6
CONTINUOUS
 62
     3
 10
175.04237569
 20
191.389464564
 11
215.984472253
 21
182.022248917
  0
LINE
  8
0
  6
CONTINUOUS
 62
     3
 10
178.387810134
 20
206.011641843
 11
219.329906698
 21
196.644426196
  0
LINE
  8
0
  6
CONTINUOUS
 62
     3
 10
216.324138856
 20
259.730141966
 11
214.841535408
 21
253.25
  0
LINE
  8
0
  6
CONTINUOUS
 62
     1
 10
215.769870694
 20
259.997787364
 11
214.226032155
 21
253.25
  0
LINE
  8
0
  6
CONTINUOUS
 62
     1
 10
209.505162859
 20
263.10540507
 11
207.233329752
 21
253.175709478
  0
LINE
  8
0
  6
CONTINUOUS
 62
     3
 10
208.973602505
 20
263.472302961
 11
206.595119834
 21
253.076464886
  0
LINE
  8
0
  6
CONTINUOUS
 62
     1
 10
203.038446702
 20
234.840774753
 11
198.889932826
 21
216.708509749
  0
LINE
  8
0
  6
CONTINUOUS
 62
     3
 10
202.506882179
 20
235.207654148
 11
197.189900837
 21
211.968268055
  0
LINE
  8
0
  6
CONTINUOUS
 62
     3
 10
210.265699092
 20
233.25
 11
204.98839538
 21
210.184036328
  0
LINE
  8
0
  6
CONTINUOUS
 62
     1
 10
209.650195794
 20
233.25
 11
205.518653188
 21
215.191912781
  0
LINE
  8
0
  6
LTYPE2
 62
     1
 10
187.259766617
 20
249.237741797
 11
181.096277407
 21
241.363009779
  0
ARC
  8
0
  6
LTYPE2
 62
     1
 10
162.230240981
 20
238.350921175
 40
1.0
 50
141.949998711
 51
231.95
  0
LINE
  8
0
  6
LTYPE2
 62
     1
 10
169.455303867
 20
249.204421362
 11
161.442767807
 21
238.967270103
  0
ARC
  8
0
  6
LTYPE2
 62
     1
 10
170.24277704
 20
248.588072434
 40
1.0
 50
51.95
 51
141.949998711
  0
LINE
  8
0
  6
LTYPE2
 62
     1
 10
206.219622303
 20
266.9718158
 11
190.409659498
 21
246.772345941
  0
LINE
  8
0
  6
LTYPE2
 62
     1
 10
187.259766617
 20
249.237741797
 11
193.491163802
 21
244.360477275
  0
LINE
  8
0
  6
LTYPE2
 62
     1
 10
196.160188683
 20
234.649971591
 11
193.695848409
 21
231.50142722
  0
LINE
  8
0
  6
LTYPE2
 62
     1
 10
170.85912595
 20
249.375545622
 11
196.099332383
 21
229.620239707
  0
LINE
  8
0
  6
LTYPE2
 62
     1
 10
161.613892071
 20
237.563447988
 11
188.922982438
 21
216.188843311
  0
LINE
  8
6
  6
CONTINUOUS
 62
     1
 10
274.249999835
 20
360.65
 11
104.187816937
 21
360.65
  0
LINE
  8
6
  6
CONTINUOUS
 62
     1
 10
107.187816937
 20
360.65
 11
106.411359802
 21
357.752222521
  0
LINE
  8
6
  6
CONTINUOUS
 62
     1
 10
107.187816937
 20
360.65
 11
107.964274073
 21
357.752222521
  0
LINE
  8
6
  6
CONTINUOUS
 62
     1
 10
107.187816937
 20
360.65
 11
107.187816937
 21
181.99706074
  0
LINE
  8
6
  6
CONTINUOUS
 62
     1
 10
107.187816937
 20
181.99706074
 11
107.964274073
 21
184.894838219
  0
LINE
  8
6
  6
CONTINUOUS
 62
     1
 10
107.187816937
 20
181.99706074
 11
106.411359802
 21
184.894838219
  0
LINE
  8
6
  6
CONTINUOUS
 62
     1
 10
213.207501197
 20
181.99706074
 11
104.187816937
 21
181.99706074
  0
TEXT
  8
6
  6
CONTINUOUS
 62
     1
 10
105.687816937
 20
265.54853037
 30
0.45
 40
4.5
  1
（１７９）
 50
90.0
 41
0.433333333
 51
0.0
  7
KANJI2
  0
LINE
  8
6
  6
CONTINUOUS
 62
     1
 10
308.45
 20
398.65
 11
308.45
 21
408.65
  0
LINE
  8
6
  6
CONTINUOUS
 62
     1
 10
308.45
 20
405.65
 11
305.552222521
 21
406.426457135
  0
LINE
  8
6
  6
CONTINUOUS
 62
     1
 10
308.45
 20
405.65
 11
305.552222521
 21
404.873542865
  0
LINE
  8
6
  6
CONTINUOUS
 62
     1
 10
308.45
 20
405.65
 11
161.230240981
 21
405.65
  0
LINE
  8
6
  6
CONTINUOUS
 62
     1
 10
161.230240981
 20
405.65
 11
164.12801846
 21
404.873542865
  0
LINE
  8
6
  6
CONTINUOUS
 62
     1
 10
161.230240981
 20
405.65
 11
164.12801846
 21
406.426457135
  0
LINE
  8
6
  6
CONTINUOUS
 62
     1
 10
161.230240981
 20
241.350921175
 11
161.230240981
 21
408.65
  0
TEXT
  8
6
  6
CONTINUOUS
 62
     1
 10
229.06512049
 20
407.15
 30
0.45
 40
4.5
  1
（１４８）
 50
0.0
 41
0.433333333
 51
0.0
  7
KANJI2
  0
LINE
  8
6
  6
CONTINUOUS
 62
     1
 10
117.187816937
 20
360.65
 11
116.411359802
 21
357.752222521
  0
LINE
  8
6
  6
CONTINUOUS
 62
     1
 10
117.187816937
 20
360.65
 11
117.964274073
 21
357.752222521
  0
LINE
  8
6
  6
CONTINUOUS
 62
     1
 10
117.187816937
 20
360.65
 11
117.187816937
 21
233.25
  0
LINE
  8
6
  6
CONTINUOUS
 62
     1
 10
117.187816937
 20
233.25
 11
117.964274073
 21
236.147777479
  0
LINE
  8
6
  6
CONTINUOUS
 62
     1
 10
117.187816937
 20
233.25
 11
116.411359802
 21
236.147777479
  0
LINE
  8
6
  6
CONTINUOUS
 62
     1
 10
205.450004719
 20
233.25
 11
114.187816937
 21
233.25
  0
TEXT
  8
6
  6
CONTINUOUS
 62
     1
 10
115.687816937
 20
291.175
 30
0.45
 40
4.5
  1
１２７．４
 50
90.0
 41
0.433333333
 51
0.0
  7
KANJI2
  0
TEXT
  8
0
  6
CONTINUOUS
 62
     1
 10
238.2
 20
285.05
 30
0.75
 40
7.5
  1
φ２０～φ５３
 50
0.0
 41
0.9
 51
0.0
  7
KANJI4
  0
LINE
  8
0
  6
CONTINUOUS
 62
     3
 10
262.48973873
 20
259.647336243
 11
275.357691806
 21
253.43365004
  0
CIRCLE
  8
0
  6
CONTINUOUS
 62
     1
 10
273.450004
 20
243.25
 40
5.0
  0
LINE
  8
0
  6
CONTINUOUS
 62
     1
 10
276.336755161
 20
243.25
 11
274.893379488
 21
245.75
  0
LINE
  8
0
  6
CONTINUOUS
 62
     1
 10
274.893379488
 20
245.75
 11
272.006628142
 21
245.75
  0
LINE
  8
0
  6
CONTINUOUS
 62
     1
 10
272.006628142
 20
245.75
 11
270.563252469
 21
243.25
  0
LINE
  8
0
  6
CONTINUOUS
 62
     1
 10
270.563252469
 20
243.25
 11
272.006628142
 21
240.75
  0
LINE
  8
0
  6
CONTINUOUS
 62
     1
 10
272.006628142
 20
240.75
 11
274.893379488
 21
240.75
  0
LINE
  8
0
  6
CONTINUOUS
 62
     1
 10
274.893379488
 20
240.75
 11
276.336755161
 21
243.25
  0
LINE
  8
0
  6
CONTINUOUS
 62
     3
 10
304.774428263
 20
199.020584478
 11
301.332855912
 21
195.579012127
  0
LINE
  8
0
  6
CONTINUOUS
 62
     3
 10
304.774428263
 20
199.020584478
 11
305.622956401
 21
198.172056341
  0
LINE
  8
0
  6
CONTINUOUS
 62
     3
 10
305.622956401
 20
198.172056341
 11
302.181381352
 21
194.730481292
  0
ARC
  8
0
  6
CONTINUOUS
 62
     3
 10
295.95
 20
193.25
 40
5.2
 50
28.074917232
 51
165.472594795
  0
ARC
  8
0
  6
CONTINUOUS
 62
     3
 10
300.979299824
 20
195.93256282
 40
0.5
 50
208.074469193
 51
315.000437132
  0
ARC
  8
0
  6
CONTINUOUS
 62
     3
 10
300.979299824
 20
195.93256282
 40
1.7
 50
208.074469193
 51
315.0
  0
LINE
  8
0
  6
CONTINUOUS
 62
     3
 10
306.35
 20
193.850000066
 11
306.35
 21
192.650000066
  0
LINE
  8
0
  6
CONTINUOUS
 62
     3
 10
299.904743977
 20
193.850000066
 11
306.35
 21
193.850000066
  0
LINE
  8
0
  6
CONTINUOUS
 62
     3
 10
299.904743997
 20
192.650000066
 11
306.35
 21
192.650000066
  0
ARC
  8
0
  6
CONTINUOUS
 62
     3
 10
290.884272585
 20
194.562648634
 40
1.23303361
 50
205.639424732
 51
345.472838414
  0
ARC
  8
0
  6
CONTINUOUS
 62
     3
 10
288.15
 20
193.250000066
 40
3.0
 50
25.644801501
 51
311.562043851
  0
LINE
  8
0
  6
CONTINUOUS
 62
     3
 10
291.995256003
 20
192.650000066
 11
290.140292043
 21
191.005286813
  0
LINE
  8
0
  6
CONTINUOUS
 62
     3
 10
291.995256023
 20
193.850000066
 11
289.218615572
 21
191.801531647
  0
ARC
  8
0
  6
CONTINUOUS
 62
     3
 10
288.15
 20
193.250000066
 40
1.8
 50
25.647762974
 51
306.418255998
  0
ARC
  8
0
  6
CONTINUOUS
 62
     3
 10
425.0
 20
197.450000789
 40
1.0
 50
0.0
 51
180.0
  0
ARC
  8
0
  6
CONTINUOUS
 62
     3
 10
425.476171389
 20
197.448650951
 40
0.52383035
 50
0.147643369
 51
31.275426664
  0
ARC
  8
0
  6
CONTINUOUS
 62
     3
 10
425.301722293
 20
197.349813426
 40
0.724266149
 50
30.793562509
 51
55.963731996
  0
ARC
  8
0
  6
CONTINUOUS
 62
     3
 10
425.095339421
 20
197.07514785
 40
1.067533122
 50
55.035667036
 51
74.385333191
  0
ARC
  8
0
  6
CONTINUOUS
 62
     3
 10
425.004587844
 20
196.802425007
 40
1.354690332
 50
73.793435964
 51
90.194040359
  0
ARC
  8
0
  6
CONTINUOUS
 62
     3
 10
424.999071766
 20
196.776406159
 40
1.380701723
 50
89.961480542
 51
106.051043114
  0
ARC
  8
0
  6
CONTINUOUS
 62
     3
 10
424.929864474
 20
197.0218033
 40
1.125736629
 50
106.119317505
 51
124.459682306
  0
ARC
  8
0
  6
CONTINUOUS
 62
     3
 10
424.73616867
 20
197.314008462
 40
0.775228589
 50
124.875817759
 51
148.366887652
  0
ARC
  8
0
  6
CONTINUOUS
 62
     3
 10
424.542464131
 20
197.443408694
 40
0.542504184
 50
149.273161417
 51
179.303768492
  0
ARC
  8
0
  6
CONTINUOUS
 62
     3
 10
424.52382861
 20
197.451350626
 40
0.523830349
 50
180.147643347
 51
211.275426689
  0
ARC
  8
0
  6
CONTINUOUS
 62
     3
 10
424.698277709
 20
197.550188152
 40
0.72426615
 50
210.79356245
 51
235.963731894
  0
ARC
  8
0
  6
CONTINUOUS
 62
     3
 10
424.904660583
 20
197.824853726
 40
1.067533123
 50
235.035666802
 51
254.38533297
  0
ARC
  8
0
  6
CONTINUOUS
 62
     3
 10
424.995412156
 20
198.097576571
 40
1.354690333
 50
253.793435978
 51
270.194040365
  0
ARC
  8
0
  6
CONTINUOUS
 62
     3
 10
425.000928234
 20
198.123595419
 40
1.380701724
 50
269.961480547
 51
286.051043114
  0
ARC
  8
0
  6
CONTINUOUS
 62
     3
 10
425.070135525
 20
197.878198277
 40
1.125736629
 50
286.11931758
 51
304.459682398
  0
ARC
  8
0
  6
CONTINUOUS
 62
     3
 10
425.26383133
 20
197.585993115
 40
0.775228588
 50
304.875817817
 51
328.366887742
  0
ARC
  8
0
  6
CONTINUOUS
 62
     3
 10
425.457535868
 20
197.456592884
 40
0.542504184
 50
329.273161483
 51
359.303768508
  0
LINE
  8
0
  6
CONTINUOUS
 62
     3
 10
424.0
 20
193.250000863
 11
424.0
 21
197.450000789
  0
LINE
  8
0
  6
CONTINUOUS
 62
     3
 10
426.0
 20
197.450000789
 11
426.0
 21
193.250000863
  0
CIRCLE
  8
0
  6
CONTINUOUS
 62
     3
 10
425.0
 20
193.250000863
 40
1.0
  0
LINE
  8
0
  6
LTYPE1
 62
     1
 10
448.0
 20
134.95
 11
448.0
 21
363.15
  0
LINE
  8
0
  6
CONTINUOUS
 62
     1
 10
420.9
 20
248.25
 11
425.9
 21
248.25
  0
ARC
  8
0
  6
CONTINUOUS
 62
     1
 10
420.9
 20
247.25
 40
1.0
 50
90.0
 51
180.0
  0
LINE
  8
0
  6
CONTINUOUS
 62
     1
 10
420.9
 20
238.25
 11
425.9
 21
238.25
  0
LINE
  8
0
  6
CONTINUOUS
 62
     1
 10
419.9
 20
239.25
 11
419.9
 21
247.25
  0
ARC
  8
0
  6
CONTINUOUS
 62
     1
 10
420.9
 20
239.25
 40
1.0
 50
180.0
 51
270.0
  0
ARC
  8
0
  6
CONTINUOUS
 62
     3
 10
425.9
 20
250.25
 40
10.0
 50
180.0
 51
233.130102354
  0
ARC
  8
0
  6
CONTINUOUS
 62
     3
 10
425.9
 20
250.25
 40
4.0
 50
179.999945358
 51
210.0
  0
LINE
  8
0
  6
CONTINUOUS
 62
     1
 10
475.1
 20
248.25
 11
470.1
 21
248.25
  0
ARC
  8
0
  6
CONTINUOUS
 62
     1
 10
475.1
 20
247.25
 40
1.0
 50
0.0
 51
90.0
  0
LINE
  8
0
  6
CONTINUOUS
 62
     1
 10
475.1
 20
238.25
 11
470.1
 21
238.25
  0
LINE
  8
0
  6
CONTINUOUS
 62
     1
 10
476.1
 20
239.25
 11
476.1
 21
247.25
  0
ARC
  8
0
  6
CONTINUOUS
 62
     1
 10
475.1
 20
239.25
 40
1.0
 50
270.0
 51
0.0
  0
ARC
  8
0
  6
CONTINUOUS
 62
     3
 10
470.1
 20
250.25
 40
4.0
 50
330.0
 51
0.000077275
  0
ARC
  8
0
  6
CONTINUOUS
 62
     3
 10
470.1
 20
250.25
 40
10.0
 50
306.869897646
 51
0.0
  0
CIRCLE
  8
0
  6
CONTINUOUS
 62
     3
 10
295.95
 20
226.25
 40
3.0
  0
LINE
  8
0
  6
CONTINUOUS
 62
     1
 10
294.217949192
 20
226.25
 11
295.083974596
 21
224.75
  0
LINE
  8
0
  6
CONTINUOUS
 62
     1
 10
295.083974596
 20
224.75
 11
296.816025404
 21
224.75
  0
LINE
  8
0
  6
CONTINUOUS
 62
     1
 10
296.816025404
 20
224.75
 11
297.682050808
 21
226.25
  0
LINE
  8
0
  6
CONTINUOUS
 62
     1
 10
297.682050808
 20
226.25
 11
296.816025404
 21
227.75
  0
LINE
  8
0
  6
CONTINUOUS
 62
     1
 10
296.816025404
 20
227.75
 11
295.083974596
 21
227.75
  0
LINE
  8
0
  6
CONTINUOUS
 62
     1
 10
295.083974596
 20
227.75
 11
294.217949192
 21
226.25
  0
LINE
  8
0
  6
CONTINUOUS
 62
     3
 10
208.450002444
 20
233.25
 11
273.450009209
 21
233.25
  0
ARC
  8
0
  6
CONTINUOUS
 62
     3
 10
273.450003815
 20
243.25
 40
10.0
 50
270.00003091
 51
89.99996909
  0
LINE
  8
0
  6
CONTINUOUS
 62
     3
 10
273.450009209
 20
233.25
 11
298.45
 21
233.25
  0
LINE
  8
0
  6
CONTINUOUS
 62
     3
 10
308.45
 20
350.650005395
 11
308.45
 21
243.25
  0
ARC
  8
0
  6
CONTINUOUS
 62
     3
 10
298.45
 20
243.25
 40
10.0
 50
270.0
 51
0.0
  0
LINE
  8
0
  6
CONTINUOUS
 62
     3
 10
307.013231939
 20
238.085596959
 11
309.45
 21
231.75
  0
LINE
  8
0
  6
CONTINUOUS
 62
     3
 10
281.95
 20
154.75
 11
281.95
 21
231.75
  0
LINE
  8
0
  6
CONTINUOUS
 62
     3
 10
309.95
 20
231.75
 11
281.95
 21
231.75
  0
LINE
  8
0
  6
CONTINUOUS
 62
     3
 10
309.95
 20
154.75
 11
309.95
 21
231.75
  0
LINE
  8
0
  6
CONTINUOUS
 62
     1
 10
308.45
 20
193.250000066
 11
308.45
 21
219.250003815
  0
ARC
  8
0
  6
CONTINUOUS
 62
     1
 10
295.95
 20
219.25
 40
12.5
 50
0.000017497
 51
179.99997857
  0
LINE
  8
0
  6
CONTINUOUS
 62
     1
 10
283.45
 20
219.250004672
 11
283.45
 21
193.250000066
  0
CIRCLE
  8
0
  6
CONTINUOUS
 62
     1
 10
448.0
 20
226.25
 40
16.0
  0
CIRCLE
  8
0
  6
CONTINUOUS
 62
     3
 10
448.0
 20
226.25
 40
22.0
  0
ARC
  8
0
  6
CONTINUOUS
 62
     3
 10
330.45
 20
205.250000473
 40
1.0
 50
180.0
 51
270.000001289
  0
ARC
  8
0
  6
CONTINUOUS
 62
     3
 10
343.45
 20
205.250000765
 40
1.0
 50
270.000001289
 51
0.0
  0
LINE
  8
0
  6
CONTINUOUS
 62
     3
 10
330.450000023
 20
204.250000473
 11
343.450000023
 21
204.250000765
  0
ARC
  8
0
  6
CONTINUOUS
 62
     3
 10
343.45
 20
247.250000765
 40
1.0
 50
0.0
 51
90.000001289
  0
LINE
  8
0
  6
CONTINUOUS
 62
     3
 10
330.449999977
 20
248.250000473
 11
343.449999977
 21
248.250000765
  0
ARC
  8
0
  6
CONTINUOUS
 62
     3
 10
330.45
 20
247.250000473
 40
1.0
 50
90.000001289
 51
180.0
  0
LINE
  8
0
  6
CONTINUOUS
 62
     3
 10
329.45
 20
247.250000473
 11
329.45
 21
205.250000473
  0
LINE
  8
0
  6
CONTINUOUS
 62
     3
 10
344.45
 20
247.250000765
 11
344.45
 21
205.250000765
  0
LINE
  8
0
  6
CONTINUOUS
 62
     3
 10
283.026923077
 20
233.25
 11
282.45
 21
231.75
  0
LINE
  8
0
  6
CONTINUOUS
 62
     3
 10
308.65
 20
244.214130928
 11
308.45
 21
244.214130928
  0
LINE
  8
0
  6
CONTINUOUS
 62
     3
 10
319.45000018
 20
218.25000045
 11
329.45
 21
218.25000045
  0
LINE
  8
0
  6
CONTINUOUS
 62
     3
 10
319.44999982
 20
234.25000045
 11
319.45000018
 21
218.25000045
  0
LINE
  8
0
  6
CONTINUOUS
 62
     3
 10
319.44999982
 20
234.25000045
 11
329.45
 21
234.25000045
  0
LINE
  8
0
  6
CONTINUOUS
 62
     3
 10
319.45
 20
223.25000045
 11
309.95
 21
223.25000045
  0
LINE
  8
0
  6
CONTINUOUS
 62
     3
 10
319.45
 20
229.25000045
 11
309.95
 21
229.25000045
  0
LINE
  8
0
  6
CONTINUOUS
 62
     1
 10
319.45
 20
223.87500045
 11
309.95
 21
223.87500045
  0
LINE
  8
0
  6
CONTINUOUS
 62
     1
 10
319.45
 20
228.62500045
 11
309.95
 21
228.62500045
  0
LINE
  8
0
  6
CONTINUOUS
 62
     3
 10
434.0
 20
180.750000066
 11
434.0
 21
209.279437252
  0
LINE
  8
0
  6
CONTINUOUS
 62
     1
 10
435.5
 20
180.750000066
 11
435.5
 21
208.14613301
  0
LINE
  8
0
  6
CONTINUOUS
 62
     3
 10
448.0
 20
172.249999934
 11
448.0
 21
204.25
  0
LINE
  8
0
  6
CONTINUOUS
 62
     3
 10
460.5
 20
207.249999934
 11
459.090536394
 21
207.249999934
  0
LINE
  8
0
  6
CONTINUOUS
 62
     3
 10
427.143346385
 20
233.25
 11
425.9
 21
233.25
  0
LINE
  8
0
  6
CONTINUOUS
 62
     3
 10
429.1
 20
237.510106571
 11
429.1
 21
248.0
  0
LINE
  8
0
  6
CONTINUOUS
 62
     3
 10
430.1
 20
239.040230647
 11
430.1
 21
360.65
  0
LINE
  8
0
  6
CONTINUOUS
 62
     3
 10
433.3
 20
242.6179565
 11
433.3
 21
360.65
  0
ARC
  8
0
  6
CONTINUOUS
 62
     1
 10
427.8
 20
253.25
 40
12.5
 50
323.059846545
 51
53.130102354
  0
ARC
  8
0
  6
CONTINUOUS
 62
     1
 10
468.2
 20
253.25
 40
12.5
 50
126.869897646
 51
216.940153455
  0
LINE
  8
0
  6
CONTINUOUS
 62
     3
 10
462.7
 20
242.6179565
 11
462.7
 21
360.65
  0
LINE
  8
0
  6
CONTINUOUS
 62
     3
 10
465.9
 20
239.040230647
 11
465.9
 21
360.65
  0
LINE
  8
0
  6
CONTINUOUS
 62
     3
 10
466.9
 20
237.510106571
 11
466.9
 21
248.0
  0
LINE
  8
0
  6
CONTINUOUS
 62
     3
 10
468.856653615
 20
233.25
 11
470.1
 21
233.25
  0
LINE
  8
0
  6
CONTINUOUS
 62
     1
 10
433.3
 20
243.25
 11
434.035759956
 21
243.25
  0
LINE
  8
0
  6
CONTINUOUS
 62
     1
 10
462.7
 20
243.25
 11
461.964240044
 21
243.25
  0
LINE
  8
6
  6
CONTINUOUS
 62
     1
 10
448.0
 20
123.75
 11
445.102222521
 21
124.526457135
  0
LINE
  8
6
  6
CONTINUOUS
 62
     1
 10
448.0
 20
123.75
 11
445.102222521
 21
122.973542865
  0
LINE
  8
6
  6
CONTINUOUS
 62
     1
 10
448.0
 20
123.75
 11
415.9
 21
123.75
  0
LINE
  8
6
  6
CONTINUOUS
 62
     1
 10
415.9
 20
123.75
 11
418.797777479
 21
122.973542865
  0
LINE
  8
6
  6
CONTINUOUS
 62
     1
 10
415.9
 20
123.75
 11
418.797777479
 21
124.526457135
  0
LINE
  8
6
  6
CONTINUOUS
 62
     1
 10
415.9
 20
247.25
 11
415.9
 21
120.75
  0
TEXT
  8
6
  6
CONTINUOUS
 62
     1
 10
424.975
 20
125.25
 30
0.45
 40
4.5
  1
（３２．１）
 50
0.0
 41
0.433333333
 51
0.0
  7
KANJI2
  0
LINE
  8
6
  6
CONTINUOUS
 62
     1
 10
415.9
 20
120.75
 11
415.9
 21
110.75
  0
LINE
  8
6
  6
CONTINUOUS
 62
     1
 10
415.9
 20
113.75
 11
418.797777479
 21
112.973542865
  0
LINE
  8
6
  6
CONTINUOUS
 62
     1
 10
415.9
 20
113.75
 11
418.797777479
 21
114.526457135
  0
LINE
  8
6
  6
CONTINUOUS
 62
     1
 10
415.9
 20
113.75
 11
491.0
 21
113.75
  0
LINE
  8
6
  6
CONTINUOUS
 62
     1
 10
491.0
 20
113.75
 11
488.102222521
 21
114.526457135
  0
LINE
  8
6
  6
CONTINUOUS
 62
     1
 10
491.0
 20
113.75
 11
488.102222521
 21
112.973542865
  0
LINE
  8
6
  6
CONTINUOUS
 62
     1
 10
491.0
 20
120.75
 11
491.0
 21
110.75
  0
TEXT
  8
6
  6
CONTINUOUS
 62
     1
 10
446.475
 20
115.25
 30
0.45
 40
4.5
  1
（７５．１）
 50
0.0
 41
0.433333333
 51
0.0
  7
KANJI2
  0
LINE
  8
0
  6
LTYPE1
 62
     1
 10
295.95
 20
369.75
 11
295.95
 21
131.75
  0
LINE
  8
6
  6
CONTINUOUS
 62
     1
 10
308.45
 20
375.65
 11
311.347777479
 21
374.873542865
  0
LINE
  8
6
  6
CONTINUOUS
 62
     1
 10
308.45
 20
375.65
 11
311.347777479
 21
376.426457135
  0
LINE
  8
6
  6
CONTINUOUS
 62
     1
 10
308.45
 20
375.65
 11
344.45
 21
375.65
  0
LINE
  8
6
  6
CONTINUOUS
 62
     1
 10
344.45
 20
375.65
 11
341.552222521
 21
376.426457135
  0
LINE
  8
6
  6
CONTINUOUS
 62
     1
 10
344.45
 20
375.65
 11
341.552222521
 21
374.873542865
  0
LINE
  8
6
  6
CONTINUOUS
 62
     1
 10
344.45
 20
250.250000765
 11
344.45
 21
378.65
  0
TEXT
  8
6
  6
CONTINUOUS
 62
     1
 10
324.275
 20
377.15
 30
0.45
 40
4.5
  1
３６
 50
0.0
 41
0.433333333
 51
0.0
  7
KANJI2
  0
TEXT
  8
2
  6
CONTINUOUS
 62
     1
 10
461.363636364
 20
24.393939394
 30
0.636363636
 40
6.363636364
  1
用紙　Ａ３　　尺度　２／３
 50
0.0
 41
0.9
 51
0.0
  7
KANJI0
  0
ENDSEC
  0
EOF
