  0
SECTION
  2
HEADER
  9
$ACADVER
  1
AC1015
  9
$ACADMAINTVER
 70
     6
  9
$DWGCODEPAGE
  3
ANSI_932
  9
$INSBASE
 10
0.0
 20
0.0
 30
0.0
  9
$EXTMIN
 10
0.0
 20
0.0
 30
0.0
  9
$EXTMAX
 10
891.0
 20
630.0
 30
0.0
  9
$LIMMIN
 10
0.0
 20
0.0
  9
$LIMMAX
 10
891.0
 20
630.0
  9
$ORTHOMODE
 70
     0
  9
$REGENMODE
 70
     1
  9
$FILLMODE
 70
     1
  9
$QTEXTMODE
 70
     0
  9
$MIRRTEXT
 70
     1
  9
$LTSCALE
 40
3.0
  9
$ATTMODE
 70
     1
  9
$TEXTSIZE
 40
2.5
  9
$TRACEWID
 40
1.0
  9
$TEXTSTYLE
  7
Standard
  9
$CLAYER
  8
0
  9
$CELTYPE
  6
ByLayer
  9
$CECOLOR
 62
   256
  9
$CELTSCALE
 40
1.0
  9
$DISPSILH
 70
     0
  9
$DIMSCALE
 40
1.0
  9
$DIMASZ
 40
2.5
  9
$DIMEXO
 40
0.625
  9
$DIMDLI
 40
3.75
  9
$DIMRND
 40
0.0
  9
$DIMDLE
 40
0.0
  9
$DIMEXE
 40
1.25
  9
$DIMTP
 40
0.0
  9
$DIMTM
 40
0.0
  9
$DIMTXT
 40
2.5
  9
$DIMCEN
 40
2.5
  9
$DIMTSZ
 40
0.0
  9
$DIMTOL
 70
     0
  9
$DIMLIM
 70
     0
  9
$DIMTIH
 70
     0
  9
$DIMTOH
 70
     0
  9
$DIMSE1
 70
     0
  9
$DIMSE2
 70
     0
  9
$DIMTAD
 70
     1
  9
$DIMZIN
 70
     8
  9
$DIMBLK
  1

  9
$DIMASO
 70
     1
  9
$DIMSHO
 70
     1
  9
$DIMPOST
  1

  9
$DIMAPOST
  1

  9
$DIMALT
 70
     0
  9
$DIMALTD
 70
     3
  9
$DIMALTF
 40
0.03937007874016
  9
$DIMLFAC
 40
1.0
  9
$DIMTOFL
 70
     1
  9
$DIMTVP
 40
0.0
  9
$DIMTIX
 70
     0
  9
$DIMSOXD
 70
     0
  9
$DIMSAH
 70
     0
  9
$DIMBLK1
  1

  9
$DIMBLK2
  1

  9
$DIMSTYLE
  2
ISO-25
  9
$DIMCLRD
 70
     0
  9
$DIMCLRE
 70
     0
  9
$DIMCLRT
 70
     0
  9
$DIMTFAC
 40
1.0
  9
$DIMGAP
 40
0.625
  9
$DIMJUST
 70
     0
  9
$DIMSD1
 70
     0
  9
$DIMSD2
 70
     0
  9
$DIMTOLJ
 70
     0
  9
$DIMTZIN
 70
     8
  9
$DIMALTZ
 70
     0
  9
$DIMALTTZ
 70
     0
  9
$DIMUPT
 70
     0
  9
$DIMDEC
 70
     2
  9
$DIMTDEC
 70
     2
  9
$DIMALTU
 70
     2
  9
$DIMALTTD
 70
     3
  9
$DIMTXSTY
  7
Standard
  9
$DIMAUNIT
 70
     0
  9
$DIMADEC
 70
     0
  9
$DIMALTRND
 40
0.0
  9
$DIMAZIN
 70
     0
  9
$DIMDSEP
 70
    46
  9
$DIMATFIT
 70
     3
  9
$DIMFRAC
 70
     0
  9
$DIMLDRBLK
  1

  9
$DIMLUNIT
 70
     2
  9
$DIMLWD
 70
    -2
  9
$DIMLWE
 70
    -2
  9
$DIMTMOVE
 70
     0
  9
$LUNITS
 70
     2
  9
$LUPREC
 70
     4
  9
$SKETCHINC
 40
1.0
  9
$FILLETRAD
 40
10.0
  9
$AUNITS
 70
     0
  9
$AUPREC
 70
     0
  9
$MENU
  1
.
  9
$ELEVATION
 40
0.0
  9
$PELEVATION
 40
0.0
  9
$THICKNESS
 40
0.0
  9
$LIMCHECK
 70
     0
  9
$CHAMFERA
 40
10.0
  9
$CHAMFERB
 40
10.0
  9
$CHAMFERC
 40
20.0
  9
$CHAMFERD
 40
0.0
  9
$SKPOLY
 70
     0
  9
$TDCREATE
 40
2456953.000000
  9
$TDUCREATE
 40
0.000000000
  9
$TDUPDATE
 40
2456953.000000
  9
$TDUUPDATE
 40
2456953.000000
  9
$TDINDWG
 40
0.0
  9
$TDUSRTIMER
 40
0.0
  9
$USRTIMER
 70
     1
  9
$ANGBASE
 50
0.0
  9
$ANGDIR
 70
     0
  9
$PDMODE
 70
     0
  9
$PDSIZE
 40
0.0
  9
$PLINEWID
 40
0.0
  9
$SPLFRAME
 70
     0
  9
$SPLINETYPE
 70
     6
  9
$SPLINESEGS
 70
     8
  9
$HANDSEED
  5
02F0
  9
$SURFTAB1
 70
     6
  9
$SURFTAB2
 70
     6
  9
$SURFTYPE
 70
     6
  9
$SURFU
 70
     6
  9
$SURFV
 70
     6
  9
$UCSBASE
  2

  9
$UCSNAME
  2

  9
$UCSORG
 10
0.0
 20
0.0
 30
0.0
  9
$UCSXDIR
 10
1.0
 20
0.0
 30
0.0
  9
$UCSYDIR
 10
0.0
 20
1.0
 30
0.0
  9
$UCSORTHOREF
  2

  9
$UCSORTHOVIEW
 70
     0
  9
$UCSORGTOP
 10
0.0
 20
0.0
 30
0.0
  9
$UCSORGBOTTOM
 10
0.0
 20
0.0
 30
0.0
  9
$UCSORGLEFT
 10
0.0
 20
0.0
 30
0.0
  9
$UCSORGRIGHT
 10
0.0
 20
0.0
 30
0.0
  9
$UCSORGFRONT
 10
0.0
 20
0.0
 30
0.0
  9
$UCSORGBACK
 10
0.0
 20
0.0
 30
0.0
  9
$PUCSBASE
  2

  9
$PUCSNAME
  2

  9
$PUCSORG
 10
0.0
 20
0.0
 30
0.0
  9
$PUCSXDIR
 10
1.0
 20
0.0
 30
0.0
  9
$PUCSYDIR
 10
0.0
 20
1.0
 30
0.0
  9
$PUCSORTHOREF
  2

  9
$PUCSORTHOVIEW
 70
     0
  9
$PUCSORGTOP
 10
0.0
 20
0.0
 30
0.0
  9
$PUCSORGBOTTOM
 10
0.0
 20
0.0
 30
0.0
  9
$PUCSORGLEFT
 10
0.0
 20
0.0
 30
0.0
  9
$PUCSORGRIGHT
 10
0.0
 20
0.0
 30
0.0
  9
$PUCSORGFRONT
 10
0.0
 20
0.0
 30
0.0
  9
$PUCSORGBACK
 10
0.0
 20
0.0
 30
0.0
  9
$USERI1
 70
     0
  9
$USERI2
 70
     0
  9
$USERI3
 70
     0
  9
$USERI4
 70
     0
  9
$USERI5
 70
     0
  9
$USERR1
 40
0.0
  9
$USERR2
 40
0.0
  9
$USERR3
 40
0.0
  9
$USERR4
 40
0.0
  9
$USERR5
 40
0.0
  9
$WORLDVIEW
 70
     1
  9
$SHADEDGE
 70
     3
  9
$SHADEDIF
 70
    70
  9
$TILEMODE
 70
     1
  9
$MAXACTVP
 70
    64
  9
$PINSBASE
 10
0.0
 20
0.0
 30
0.0
  9
$PLIMCHECK
 70
     0
  9
$PEXTMIN
 10
1.000000E+20
 20
1.000000E+20
 30
1.000000E+20
  9
$PEXTMAX
 10
-1.000000E+20
 20
-1.000000E+20
 30
-1.000000E+20
  9
$PLIMMIN
 10
0.0
 20
0.0
  9
$PLIMMAX
 10
0.0
 20
0.0
  9
$UNITMODE
 70
     0
  9
$VISRETAIN
 70
     0
  9
$PLINEGEN
 70
     0
  9
$PSLTSCALE
 70
     1
  9
$TREEDEPTH
 70
  3020
  9
$CMLSTYLE
  2
STANDARD
  9
$CMLJUST
 70
     0
  9
$CMLSCALE
 40
20.0
  9
$PROXYGRAPHICS
 70
     1
  9
$MEASUREMENT
 70
     1
  9
$CELWEIGHT
370
    -1
  9
$ENDCAPS
280
     0
  9
$JOINSTYLE
280
     0
  9
$LWDISPLAY
290
     0
  9
$INSUNITS
 70
     4
  9
$HYPERLINKBASE
  1

  9
$STYLESHEET
  1

  9
$XEDIT
290
     1
  9
$CEPSNTYPE
380
     0
  9
$PSTYLEMODE
290
     1
  9
$FINGERPRINTGUID
  2
{3BB91F78-3944-2C8A-A07B-86BF78D41C5D}
  9
$VERSIONGUID
  2
{3BB91F78-3944-2C8A-A07B-86BF78D41C5D}
  9
$EXTNAMES
290
     1
  9
$PSVPSCALE
 40
0.0
  0
ENDSEC
  0
SECTION
  2
CLASSES
  0
ENDSEC
  0
SECTION
  2
TABLES
  0
TABLE
  2
VPORT
  5
8
330
0
100
AcDbSymbolTable
 70
     3
  0
VPORT
  5
29
330
8
100
AcDbSymbolTableRecord
100
AcDbViewportTableRecord
  2
*Active
 70
     0
 10
0.0
 20
0.0
 11
1.0
 21
1.0
 12
445.5
 22
315.0
 13
0.0
 23
0.0
 14
10.0
 24
10.0
 15
0.0
 25
0.0
 16
0.0
 26
0.0
 36
1.0
 17
0.0
 27
0.0
 37
0.0
 40
630.0
 41
1.414285714
 42
50.0
 43
0.0
 44
0.0
 50
0.0
 51
0.0
 71
     0
 72
  1000
 73
     1
 74
     3
 75
     0
 76
     0
 77
     0
 78
     0
281
     0
 65
     0
110
0.0
120
0.0
130
0.0
111
1.0
121
0.0
131
0.0
112
0.0
122
1.0
132
0.0
 79
     0
146
0.0
  0
ENDTAB
  0
TABLE
  2
LTYPE
  5
5
330
0
100
AcDbSymbolTable
 70
     7
  0
LTYPE
  5
14
330
5
100
AcDbSymbolTableRecord
100
AcDbLinetypeTableRecord
  2
ByBlock
 70
     0
  3

 72
    65
 73
     0
 40
0.0
  0
LTYPE
  5
15
330
5
100
AcDbSymbolTableRecord
100
AcDbLinetypeTableRecord
  2
ByLayer
 70
     0
  3

 72
    65
 73
     0
 40
0.0
  0
LTYPE
  5
16
330
5
100
AcDbSymbolTableRecord
100
AcDbLinetypeTableRecord
  2
Continuous
 70
     0
  3
Solid line
 72
    65
 73
     0
 40
0.0
  0
LTYPE
  5
10D
330
5
100
AcDbSymbolTableRecord
100
AcDbLinetypeTableRecord
  2
LTYPE1
 70
     0
  3
PHANTOM
 72
    65
 73
     6
 40
30.0
 49
22.5
 74
     0
 49
-1.5
 74
     0
 49
1.5
 74
     0
 49
-1.5
 74
     0
 49
1.5
 74
     0
 49
-1.5
 74
     0
  0
LTYPE
  5
130
330
5
100
AcDbSymbolTableRecord
100
AcDbLinetypeTableRecord
  2
LTYPE2
 70
     0
  3
HIDDEN
 72
    65
 73
     2
 40
6.0
 49
3.6
 74
     0
 49
-2.4
 74
     0
  0
LTYPE
  5
29D
330
5
100
AcDbSymbolTableRecord
100
AcDbLinetypeTableRecord
  2
LTYPE3
 70
     0
  3
CENTER
 72
    65
 73
     4
 40
36.0
 49
25.2
 74
     0
 49
-3.6
 74
     0
 49
3.6
 74
     0
 49
-3.6
 74
     0
  0
LTYPE
  5
2DF
330
5
100
AcDbSymbolTableRecord
100
AcDbLinetypeTableRecord
  2
LTYPE4
 70
     0
  3
HIDDEN
 72
    65
 73
     2
 40
2.0
 49
1.2
 74
     0
 49
-0.8
 74
     0
  0
ENDTAB
  0
TABLE
  2
LAYER
  5
2
330
0
100
AcDbSymbolTable
 70
   128
  0
LAYER
  5
10
330
2
100
AcDbSymbolTableRecord
100
AcDbLayerTableRecord
  2
0
 70
     0
 62
     7
  6
Continuous
290
     1
370
    -3
390
F
  0
LAYER
  5
2A
330
2
100
AcDbSymbolTableRecord
100
AcDbLayerTableRecord
  2
2
 70
     0
 62
     7
  6
Continuous
290
     1
370
    -3
390
F
  0
LAYER
  5
2B
330
2
100
AcDbSymbolTableRecord
100
AcDbLayerTableRecord
  2
3
 70
     0
 62
     7
  6
Continuous
290
     1
370
    -3
390
F
  0
LAYER
  5
2C
330
2
100
AcDbSymbolTableRecord
100
AcDbLayerTableRecord
  2
4
 70
     0
 62
     7
  6
Continuous
290
     1
370
    -3
390
F
  0
LAYER
  5
2D
330
2
100
AcDbSymbolTableRecord
100
AcDbLayerTableRecord
  2
5
 70
     0
 62
     7
  6
Continuous
290
     1
370
    -3
390
F
  0
LAYER
  5
2E
330
2
100
AcDbSymbolTableRecord
100
AcDbLayerTableRecord
  2
6
 70
     0
 62
     7
  6
Continuous
290
     1
370
    -3
390
F
  0
LAYER
  5
2F
330
2
100
AcDbSymbolTableRecord
100
AcDbLayerTableRecord
  2
7
 70
     0
 62
     7
  6
Continuous
290
     1
370
    -3
390
F
  0
LAYER
  5
30
330
2
100
AcDbSymbolTableRecord
100
AcDbLayerTableRecord
  2
8
 70
     0
 62
     7
  6
Continuous
290
     1
370
    -3
390
F
  0
LAYER
  5
31
330
2
100
AcDbSymbolTableRecord
100
AcDbLayerTableRecord
  2
9
 70
     0
 62
     7
  6
Continuous
290
     1
370
    -3
390
F
  0
LAYER
  5
32
330
2
100
AcDbSymbolTableRecord
100
AcDbLayerTableRecord
  2
10
 70
     0
 62
     7
  6
Continuous
290
     1
370
    -3
390
F
  0
LAYER
  5
33
330
2
100
AcDbSymbolTableRecord
100
AcDbLayerTableRecord
  2
11
 70
     0
 62
     7
  6
Continuous
290
     1
370
    -3
390
F
  0
LAYER
  5
34
330
2
100
AcDbSymbolTableRecord
100
AcDbLayerTableRecord
  2
12
 70
     0
 62
     7
  6
Continuous
290
     1
370
    -3
390
F
  0
LAYER
  5
35
330
2
100
AcDbSymbolTableRecord
100
AcDbLayerTableRecord
  2
13
 70
     0
 62
     7
  6
Continuous
290
     1
370
    -3
390
F
  0
LAYER
  5
36
330
2
100
AcDbSymbolTableRecord
100
AcDbLayerTableRecord
  2
14
 70
     0
 62
     7
  6
Continuous
290
     1
370
    -3
390
F
  0
LAYER
  5
37
330
2
100
AcDbSymbolTableRecord
100
AcDbLayerTableRecord
  2
15
 70
     0
 62
     7
  6
Continuous
290
     1
370
    -3
390
F
  0
LAYER
  5
38
330
2
100
AcDbSymbolTableRecord
100
AcDbLayerTableRecord
  2
16
 70
     0
 62
     7
  6
Continuous
290
     1
370
    -3
390
F
  0
LAYER
  5
39
330
2
100
AcDbSymbolTableRecord
100
AcDbLayerTableRecord
  2
17
 70
     0
 62
     7
  6
Continuous
290
     1
370
    -3
390
F
  0
LAYER
  5
3A
330
2
100
AcDbSymbolTableRecord
100
AcDbLayerTableRecord
  2
18
 70
     0
 62
     7
  6
Continuous
290
     1
370
    -3
390
F
  0
LAYER
  5
3B
330
2
100
AcDbSymbolTableRecord
100
AcDbLayerTableRecord
  2
19
 70
     0
 62
     7
  6
Continuous
290
     1
370
    -3
390
F
  0
LAYER
  5
3C
330
2
100
AcDbSymbolTableRecord
100
AcDbLayerTableRecord
  2
20
 70
     0
 62
     7
  6
Continuous
290
     1
370
    -3
390
F
  0
LAYER
  5
3D
330
2
100
AcDbSymbolTableRecord
100
AcDbLayerTableRecord
  2
21
 70
     0
 62
     7
  6
Continuous
290
     1
370
    -3
390
F
  0
LAYER
  5
3E
330
2
100
AcDbSymbolTableRecord
100
AcDbLayerTableRecord
  2
22
 70
     0
 62
     7
  6
Continuous
290
     1
370
    -3
390
F
  0
LAYER
  5
3F
330
2
100
AcDbSymbolTableRecord
100
AcDbLayerTableRecord
  2
23
 70
     0
 62
     7
  6
Continuous
290
     1
370
    -3
390
F
  0
LAYER
  5
40
330
2
100
AcDbSymbolTableRecord
100
AcDbLayerTableRecord
  2
24
 70
     0
 62
     7
  6
Continuous
290
     1
370
    -3
390
F
  0
LAYER
  5
41
330
2
100
AcDbSymbolTableRecord
100
AcDbLayerTableRecord
  2
25
 70
     0
 62
     7
  6
Continuous
290
     1
370
    -3
390
F
  0
LAYER
  5
42
330
2
100
AcDbSymbolTableRecord
100
AcDbLayerTableRecord
  2
26
 70
     0
 62
     7
  6
Continuous
290
     1
370
    -3
390
F
  0
LAYER
  5
43
330
2
100
AcDbSymbolTableRecord
100
AcDbLayerTableRecord
  2
27
 70
     0
 62
     7
  6
Continuous
290
     1
370
    -3
390
F
  0
LAYER
  5
44
330
2
100
AcDbSymbolTableRecord
100
AcDbLayerTableRecord
  2
28
 70
     0
 62
     7
  6
Continuous
290
     1
370
    -3
390
F
  0
LAYER
  5
45
330
2
100
AcDbSymbolTableRecord
100
AcDbLayerTableRecord
  2
29
 70
     0
 62
     7
  6
Continuous
290
     1
370
    -3
390
F
  0
LAYER
  5
46
330
2
100
AcDbSymbolTableRecord
100
AcDbLayerTableRecord
  2
30
 70
     0
 62
     7
  6
Continuous
290
     1
370
    -3
390
F
  0
LAYER
  5
47
330
2
100
AcDbSymbolTableRecord
100
AcDbLayerTableRecord
  2
31
 70
     0
 62
     7
  6
Continuous
290
     1
370
    -3
390
F
  0
LAYER
  5
48
330
2
100
AcDbSymbolTableRecord
100
AcDbLayerTableRecord
  2
32
 70
     0
 62
     7
  6
Continuous
290
     1
370
    -3
390
F
  0
LAYER
  5
49
330
2
100
AcDbSymbolTableRecord
100
AcDbLayerTableRecord
  2
33
 70
     0
 62
     7
  6
Continuous
290
     1
370
    -3
390
F
  0
LAYER
  5
4A
330
2
100
AcDbSymbolTableRecord
100
AcDbLayerTableRecord
  2
34
 70
     0
 62
     7
  6
Continuous
290
     1
370
    -3
390
F
  0
LAYER
  5
4B
330
2
100
AcDbSymbolTableRecord
100
AcDbLayerTableRecord
  2
35
 70
     0
 62
     7
  6
Continuous
290
     1
370
    -3
390
F
  0
LAYER
  5
4C
330
2
100
AcDbSymbolTableRecord
100
AcDbLayerTableRecord
  2
36
 70
     0
 62
     7
  6
Continuous
290
     1
370
    -3
390
F
  0
LAYER
  5
4D
330
2
100
AcDbSymbolTableRecord
100
AcDbLayerTableRecord
  2
37
 70
     0
 62
     7
  6
Continuous
290
     1
370
    -3
390
F
  0
LAYER
  5
4E
330
2
100
AcDbSymbolTableRecord
100
AcDbLayerTableRecord
  2
38
 70
     0
 62
     7
  6
Continuous
290
     1
370
    -3
390
F
  0
LAYER
  5
4F
330
2
100
AcDbSymbolTableRecord
100
AcDbLayerTableRecord
  2
39
 70
     0
 62
     7
  6
Continuous
290
     1
370
    -3
390
F
  0
LAYER
  5
50
330
2
100
AcDbSymbolTableRecord
100
AcDbLayerTableRecord
  2
40
 70
     0
 62
     7
  6
Continuous
290
     1
370
    -3
390
F
  0
LAYER
  5
51
330
2
100
AcDbSymbolTableRecord
100
AcDbLayerTableRecord
  2
41
 70
     0
 62
     7
  6
Continuous
290
     1
370
    -3
390
F
  0
LAYER
  5
52
330
2
100
AcDbSymbolTableRecord
100
AcDbLayerTableRecord
  2
42
 70
     0
 62
     7
  6
Continuous
290
     1
370
    -3
390
F
  0
LAYER
  5
53
330
2
100
AcDbSymbolTableRecord
100
AcDbLayerTableRecord
  2
43
 70
     0
 62
     7
  6
Continuous
290
     1
370
    -3
390
F
  0
LAYER
  5
54
330
2
100
AcDbSymbolTableRecord
100
AcDbLayerTableRecord
  2
44
 70
     0
 62
     7
  6
Continuous
290
     1
370
    -3
390
F
  0
LAYER
  5
55
330
2
100
AcDbSymbolTableRecord
100
AcDbLayerTableRecord
  2
45
 70
     0
 62
     7
  6
Continuous
290
     1
370
    -3
390
F
  0
LAYER
  5
56
330
2
100
AcDbSymbolTableRecord
100
AcDbLayerTableRecord
  2
46
 70
     0
 62
     7
  6
Continuous
290
     1
370
    -3
390
F
  0
LAYER
  5
57
330
2
100
AcDbSymbolTableRecord
100
AcDbLayerTableRecord
  2
47
 70
     0
 62
     7
  6
Continuous
290
     1
370
    -3
390
F
  0
LAYER
  5
58
330
2
100
AcDbSymbolTableRecord
100
AcDbLayerTableRecord
  2
48
 70
     0
 62
     7
  6
Continuous
290
     1
370
    -3
390
F
  0
LAYER
  5
59
330
2
100
AcDbSymbolTableRecord
100
AcDbLayerTableRecord
  2
49
 70
     0
 62
     7
  6
Continuous
290
     1
370
    -3
390
F
  0
LAYER
  5
5A
330
2
100
AcDbSymbolTableRecord
100
AcDbLayerTableRecord
  2
50
 70
     0
 62
     7
  6
Continuous
290
     1
370
    -3
390
F
  0
LAYER
  5
5B
330
2
100
AcDbSymbolTableRecord
100
AcDbLayerTableRecord
  2
51
 70
     0
 62
     7
  6
Continuous
290
     1
370
    -3
390
F
  0
LAYER
  5
5C
330
2
100
AcDbSymbolTableRecord
100
AcDbLayerTableRecord
  2
52
 70
     0
 62
     7
  6
Continuous
290
     1
370
    -3
390
F
  0
LAYER
  5
5D
330
2
100
AcDbSymbolTableRecord
100
AcDbLayerTableRecord
  2
53
 70
     0
 62
     7
  6
Continuous
290
     1
370
    -3
390
F
  0
LAYER
  5
5E
330
2
100
AcDbSymbolTableRecord
100
AcDbLayerTableRecord
  2
54
 70
     0
 62
     7
  6
Continuous
290
     1
370
    -3
390
F
  0
LAYER
  5
5F
330
2
100
AcDbSymbolTableRecord
100
AcDbLayerTableRecord
  2
55
 70
     0
 62
     7
  6
Continuous
290
     1
370
    -3
390
F
  0
LAYER
  5
60
330
2
100
AcDbSymbolTableRecord
100
AcDbLayerTableRecord
  2
56
 70
     0
 62
     7
  6
Continuous
290
     1
370
    -3
390
F
  0
LAYER
  5
61
330
2
100
AcDbSymbolTableRecord
100
AcDbLayerTableRecord
  2
57
 70
     0
 62
     7
  6
Continuous
290
     1
370
    -3
390
F
  0
LAYER
  5
62
330
2
100
AcDbSymbolTableRecord
100
AcDbLayerTableRecord
  2
58
 70
     0
 62
     7
  6
Continuous
290
     1
370
    -3
390
F
  0
LAYER
  5
63
330
2
100
AcDbSymbolTableRecord
100
AcDbLayerTableRecord
  2
59
 70
     0
 62
     7
  6
Continuous
290
     1
370
    -3
390
F
  0
LAYER
  5
64
330
2
100
AcDbSymbolTableRecord
100
AcDbLayerTableRecord
  2
60
 70
     0
 62
     7
  6
Continuous
290
     1
370
    -3
390
F
  0
LAYER
  5
65
330
2
100
AcDbSymbolTableRecord
100
AcDbLayerTableRecord
  2
61
 70
     0
 62
     7
  6
Continuous
290
     1
370
    -3
390
F
  0
LAYER
  5
66
330
2
100
AcDbSymbolTableRecord
100
AcDbLayerTableRecord
  2
62
 70
     0
 62
     7
  6
Continuous
290
     1
370
    -3
390
F
  0
LAYER
  5
67
330
2
100
AcDbSymbolTableRecord
100
AcDbLayerTableRecord
  2
63
 70
     0
 62
     7
  6
Continuous
290
     1
370
    -3
390
F
  0
LAYER
  5
68
330
2
100
AcDbSymbolTableRecord
100
AcDbLayerTableRecord
  2
64
 70
     0
 62
     7
  6
Continuous
290
     1
370
    -3
390
F
  0
LAYER
  5
69
330
2
100
AcDbSymbolTableRecord
100
AcDbLayerTableRecord
  2
65
 70
     0
 62
     7
  6
Continuous
290
     1
370
    -3
390
F
  0
LAYER
  5
6A
330
2
100
AcDbSymbolTableRecord
100
AcDbLayerTableRecord
  2
66
 70
     0
 62
     7
  6
Continuous
290
     1
370
    -3
390
F
  0
LAYER
  5
6B
330
2
100
AcDbSymbolTableRecord
100
AcDbLayerTableRecord
  2
67
 70
     0
 62
     7
  6
Continuous
290
     1
370
    -3
390
F
  0
LAYER
  5
6C
330
2
100
AcDbSymbolTableRecord
100
AcDbLayerTableRecord
  2
68
 70
     0
 62
     7
  6
Continuous
290
     1
370
    -3
390
F
  0
LAYER
  5
6D
330
2
100
AcDbSymbolTableRecord
100
AcDbLayerTableRecord
  2
69
 70
     0
 62
     7
  6
Continuous
290
     1
370
    -3
390
F
  0
LAYER
  5
6E
330
2
100
AcDbSymbolTableRecord
100
AcDbLayerTableRecord
  2
70
 70
     0
 62
     7
  6
Continuous
290
     1
370
    -3
390
F
  0
LAYER
  5
6F
330
2
100
AcDbSymbolTableRecord
100
AcDbLayerTableRecord
  2
71
 70
     0
 62
     7
  6
Continuous
290
     1
370
    -3
390
F
  0
LAYER
  5
70
330
2
100
AcDbSymbolTableRecord
100
AcDbLayerTableRecord
  2
72
 70
     0
 62
     7
  6
Continuous
290
     1
370
    -3
390
F
  0
LAYER
  5
71
330
2
100
AcDbSymbolTableRecord
100
AcDbLayerTableRecord
  2
73
 70
     0
 62
     7
  6
Continuous
290
     1
370
    -3
390
F
  0
LAYER
  5
72
330
2
100
AcDbSymbolTableRecord
100
AcDbLayerTableRecord
  2
74
 70
     0
 62
     7
  6
Continuous
290
     1
370
    -3
390
F
  0
LAYER
  5
73
330
2
100
AcDbSymbolTableRecord
100
AcDbLayerTableRecord
  2
75
 70
     0
 62
     7
  6
Continuous
290
     1
370
    -3
390
F
  0
LAYER
  5
74
330
2
100
AcDbSymbolTableRecord
100
AcDbLayerTableRecord
  2
76
 70
     0
 62
     7
  6
Continuous
290
     1
370
    -3
390
F
  0
LAYER
  5
75
330
2
100
AcDbSymbolTableRecord
100
AcDbLayerTableRecord
  2
77
 70
     0
 62
     7
  6
Continuous
290
     1
370
    -3
390
F
  0
LAYER
  5
76
330
2
100
AcDbSymbolTableRecord
100
AcDbLayerTableRecord
  2
78
 70
     0
 62
     7
  6
Continuous
290
     1
370
    -3
390
F
  0
LAYER
  5
77
330
2
100
AcDbSymbolTableRecord
100
AcDbLayerTableRecord
  2
79
 70
     0
 62
     7
  6
Continuous
290
     1
370
    -3
390
F
  0
LAYER
  5
78
330
2
100
AcDbSymbolTableRecord
100
AcDbLayerTableRecord
  2
80
 70
     0
 62
     7
  6
Continuous
290
     1
370
    -3
390
F
  0
LAYER
  5
79
330
2
100
AcDbSymbolTableRecord
100
AcDbLayerTableRecord
  2
81
 70
     0
 62
     7
  6
Continuous
290
     1
370
    -3
390
F
  0
LAYER
  5
7A
330
2
100
AcDbSymbolTableRecord
100
AcDbLayerTableRecord
  2
82
 70
     0
 62
     7
  6
Continuous
290
     1
370
    -3
390
F
  0
LAYER
  5
7B
330
2
100
AcDbSymbolTableRecord
100
AcDbLayerTableRecord
  2
83
 70
     0
 62
     7
  6
Continuous
290
     1
370
    -3
390
F
  0
LAYER
  5
7C
330
2
100
AcDbSymbolTableRecord
100
AcDbLayerTableRecord
  2
84
 70
     0
 62
     7
  6
Continuous
290
     1
370
    -3
390
F
  0
LAYER
  5
7D
330
2
100
AcDbSymbolTableRecord
100
AcDbLayerTableRecord
  2
85
 70
     0
 62
     7
  6
Continuous
290
     1
370
    -3
390
F
  0
LAYER
  5
7E
330
2
100
AcDbSymbolTableRecord
100
AcDbLayerTableRecord
  2
86
 70
     0
 62
     7
  6
Continuous
290
     1
370
    -3
390
F
  0
LAYER
  5
7F
330
2
100
AcDbSymbolTableRecord
100
AcDbLayerTableRecord
  2
87
 70
     0
 62
     7
  6
Continuous
290
     1
370
    -3
390
F
  0
LAYER
  5
80
330
2
100
AcDbSymbolTableRecord
100
AcDbLayerTableRecord
  2
88
 70
     0
 62
     7
  6
Continuous
290
     1
370
    -3
390
F
  0
LAYER
  5
81
330
2
100
AcDbSymbolTableRecord
100
AcDbLayerTableRecord
  2
89
 70
     0
 62
     7
  6
Continuous
290
     1
370
    -3
390
F
  0
LAYER
  5
82
330
2
100
AcDbSymbolTableRecord
100
AcDbLayerTableRecord
  2
90
 70
     0
 62
     7
  6
Continuous
290
     1
370
    -3
390
F
  0
LAYER
  5
83
330
2
100
AcDbSymbolTableRecord
100
AcDbLayerTableRecord
  2
91
 70
     0
 62
     7
  6
Continuous
290
     1
370
    -3
390
F
  0
LAYER
  5
84
330
2
100
AcDbSymbolTableRecord
100
AcDbLayerTableRecord
  2
92
 70
     0
 62
     7
  6
Continuous
290
     1
370
    -3
390
F
  0
LAYER
  5
85
330
2
100
AcDbSymbolTableRecord
100
AcDbLayerTableRecord
  2
93
 70
     0
 62
     7
  6
Continuous
290
     1
370
    -3
390
F
  0
LAYER
  5
86
330
2
100
AcDbSymbolTableRecord
100
AcDbLayerTableRecord
  2
94
 70
     0
 62
     7
  6
Continuous
290
     1
370
    -3
390
F
  0
LAYER
  5
87
330
2
100
AcDbSymbolTableRecord
100
AcDbLayerTableRecord
  2
95
 70
     0
 62
     7
  6
Continuous
290
     1
370
    -3
390
F
  0
LAYER
  5
88
330
2
100
AcDbSymbolTableRecord
100
AcDbLayerTableRecord
  2
96
 70
     0
 62
     7
  6
Continuous
290
     1
370
    -3
390
F
  0
LAYER
  5
89
330
2
100
AcDbSymbolTableRecord
100
AcDbLayerTableRecord
  2
97
 70
     0
 62
     7
  6
Continuous
290
     1
370
    -3
390
F
  0
LAYER
  5
8A
330
2
100
AcDbSymbolTableRecord
100
AcDbLayerTableRecord
  2
98
 70
     0
 62
     7
  6
Continuous
290
     1
370
    -3
390
F
  0
LAYER
  5
8B
330
2
100
AcDbSymbolTableRecord
100
AcDbLayerTableRecord
  2
99
 70
     0
 62
     7
  6
Continuous
290
     1
370
    -3
390
F
  0
LAYER
  5
8C
330
2
100
AcDbSymbolTableRecord
100
AcDbLayerTableRecord
  2
100
 70
     0
 62
     7
  6
Continuous
290
     1
370
    -3
390
F
  0
LAYER
  5
8D
330
2
100
AcDbSymbolTableRecord
100
AcDbLayerTableRecord
  2
101
 70
     0
 62
     7
  6
Continuous
290
     1
370
    -3
390
F
  0
LAYER
  5
8E
330
2
100
AcDbSymbolTableRecord
100
AcDbLayerTableRecord
  2
102
 70
     0
 62
     7
  6
Continuous
290
     1
370
    -3
390
F
  0
LAYER
  5
8F
330
2
100
AcDbSymbolTableRecord
100
AcDbLayerTableRecord
  2
103
 70
     0
 62
     7
  6
Continuous
290
     1
370
    -3
390
F
  0
LAYER
  5
90
330
2
100
AcDbSymbolTableRecord
100
AcDbLayerTableRecord
  2
104
 70
     0
 62
     7
  6
Continuous
290
     1
370
    -3
390
F
  0
LAYER
  5
91
330
2
100
AcDbSymbolTableRecord
100
AcDbLayerTableRecord
  2
105
 70
     0
 62
     7
  6
Continuous
290
     1
370
    -3
390
F
  0
LAYER
  5
92
330
2
100
AcDbSymbolTableRecord
100
AcDbLayerTableRecord
  2
106
 70
     0
 62
     7
  6
Continuous
290
     1
370
    -3
390
F
  0
LAYER
  5
93
330
2
100
AcDbSymbolTableRecord
100
AcDbLayerTableRecord
  2
107
 70
     0
 62
     7
  6
Continuous
290
     1
370
    -3
390
F
  0
LAYER
  5
94
330
2
100
AcDbSymbolTableRecord
100
AcDbLayerTableRecord
  2
108
 70
     0
 62
     7
  6
Continuous
290
     1
370
    -3
390
F
  0
LAYER
  5
95
330
2
100
AcDbSymbolTableRecord
100
AcDbLayerTableRecord
  2
109
 70
     0
 62
     7
  6
Continuous
290
     1
370
    -3
390
F
  0
LAYER
  5
96
330
2
100
AcDbSymbolTableRecord
100
AcDbLayerTableRecord
  2
110
 70
     0
 62
     7
  6
Continuous
290
     1
370
    -3
390
F
  0
LAYER
  5
97
330
2
100
AcDbSymbolTableRecord
100
AcDbLayerTableRecord
  2
111
 70
     0
 62
     7
  6
Continuous
290
     1
370
    -3
390
F
  0
LAYER
  5
98
330
2
100
AcDbSymbolTableRecord
100
AcDbLayerTableRecord
  2
112
 70
     0
 62
     7
  6
Continuous
290
     1
370
    -3
390
F
  0
LAYER
  5
99
330
2
100
AcDbSymbolTableRecord
100
AcDbLayerTableRecord
  2
113
 70
     0
 62
     7
  6
Continuous
290
     1
370
    -3
390
F
  0
LAYER
  5
9A
330
2
100
AcDbSymbolTableRecord
100
AcDbLayerTableRecord
  2
114
 70
     0
 62
     7
  6
Continuous
290
     1
370
    -3
390
F
  0
LAYER
  5
9B
330
2
100
AcDbSymbolTableRecord
100
AcDbLayerTableRecord
  2
115
 70
     0
 62
     7
  6
Continuous
290
     1
370
    -3
390
F
  0
LAYER
  5
9C
330
2
100
AcDbSymbolTableRecord
100
AcDbLayerTableRecord
  2
116
 70
     0
 62
     7
  6
Continuous
290
     1
370
    -3
390
F
  0
LAYER
  5
9D
330
2
100
AcDbSymbolTableRecord
100
AcDbLayerTableRecord
  2
117
 70
     0
 62
     7
  6
Continuous
290
     1
370
    -3
390
F
  0
LAYER
  5
9E
330
2
100
AcDbSymbolTableRecord
100
AcDbLayerTableRecord
  2
118
 70
     0
 62
     7
  6
Continuous
290
     1
370
    -3
390
F
  0
LAYER
  5
9F
330
2
100
AcDbSymbolTableRecord
100
AcDbLayerTableRecord
  2
119
 70
     0
 62
     7
  6
Continuous
290
     1
370
    -3
390
F
  0
LAYER
  5
A0
330
2
100
AcDbSymbolTableRecord
100
AcDbLayerTableRecord
  2
120
 70
     0
 62
     7
  6
Continuous
290
     1
370
    -3
390
F
  0
LAYER
  5
A1
330
2
100
AcDbSymbolTableRecord
100
AcDbLayerTableRecord
  2
121
 70
     0
 62
     7
  6
Continuous
290
     1
370
    -3
390
F
  0
LAYER
  5
A2
330
2
100
AcDbSymbolTableRecord
100
AcDbLayerTableRecord
  2
122
 70
     0
 62
     7
  6
Continuous
290
     1
370
    -3
390
F
  0
LAYER
  5
A3
330
2
100
AcDbSymbolTableRecord
100
AcDbLayerTableRecord
  2
123
 70
     0
 62
     7
  6
Continuous
290
     1
370
    -3
390
F
  0
LAYER
  5
A4
330
2
100
AcDbSymbolTableRecord
100
AcDbLayerTableRecord
  2
124
 70
     0
 62
     7
  6
Continuous
290
     1
370
    -3
390
F
  0
LAYER
  5
A5
330
2
100
AcDbSymbolTableRecord
100
AcDbLayerTableRecord
  2
125
 70
     0
 62
     7
  6
Continuous
290
     1
370
    -3
390
F
  0
LAYER
  5
A6
330
2
100
AcDbSymbolTableRecord
100
AcDbLayerTableRecord
  2
126
 70
     0
 62
     7
  6
Continuous
290
     1
370
    -3
390
F
  0
LAYER
  5
A7
330
2
100
AcDbSymbolTableRecord
100
AcDbLayerTableRecord
  2
127
 70
     0
 62
     7
  6
Continuous
290
     1
370
    -3
390
F
  0
LAYER
  5
A8
330
2
100
AcDbSymbolTableRecord
100
AcDbLayerTableRecord
  2
128
 70
     0
 62
     7
  6
Continuous
290
     1
370
    -3
390
F
  0
ENDTAB
  0
TABLE
  2
STYLE
  5
3
330
0
100
AcDbSymbolTable
 70
     6
  0
STYLE
  5
11
330
3
100
AcDbSymbolTableRecord
100
AcDbTextStyleTableRecord
  2
Standard
 70
     0
 40
0.0
 41
1.0
 50
0.0
 71
     0
 42
2.5
  3
txt.shx
  4
extfont.shx
  0
STYLE
  5
B5
330
3
100
AcDbSymbolTableRecord
100
AcDbTextStyleTableRecord
  2
KANJI0
 70
     0
 40
9.000900091
 41
0.9
 50
0.0
 71
     0
 42
9.000900091
  3
txt.shx
  4
extfont.shx
  0
STYLE
  5
BE
330
3
100
AcDbSymbolTableRecord
100
AcDbTextStyleTableRecord
  2
KANJI1
 70
     0
 40
6.0
 41
0.6
 50
0.0
 71
     0
 42
6.0
  3
txt.shx
  4
extfont.shx
  0
STYLE
  5
EC
330
3
100
AcDbSymbolTableRecord
100
AcDbTextStyleTableRecord
  2
KANJI2
 70
     0
 40
6.0
 41
1.0
 50
0.0
 71
     0
 42
6.0
  3
txt.shx
  4
extfont.shx
  0
STYLE
  5
1D0
330
3
100
AcDbSymbolTableRecord
100
AcDbTextStyleTableRecord
  2
KANJI3
 70
     0
 40
7.5
 41
0.9
 50
0.0
 71
     0
 42
7.5
  3
txt.shx
  4
extfont.shx
  0
STYLE
  5
2DA
330
3
100
AcDbSymbolTableRecord
100
AcDbTextStyleTableRecord
  2
KANJI4
 70
     0
 40
12.00120012
 41
0.9
 50
0.0
 71
     0
 42
12.00120012
  3
txt.shx
  4
extfont.shx
  0
ENDTAB
  0
TABLE
  2
VIEW
  5
6
330
0
100
AcDbSymbolTable
 70
     0
  0
ENDTAB
  0
TABLE
  2
UCS
  5
7
330
0
100
AcDbSymbolTable
 70
     0
  0
ENDTAB
  0
TABLE
  2
APPID
  5
9
330
0
100
AcDbSymbolTable
 70
     1
  0
APPID
  5
12
330
9
100
AcDbSymbolTableRecord
100
AcDbRegAppTableRecord
  2
ACAD
 70
     0
  0
ENDTAB
  0
TABLE
  2
DIMSTYLE
  5
A
330
0
100
AcDbSymbolTable
 70
     1
100
AcDbDimStyleTable
 71
     0
  0
DIMSTYLE
105
27
330
A
100
AcDbSymbolTableRecord
100
AcDbDimStyleTableRecord
  2
ISO-25
 70
    64
  3

  4

 40
1.0
 41
2.5
 42
0.625
 43
3.75
 44
1.25
 45
0.0
 46
0.0
 47
0.0
 48
0.0
 71
     0
 72
     0
 73
     0
 74
     0
 75
     0
 76
     0
 77
     1
 78
     8
 79
     0
140
2.5
141
2.5
142
0.0
143
0.039370079
144
1.0
145
0.0
146
1.0
147
0.625
148
0.0
170
     0
171
     3
172
     1
173
     0
174
     0
175
     0
176
     0
177
     0
178
     0
179
     0
270
     2
271
     2
272
     2
273
     2
274
     3
275
     0
276
     0
277
     2
278
    46
279
     0
280
     0
281
     0
282
     0
283
     1
284
     8
285
     0
286
     0
288
     0
289
     3
340
11
341
0
342
0
343
0
344
0
371
    -2
372
    -2
  0
ENDTAB
  0
TABLE
  2
BLOCK_RECORD
  5
1
330
0
100
AcDbSymbolTable
 70
     3
  0
BLOCK_RECORD
  5
1F
330
1
100
AcDbSymbolTableRecord
100
AcDbBlockTableRecord
  2
*Model_Space
340
22
  0
BLOCK_RECORD
  5
1B
330
1
100
AcDbSymbolTableRecord
100
AcDbBlockTableRecord
  2
*Paper_Space
340
1E
  0
BLOCK_RECORD
  5
23
330
1
100
AcDbSymbolTableRecord
100
AcDbBlockTableRecord
  2
*Paper_Space0
340
26
  0
ENDTAB
  0
ENDSEC
  0
SECTION
  2
BLOCKS
  0
BLOCK
  5
1C
330
1B
100
AcDbEntity
 67
     1
  8
0
100
AcDbBlockBegin
  2
*Paper_Space
 70
     0
 10
0.0
 20
0.0
 30
0.0
  3
*Paper_Space
  1

  0
ENDBLK
  5
1D
330
1B
100
AcDbEntity
  8
0
100
AcDbBlockEnd
  0
BLOCK
  5
20
330
1F
100
AcDbEntity
  8
0
100
AcDbBlockBegin
  2
*Model_Space
 70
     0
 10
0.0
 20
0.0
 30
0.0
  3
*Model_Space
  1

  0
ENDBLK
  5
21
330
1F
100
AcDbEntity
  8
0
100
AcDbBlockEnd
  0
BLOCK
  5
24
330
23
100
AcDbEntity
 67
     1
  8
0
100
AcDbBlockBegin
  2
*Paper_Space0
 70
     0
 10
0.0
 20
0.0
 30
0.0
  3
*Paper_Space0
  1

  0
ENDBLK
  5
25
330
23
100
AcDbEntity
  8
0
100
AcDbBlockEnd
  0
ENDSEC
  0
SECTION
  2
ENTITIES
  0
LINE
  5
A9
330
1F
100
AcDbEntity
  8
0
  6
Continuous
 62
     2
100
AcDbLine
 10
858.041254125
 20
600.02850285
 30
0.0
 11
32.958745875
 21
600.02850285
 31
0.0
  0
LINE
  5
AA
330
1F
100
AcDbEntity
  8
0
  6
Continuous
 62
     2
100
AcDbLine
 10
32.958745875
 20
600.02850285
 30
0.0
 11
32.958745875
 21
29.97149715
 31
0.0
  0
LINE
  5
AB
330
1F
100
AcDbEntity
  8
0
  6
Continuous
 62
     2
100
AcDbLine
 10
32.958745875
 20
29.97149715
 30
0.0
 11
858.041254125
 21
29.97149715
 31
0.0
  0
LINE
  5
AC
330
1F
100
AcDbEntity
  8
0
  6
Continuous
 62
     2
100
AcDbLine
 10
858.041254125
 20
29.97149715
 30
0.0
 11
858.041254125
 21
600.02850285
 31
0.0
  0
LINE
  5
AD
330
1F
100
AcDbEntity
  8
0
  6
Continuous
 62
     2
100
AcDbLine
 10
648.020252026
 20
47.973297329
 30
0.0
 11
858.041254125
 21
47.973297329
 31
0.0
  0
LINE
  5
AE
330
1F
100
AcDbEntity
  8
0
  6
Continuous
 62
     2
100
AcDbLine
 10
858.041254125
 20
65.975097511
 30
0.0
 11
648.020252026
 21
65.975097511
 31
0.0
  0
LINE
  5
AF
330
1F
100
AcDbEntity
  8
0
  6
Continuous
 62
     2
100
AcDbLine
 10
648.020252026
 20
83.97689769
 30
0.0
 11
858.041254125
 21
83.97689769
 31
0.0
  0
LINE
  5
B0
330
1F
100
AcDbEntity
  8
0
  6
Continuous
 62
     2
100
AcDbLine
 10
858.041254125
 20
101.97869787
 30
0.0
 11
648.020252026
 21
101.97869787
 31
0.0
  0
LINE
  5
B1
330
1F
100
AcDbEntity
  8
0
  6
Continuous
 62
     2
100
AcDbLine
 10
648.020252026
 20
119.980498049
 30
0.0
 11
858.041254125
 21
119.980498049
 31
0.0
  0
LINE
  5
B2
330
1F
100
AcDbEntity
  8
0
  6
Continuous
 62
     2
100
AcDbLine
 10
858.041254125
 20
137.98229823
 30
0.0
 11
648.020252026
 21
137.98229823
 31
0.0
  0
LINE
  5
B3
330
1F
100
AcDbEntity
  8
0
  6
Continuous
 62
     2
100
AcDbLine
 10
648.020252026
 20
137.98229823
 30
0.0
 11
648.020252026
 21
29.97149715
 31
0.0
  0
MTEXT
  5
B4
330
1F
100
AcDbEntity
  8
0
  6
Continuous
 62
     2
100
AcDbMText
 10
655.521002101
 20
106.479147915
 30
0.0
 40
9.000900091
 41
196.201620184
 71
     7
 72
     1
  1
\T1.111;\W0.900;バトンクランプハンガー
  7
KANJI0
 73
     1
 44
1.0
  0
LINE
  5
B6
330
1F
100
AcDbEntity
  8
6
  6
Continuous
 62
     2
100
AcDbLine
 10
256.755745575
 20
193.66849685
 30
0.0
 11
256.755745575
 21
105.76849685
 31
0.0
  0
LINE
  5
B7
330
1F
100
AcDbEntity
  8
6
  6
Continuous
 62
     2
100
AcDbLine
 10
256.755745575
 20
109.76849685
 30
0.0
 11
261.585374706
 21
108.474401624
 31
0.0
  0
LINE
  5
B8
330
1F
100
AcDbEntity
  8
6
  6
Continuous
 62
     2
100
AcDbLine
 10
256.755745575
 20
109.76849685
 30
0.0
 11
261.585374706
 21
111.062592076
 31
0.0
  0
LINE
  5
B9
330
1F
100
AcDbEntity
  8
6
  6
Continuous
 62
     2
100
AcDbLine
 10
256.755745575
 20
109.76849685
 30
0.0
 11
391.755745575
 21
109.76849685
 31
0.0
  0
LINE
  5
BA
330
1F
100
AcDbEntity
  8
6
  6
Continuous
 62
     2
100
AcDbLine
 10
391.755745575
 20
109.76849685
 30
0.0
 11
386.926116444
 21
111.062592076
 31
0.0
  0
LINE
  5
BB
330
1F
100
AcDbEntity
  8
6
  6
Continuous
 62
     2
100
AcDbLine
 10
391.755745575
 20
109.76849685
 30
0.0
 11
386.926116444
 21
108.474401624
 31
0.0
  0
LINE
  5
BC
330
1F
100
AcDbEntity
  8
6
  6
Continuous
 62
     2
100
AcDbLine
 10
391.755745575
 20
192.76849685
 30
0.0
 11
391.755745575
 21
105.76849685
 31
0.0
  0
MTEXT
  5
BD
330
1F
100
AcDbEntity
  8
6
  6
Continuous
 62
     2
100
AcDbMText
 10
309.855745575
 20
113.76849685
 30
0.0
 40
6.0
 41
57.6144
 71
     7
 72
     1
  1
\T1.167;\W0.600;１２０～１５０
  7
KANJI1
 73
     1
 44
1.0
  0
LINE
  5
BF
330
1F
100
AcDbEntity
  8
6
  6
Continuous
 62
     2
100
AcDbLine
 10
414.255745575
 20
132.76849685
 30
0.0
 11
414.255745575
 21
90.76849685
 31
0.0
  0
LINE
  5
C0
330
1F
100
AcDbEntity
  8
6
  6
Continuous
 62
     2
100
AcDbLine
 10
414.255745575
 20
94.76849685
 30
0.0
 11
409.426116444
 21
96.062592076
 31
0.0
  0
LINE
  5
C1
330
1F
100
AcDbEntity
  8
6
  6
Continuous
 62
     2
100
AcDbLine
 10
414.255745575
 20
94.76849685
 30
0.0
 11
409.426116444
 21
93.474401624
 31
0.0
  0
LINE
  5
C2
330
1F
100
AcDbEntity
  8
6
  6
Continuous
 62
     2
100
AcDbLine
 10
414.255745575
 20
94.76849685
 30
0.0
 11
234.255745575
 21
94.76849685
 31
0.0
  0
LINE
  5
C3
330
1F
100
AcDbEntity
  8
6
  6
Continuous
 62
     2
100
AcDbLine
 10
234.255745575
 20
94.76849685
 30
0.0
 11
239.085374706
 21
93.474401624
 31
0.0
  0
LINE
  5
C4
330
1F
100
AcDbEntity
  8
6
  6
Continuous
 62
     2
100
AcDbLine
 10
234.255745575
 20
94.76849685
 30
0.0
 11
239.085374706
 21
96.062592076
 31
0.0
  0
LINE
  5
C5
330
1F
100
AcDbEntity
  8
6
  6
Continuous
 62
     2
100
AcDbLine
 10
234.255745575
 20
132.76849685
 30
0.0
 11
234.255745575
 21
90.76849685
 31
0.0
  0
MTEXT
  5
C6
330
1F
100
AcDbEntity
  8
6
  6
Continuous
 62
     2
100
AcDbMText
 10
318.255745575
 20
98.76849685
 30
0.0
 40
6.0
 41
24.0048
 71
     7
 72
     1
  1
\T1.167;\W0.600;１８０
  7
KANJI1
 73
     1
 44
1.0
  0
LINE
  5
C7
330
1F
100
AcDbEntity
  8
6
  6
Continuous
 62
     2
100
AcDbLine
 10
259.255745575
 20
204.26849685
 30
0.0
 11
259.255745575
 21
249.76849685
 31
0.0
  0
LINE
  5
C8
330
1F
100
AcDbEntity
  8
6
  6
Continuous
 62
     2
100
AcDbLine
 10
259.255745575
 20
245.76849685
 30
0.0
 11
264.085374706
 21
244.474401624
 31
0.0
  0
LINE
  5
C9
330
1F
100
AcDbEntity
  8
6
  6
Continuous
 62
     2
100
AcDbLine
 10
259.255745575
 20
245.76849685
 30
0.0
 11
264.085374706
 21
247.062592076
 31
0.0
  0
LINE
  5
CA
330
1F
100
AcDbEntity
  8
6
  6
Continuous
 62
     2
100
AcDbLine
 10
259.255745575
 20
245.76849685
 30
0.0
 11
389.255745575
 21
245.76849685
 31
0.0
  0
LINE
  5
CB
330
1F
100
AcDbEntity
  8
6
  6
Continuous
 62
     2
100
AcDbLine
 10
389.255745575
 20
245.76849685
 30
0.0
 11
384.426116444
 21
247.062592076
 31
0.0
  0
LINE
  5
CC
330
1F
100
AcDbEntity
  8
6
  6
Continuous
 62
     2
100
AcDbLine
 10
389.255745575
 20
245.76849685
 30
0.0
 11
384.426116444
 21
244.474401624
 31
0.0
  0
LINE
  5
CD
330
1F
100
AcDbEntity
  8
6
  6
Continuous
 62
     2
100
AcDbLine
 10
389.255745575
 20
204.26849685
 30
0.0
 11
389.255745575
 21
249.76849685
 31
0.0
  0
MTEXT
  5
CE
330
1F
100
AcDbEntity
  8
6
  6
Continuous
 62
     2
100
AcDbMText
 10
318.255745575
 20
249.76849685
 30
0.0
 40
6.0
 41
24.0048
 71
     7
 72
     1
  1
\T1.167;\W0.600;１３０
  7
KANJI1
 73
     1
 44
1.0
  0
LINE
  5
CF
330
1F
100
AcDbEntity
  8
6
  6
Continuous
 62
     2
100
AcDbLine
 10
381.255745575
 20
212.26849685
 30
0.0
 11
443.255745575
 21
212.26849685
 31
0.0
  0
LINE
  5
D0
330
1F
100
AcDbEntity
  8
6
  6
Continuous
 62
     2
100
AcDbLine
 10
439.255745575
 20
212.26849685
 30
0.0
 11
437.961650349
 21
207.438867719
 31
0.0
  0
LINE
  5
D1
330
1F
100
AcDbEntity
  8
6
  6
Continuous
 62
     2
100
AcDbLine
 10
439.255745575
 20
212.26849685
 30
0.0
 11
440.549840801
 21
207.438867719
 31
0.0
  0
LINE
  5
D2
330
1F
100
AcDbEntity
  8
6
  6
Continuous
 62
     2
100
AcDbLine
 10
439.255745575
 20
212.26849685
 30
0.0
 11
439.255745575
 21
148.26849685
 31
0.0
  0
LINE
  5
D3
330
1F
100
AcDbEntity
  8
6
  6
Continuous
 62
     2
100
AcDbLine
 10
439.255745575
 20
148.26849685
 30
0.0
 11
440.549840801
 21
153.098125981
 31
0.0
  0
LINE
  5
D4
330
1F
100
AcDbEntity
  8
6
  6
Continuous
 62
     2
100
AcDbLine
 10
439.255745575
 20
148.26849685
 30
0.0
 11
437.961650349
 21
153.098125981
 31
0.0
  0
LINE
  5
D5
330
1F
100
AcDbEntity
  8
6
  6
Continuous
 62
     2
100
AcDbLine
 10
381.255745575
 20
148.26849685
 30
0.0
 11
443.255745575
 21
148.26849685
 31
0.0
  0
MTEXT
  5
D6
330
1F
100
AcDbEntity
  8
6
  6
Continuous
 62
     2
100
AcDbMText
 10
435.255745575
 20
176.36849685
 30
0.0
 40
6.0
 41
15.6024
 71
     7
 72
     1
  1
\T1.167;\W0.600;６４
  7
KANJI1
 11
0.0
 21
1.0
 31
0.0
 73
     1
 44
1.0
  0
LINE
  5
D7
330
1F
100
AcDbEntity
  8
6
  6
Continuous
 62
     2
100
AcDbLine
 10
416.255745575
 20
225.76849685
 30
0.0
 11
458.255745575
 21
225.76849685
 31
0.0
  0
LINE
  5
D8
330
1F
100
AcDbEntity
  8
6
  6
Continuous
 62
     2
100
AcDbLine
 10
454.255745575
 20
225.76849685
 30
0.0
 11
452.961650349
 21
220.938867719
 31
0.0
  0
LINE
  5
D9
330
1F
100
AcDbEntity
  8
6
  6
Continuous
 62
     2
100
AcDbLine
 10
454.255745575
 20
225.76849685
 30
0.0
 11
455.549840801
 21
220.938867719
 31
0.0
  0
LINE
  5
DA
330
1F
100
AcDbEntity
  8
6
  6
Continuous
 62
     2
100
AcDbLine
 10
454.255745575
 20
225.76849685
 30
0.0
 11
454.255745575
 21
134.76849685
 31
0.0
  0
LINE
  5
DB
330
1F
100
AcDbEntity
  8
6
  6
Continuous
 62
     2
100
AcDbLine
 10
454.255745575
 20
134.76849685
 30
0.0
 11
455.549840801
 21
139.598125981
 31
0.0
  0
LINE
  5
DC
330
1F
100
AcDbEntity
  8
6
  6
Continuous
 62
     2
100
AcDbLine
 10
454.255745575
 20
134.76849685
 30
0.0
 11
452.961650349
 21
139.598125981
 31
0.0
  0
LINE
  5
DD
330
1F
100
AcDbEntity
  8
6
  6
Continuous
 62
     2
100
AcDbLine
 10
416.255745575
 20
134.76849685
 30
0.0
 11
458.255745575
 21
134.76849685
 31
0.0
  0
MTEXT
  5
DE
330
1F
100
AcDbEntity
  8
6
  6
Continuous
 62
     2
100
AcDbMText
 10
450.255745575
 20
176.36849685
 30
0.0
 40
6.0
 41
15.6024
 71
     7
 72
     1
  1
\T1.167;\W0.600;９１
  7
KANJI1
 11
0.0
 21
1.0
 31
0.0
 73
     1
 44
1.0
  0
LINE
  5
DF
330
1F
100
AcDbEntity
  8
6
  6
Continuous
 62
     2
100
AcDbLine
 10
416.255745575
 20
281.86849685
 30
0.0
 11
443.255745575
 21
281.86849685
 31
0.0
  0
LINE
  5
E0
330
1F
100
AcDbEntity
  8
6
  6
Continuous
 62
     2
100
AcDbLine
 10
439.255745575
 20
281.86849685
 30
0.0
 11
440.549840801
 21
286.698125981
 31
0.0
  0
LINE
  5
E1
330
1F
100
AcDbEntity
  8
6
  6
Continuous
 62
     2
100
AcDbLine
 10
439.255745575
 20
281.86849685
 30
0.0
 11
437.961650349
 21
286.698125981
 31
0.0
  0
LINE
  5
E2
330
1F
100
AcDbEntity
  8
6
  6
Continuous
 62
     2
100
AcDbLine
 10
439.255745575
 20
281.86849685
 30
0.0
 11
439.255745575
 21
471.168481591
 31
0.0
  0
LINE
  5
E3
330
1F
100
AcDbEntity
  8
6
  6
Continuous
 62
     2
100
AcDbLine
 10
439.255745575
 20
471.168481591
 30
0.0
 11
437.961650349
 21
466.33885246
 31
0.0
  0
LINE
  5
E4
330
1F
100
AcDbEntity
  8
6
  6
Continuous
 62
     2
100
AcDbLine
 10
439.255745575
 20
471.168481591
 30
0.0
 11
440.549840801
 21
466.33885246
 31
0.0
  0
LINE
  5
E5
330
1F
100
AcDbEntity
  8
6
  6
Continuous
 62
     2
100
AcDbLine
 10
284.755743575
 20
471.168481591
 30
0.0
 11
443.255745575
 21
471.168481591
 31
0.0
  0
MTEXT
  5
E6
330
1F
100
AcDbEntity
  8
6
  6
Continuous
 62
     2
100
AcDbMText
 10
435.255745575
 20
362.118489221
 30
0.0
 40
6.0
 41
57.6144
 71
     7
 72
     1
  1
\T1.167;\W0.600;１８９～２０５
  7
KANJI1
 11
0.0
 21
1.0
 31
0.0
 73
     1
 44
1.0
  0
LINE
  5
E7
330
1F
100
AcDbEntity
  8
6
  6
Continuous
 62
     2
100
AcDbLine
 10
254.905743575
 20
216.218481591
 30
0.0
 11
253.296993445
 21
220.952604849
 31
0.0
  0
LINE
  5
E8
330
1F
100
AcDbEntity
  8
6
  6
Continuous
 62
     2
100
AcDbLine
 10
254.905743575
 20
216.218481591
 30
0.0
 11
251.145463465
 21
219.513977532
 31
0.0
  0
LINE
  5
E9
330
1F
100
AcDbEntity
  8
6
  6
Continuous
 62
     2
100
AcDbLine
 10
254.905743575
 20
216.218481591
 30
0.0
 11
226.855743575
 21
258.168481591
 31
0.0
  0
LINE
  5
EA
330
1F
100
AcDbEntity
  8
6
  6
Continuous
 62
     2
100
AcDbLine
 10
226.855743575
 20
258.168481591
 30
0.0
 11
199.855743575
 21
258.168481591
 31
0.0
  0
MTEXT
  5
EB
330
1F
100
AcDbEntity
  8
6
  6
Continuous
 62
     2
100
AcDbMText
 10
199.855743575
 20
262.168481591
 30
0.0
 40
6.0
 41
78.0
 71
     7
 72
     1
  1
\T1.100;\W1.000;４－φ７．２
  7
KANJI2
 73
     1
 44
1.0
  0
LINE
  5
ED
330
1F
100
AcDbEntity
  8
6
  6
Continuous
 62
     2
100
AcDbLine
 10
245.605745575
 20
174.51849685
 30
0.0
 11
241.325620326
 21
171.933825139
 31
0.0
  0
LINE
  5
EE
330
1F
100
AcDbEntity
  8
6
  6
Continuous
 62
     2
100
AcDbLine
 10
245.605745575
 20
174.51849685
 30
0.0
 11
243.191384234
 21
170.140042863
 31
0.0
  0
LINE
  5
EF
330
1F
100
AcDbEntity
  8
6
  6
Continuous
 62
     2
100
AcDbLine
 10
245.605745575
 20
174.51849685
 30
0.0
 11
214.455745575
 21
142.11849685
 31
0.0
  0
LINE
  5
F0
330
1F
100
AcDbEntity
  8
6
  6
Continuous
 62
     2
100
AcDbLine
 10
214.455745575
 20
142.11849685
 30
0.0
 11
180.255745575
 21
142.11849685
 31
0.0
  0
MTEXT
  5
F1
330
1F
100
AcDbEntity
  8
6
  6
Continuous
 62
     2
100
AcDbMText
 10
180.255745575
 20
146.11849685
 30
0.0
 40
6.0
 41
104.4
 71
     7
 72
     1
  1
\T1.100;\W1.000;２－長丸９＊１５
  7
KANJI2
 73
     1
 44
1.0
  0
ARC
  5
F2
330
1F
100
AcDbEntity
  8
0
  6
Continuous
 62
     1
100
AcDbCircle
 10
384.255745575
 20
180.26849685
 30
0.0
 40
4.5
100
AcDbArc
 50
90.0
 51
270.0
  0
ARC
  5
F3
330
1F
100
AcDbEntity
  8
0
  6
Continuous
 62
     1
100
AcDbCircle
 10
399.255745575
 20
180.26849685
 30
0.0
 40
4.5
100
AcDbArc
 50
270.0
 51
90.0
  0
LINE
  5
F4
330
1F
100
AcDbEntity
  8
0
  6
Continuous
 62
     1
100
AcDbLine
 10
399.255745575
 20
184.76849685
 30
0.0
 11
384.255745575
 21
184.76849685
 31
0.0
  0
LINE
  5
F5
330
1F
100
AcDbEntity
  8
0
  6
Continuous
 62
     1
100
AcDbLine
 10
384.255745575
 20
175.76849685
 30
0.0
 11
398.755745575
 21
175.76849685
 31
0.0
  0
ARC
  5
F6
330
1F
100
AcDbEntity
  8
0
  6
Continuous
 62
     1
100
AcDbCircle
 10
264.255745575
 20
180.26849685
 30
0.0
 40
4.5
100
AcDbArc
 50
270.0
 51
90.0
  0
ARC
  5
F7
330
1F
100
AcDbEntity
  8
0
  6
Continuous
 62
     1
100
AcDbCircle
 10
249.255745575
 20
180.26849685
 30
0.0
 40
4.5
100
AcDbArc
 50
90.0
 51
270.0
  0
LINE
  5
F8
330
1F
100
AcDbEntity
  8
0
  6
Continuous
 62
     1
100
AcDbLine
 10
249.255745575
 20
184.76849685
 30
0.0
 11
264.255745575
 21
184.76849685
 31
0.0
  0
LINE
  5
F9
330
1F
100
AcDbEntity
  8
0
  6
Continuous
 62
     1
100
AcDbLine
 10
264.255745575
 20
175.76849685
 30
0.0
 11
249.755745575
 21
175.76849685
 31
0.0
  0
CIRCLE
  5
FA
330
1F
100
AcDbEntity
  8
0
  6
Continuous
 62
     1
100
AcDbCircle
 10
259.255745575
 20
212.26849685
 30
0.0
 40
3.6
  0
CIRCLE
  5
FB
330
1F
100
AcDbEntity
  8
0
  6
Continuous
 62
     1
100
AcDbCircle
 10
259.255745575
 20
148.26849685
 30
0.0
 40
3.6
  0
CIRCLE
  5
FC
330
1F
100
AcDbEntity
  8
0
  6
Continuous
 62
     1
100
AcDbCircle
 10
389.255745575
 20
148.26849685
 30
0.0
 40
3.6
  0
CIRCLE
  5
FD
330
1F
100
AcDbEntity
  8
0
  6
Continuous
 62
     1
100
AcDbCircle
 10
389.255745575
 20
212.26849685
 30
0.0
 40
3.6
  0
LINE
  5
FE
330
1F
100
AcDbEntity
  8
0
  6
Continuous
 62
     1
100
AcDbLine
 10
234.255745575
 20
225.76849685
 30
0.0
 11
234.255745575
 21
134.76849685
 31
0.0
  0
LINE
  5
FF
330
1F
100
AcDbEntity
  8
0
  6
Continuous
 62
     1
100
AcDbLine
 10
234.255745575
 20
134.76849685
 30
0.0
 11
414.255745575
 21
134.76849685
 31
0.0
  0
LINE
  5
100
330
1F
100
AcDbEntity
  8
0
  6
Continuous
 62
     1
100
AcDbLine
 10
414.255745575
 20
134.76849685
 30
0.0
 11
414.255745575
 21
225.76849685
 31
0.0
  0
LINE
  5
101
330
1F
100
AcDbEntity
  8
0
  6
Continuous
 62
     1
100
AcDbLine
 10
414.255745575
 20
225.76849685
 30
0.0
 11
234.255745575
 21
225.76849685
 31
0.0
  0
LINE
  5
102
330
1F
100
AcDbEntity
  8
0
  6
Continuous
 62
     1
100
AcDbLine
 10
234.255745575
 20
281.86849685
 30
0.0
 11
414.255745575
 21
281.86849685
 31
0.0
  0
ARC
  5
103
330
1F
100
AcDbEntity
  8
0
  6
Continuous
 62
     1
100
AcDbCircle
 10
272.255743575
 20
487.668481591
 30
0.0
 40
10.0
100
AcDbArc
 50
90.0
 51
179.999978133
  0
LINE
  5
104
330
1F
100
AcDbEntity
  8
0
  6
Continuous
 62
     1
100
AcDbLine
 10
309.255743575
 20
497.668481591
 30
0.0
 11
272.255743575
 21
497.668481591
 31
0.0
  0
ARC
  5
105
330
1F
100
AcDbEntity
  8
0
  6
Continuous
 62
     1
100
AcDbCircle
 10
309.255743575
 20
487.668481591
 30
0.0
 40
10.0
100
AcDbArc
 50
0.000015462
 51
90.0
  0
LINE
  5
106
330
1F
100
AcDbEntity
  8
0
  6
Continuous
 62
     1
100
AcDbLine
 10
242.255743575
 20
487.668481591
 30
0.0
 11
242.255743575
 21
507.668481591
 31
0.0
  0
ARC
  5
107
330
1F
100
AcDbEntity
  8
0
  6
Continuous
 62
     1
100
AcDbCircle
 10
252.255743575
 20
507.668481591
 30
0.0
 40
10.0
100
AcDbArc
 50
90.0
 51
180.0
  0
LINE
  5
108
330
1F
100
AcDbEntity
  8
0
  6
Continuous
 62
     1
100
AcDbLine
 10
319.255743575
 20
487.668484289
 30
0.0
 11
319.255743575
 21
442.67721623
 31
0.0
  0
ARC
  5
109
330
1F
100
AcDbEntity
  8
0
  6
Continuous
 62
     1
100
AcDbCircle
 10
309.25574739
 20
442.668481591
 30
0.0
 40
10.0
100
AcDbArc
 50
270.0
 51
0.050045803
  0
ARC
  5
10A
330
1F
100
AcDbEntity
  8
0
  6
Continuous
 62
     1
100
AcDbCircle
 10
252.255743575
 20
487.668481591
 30
0.0
 40
10.0
100
AcDbArc
 50
334.158065066
 51
0.000021867
  0
ARC
  5
10B
330
1F
100
AcDbEntity
  8
0
  6
Continuous
 62
     1
100
AcDbCircle
 10
252.255743575
 20
487.668481591
 30
0.0
 40
10.0
100
AcDbArc
 50
180.0
 51
287.457602132
  0
ARC
  5
10C
330
1F
100
AcDbEntity
  8
0
  6
Continuous
 62
     2
100
AcDbCircle
 10
252.255743575
 20
497.668481591
 30
0.0
 40
5.0
100
AcDbArc
 50
53.130104719
 51
306.869895281
  0
CIRCLE
  5
10E
330
1F
100
AcDbEntity
  8
0
  6
LTYPE1
 62
     2
100
AcDbCircle
 10
309.255743575
 20
487.668481591
 30
0.0
 40
10.0
  0
ARC
  5
10F
330
1F
100
AcDbEntity
  8
0
  6
Continuous
 62
     1
100
AcDbCircle
 10
244.255745575
 20
422.668481591
 30
0.0
 40
10.0
100
AcDbArc
 50
89.999983846
 51
270.00001558
  0
ARC
  5
110
330
1F
100
AcDbEntity
  8
0
  6
Continuous
 62
     1
100
AcDbCircle
 10
258.25574341
 20
422.668481591
 30
0.0
 40
3.0
100
AcDbArc
 50
179.999936907
 51
0.000063093
  0
LINE
  5
111
330
1F
100
AcDbEntity
  8
0
  6
Continuous
 62
     1
100
AcDbLine
 10
261.25574341
 20
422.668484895
 30
0.0
 11
261.25574341
 21
514.668481591
 31
0.0
  0
LINE
  5
112
330
1F
100
AcDbEntity
  8
0
  6
Continuous
 62
     1
100
AcDbLine
 10
255.25574341
 20
422.668484895
 30
0.0
 11
255.25574341
 21
514.668485406
 31
0.0
  0
ARC
  5
113
330
1F
100
AcDbEntity
  8
0
  6
Continuous
 62
     1
100
AcDbCircle
 10
258.25574341
 20
514.668481591
 30
0.0
 40
3.0
100
AcDbArc
 50
0.0
 51
179.999927149
  0
LINE
  5
114
330
1F
100
AcDbEntity
  8
0
  6
Continuous
 62
     1
100
AcDbLine
 10
261.25574341
 20
432.668481591
 30
0.0
 11
309.255752784
 21
432.668481591
 31
0.0
  0
LINE
  5
115
330
1F
100
AcDbEntity
  8
0
  6
Continuous
 62
     1
100
AcDbLine
 10
244.255746019
 20
432.668481591
 30
0.0
 11
255.25574341
 21
432.668481591
 31
0.0
  0
LINE
  5
116
330
1F
100
AcDbEntity
  8
0
  6
Continuous
 62
     1
100
AcDbLine
 10
255.25574341
 20
514.668481591
 30
0.0
 11
255.25574341
 21
517.668481591
 31
0.0
  0
LINE
  5
117
330
1F
100
AcDbEntity
  8
0
  6
Continuous
 62
     1
100
AcDbLine
 10
252.255743575
 20
517.668481591
 30
0.0
 11
255.25574341
 21
517.668481591
 31
0.0
  0
ARC
  5
118
330
1F
100
AcDbEntity
  8
0
  6
Continuous
 62
     1
100
AcDbCircle
 10
270.45574341
 20
520.268481591
 30
0.0
 40
3.0
100
AcDbArc
 50
180.0
 51
0.0
  0
LINE
  5
119
330
1F
100
AcDbEntity
  8
0
  6
Continuous
 62
     1
100
AcDbLine
 10
267.45574341
 20
520.268481591
 30
0.0
 11
267.45574341
 21
523.268481591
 31
0.0
  0
ARC
  5
11A
330
1F
100
AcDbEntity
  8
0
  6
Continuous
 62
     1
100
AcDbCircle
 10
282.65574341
 20
525.868481591
 30
0.0
 40
3.0
100
AcDbArc
 50
180.0
 51
0.0
  0
LINE
  5
11B
330
1F
100
AcDbEntity
  8
0
  6
Continuous
 62
     1
100
AcDbLine
 10
279.65574341
 20
525.868481591
 30
0.0
 11
279.65574341
 21
528.868481591
 31
0.0
  0
ARC
  5
11C
330
1F
100
AcDbEntity
  8
0
  6
Continuous
 62
     1
100
AcDbCircle
 10
294.85574341
 20
531.468481591
 30
0.0
 40
3.0
100
AcDbArc
 50
180.0
 51
0.0
  0
LINE
  5
11D
330
1F
100
AcDbEntity
  8
0
  6
Continuous
 62
     1
100
AcDbLine
 10
291.85574341
 20
531.468481591
 30
0.0
 11
291.85574341
 21
534.468481591
 31
0.0
  0
ARC
  5
11E
330
1F
100
AcDbEntity
  8
0
  6
Continuous
 62
     1
100
AcDbCircle
 10
307.05574341
 20
537.068481591
 30
0.0
 40
3.0
100
AcDbArc
 50
180.0
 51
0.0
  0
LINE
  5
11F
330
1F
100
AcDbEntity
  8
0
  6
Continuous
 62
     1
100
AcDbLine
 10
261.25574341
 20
514.668481591
 30
0.0
 11
261.25574341
 21
520.268481591
 31
0.0
  0
LINE
  5
120
330
1F
100
AcDbEntity
  8
0
  6
Continuous
 62
     1
100
AcDbLine
 10
264.25574341
 20
523.268481591
 30
0.0
 11
267.45574341
 21
523.268481591
 31
0.0
  0
ARC
  5
121
330
1F
100
AcDbEntity
  8
0
  6
Continuous
 62
     1
100
AcDbCircle
 10
264.25574341
 20
520.268481591
 30
0.0
 40
3.0
100
AcDbArc
 50
90.0
 51
180.0
  0
LINE
  5
122
330
1F
100
AcDbEntity
  8
0
  6
Continuous
 62
     1
100
AcDbLine
 10
273.45574341
 20
520.268481591
 30
0.0
 11
273.45574341
 21
525.868481591
 31
0.0
  0
LINE
  5
123
330
1F
100
AcDbEntity
  8
0
  6
Continuous
 62
     1
100
AcDbLine
 10
276.45574341
 20
528.868481591
 30
0.0
 11
279.65574341
 21
528.868481591
 31
0.0
  0
ARC
  5
124
330
1F
100
AcDbEntity
  8
0
  6
Continuous
 62
     1
100
AcDbCircle
 10
276.45574341
 20
525.868481591
 30
0.0
 40
3.0
100
AcDbArc
 50
90.0
 51
180.0
  0
LINE
  5
125
330
1F
100
AcDbEntity
  8
0
  6
Continuous
 62
     1
100
AcDbLine
 10
285.65574341
 20
525.868481591
 30
0.0
 11
285.65574341
 21
531.468481591
 31
0.0
  0
LINE
  5
126
330
1F
100
AcDbEntity
  8
0
  6
Continuous
 62
     1
100
AcDbLine
 10
288.65574341
 20
534.468481591
 30
0.0
 11
291.85574341
 21
534.468481591
 31
0.0
  0
ARC
  5
127
330
1F
100
AcDbEntity
  8
0
  6
Continuous
 62
     1
100
AcDbCircle
 10
288.65574341
 20
531.468481591
 30
0.0
 40
3.0
100
AcDbArc
 50
90.0
 51
180.0
  0
LINE
  5
128
330
1F
100
AcDbEntity
  8
0
  6
Continuous
 62
     1
100
AcDbLine
 10
297.85574341
 20
531.468481591
 30
0.0
 11
297.85574341
 21
537.068481591
 31
0.0
  0
ARC
  5
129
330
1F
100
AcDbEntity
  8
0
  6
Continuous
 62
     1
100
AcDbCircle
 10
300.85574341
 20
537.068481591
 30
0.0
 40
3.0
100
AcDbArc
 50
90.0
 51
180.0
  0
POINT
  5
12A
330
1F
100
AcDbEntity
  8
0
  6
Continuous
 62
     1
100
AcDbPoint
 10
304.05574341
 20
537.068481591
 30
0.0
  0
ARC
  5
12B
330
1F
100
AcDbEntity
  8
0
  6
Continuous
 62
     1
100
AcDbCircle
 10
301.05574341
 20
537.068481591
 30
0.0
 40
3.0
100
AcDbArc
 50
0.0
 51
90.0
  0
ARC
  5
12C
330
1F
100
AcDbEntity
  8
0
  6
Continuous
 62
     1
100
AcDbCircle
 10
313.05574341
 20
537.068481591
 30
0.0
 40
3.0
100
AcDbArc
 50
90.0
 51
180.0
  0
LINE
  5
12D
330
1F
100
AcDbEntity
  8
0
  6
Continuous
 62
     1
100
AcDbLine
 10
300.85574341
 20
540.068481591
 30
0.0
 11
301.05574341
 21
540.068481591
 31
0.0
  0
CIRCLE
  5
12E
330
1F
100
AcDbEntity
  8
0
  6
Continuous
 62
     2
100
AcDbCircle
 10
244.255745575
 20
422.668481486
 30
0.0
 40
5.0
  0
CIRCLE
  5
12F
330
1F
100
AcDbEntity
  8
0
  6
Continuous
 62
     1
100
AcDbCircle
 10
244.255745575
 20
422.668481486
 30
0.0
 40
6.5
  0
LINE
  5
131
330
1F
100
AcDbEntity
  8
0
  6
LTYPE2
 62
     2
100
AcDbLine
 10
255.238852541
 20
449.402903955
 30
0.0
 11
255.190860161
 21
448.905212553
 31
0.0
  0
CIRCLE
  5
132
330
1F
100
AcDbEntity
  8
0
  6
LTYPE1
 62
     2
100
AcDbCircle
 10
292.755743575
 20
471.168481591
 30
0.0
 40
26.5
  0
LINE
  5
133
330
1F
100
AcDbEntity
  8
0
  6
Continuous
 62
     1
100
AcDbLine
 10
241.717601824
 20
455.281348671
 30
0.0
 11
245.196307582
 21
462.485417399
 31
0.0
  0
ARC
  5
134
330
1F
100
AcDbEntity
  8
0
  6
Continuous
 62
     1
100
AcDbCircle
 10
250.722687844
 20
450.932966561
 30
0.0
 40
10.0
100
AcDbArc
 50
154.22500683
 51
244.224998249
  0
LINE
  5
135
330
1F
100
AcDbEntity
  8
0
  6
Continuous
 62
     1
100
AcDbLine
 10
247.867001204
 20
463.416758142
 30
0.0
 11
245.196307582
 21
462.485417399
 31
0.0
  0
LINE
  5
136
330
1F
100
AcDbEntity
  8
0
  6
Continuous
 62
     1
100
AcDbLine
 10
251.469035569
 20
461.677405263
 30
0.0
 11
252.400376311
 21
459.006711641
 31
0.0
  0
LINE
  5
137
330
1F
100
AcDbEntity
  8
0
  6
Continuous
 62
     1
100
AcDbLine
 10
255.071069933
 20
459.938052384
 30
0.0
 11
252.400376311
 21
459.006711641
 31
0.0
  0
LINE
  5
138
330
1F
100
AcDbEntity
  8
0
  6
Continuous
 62
     1
100
AcDbLine
 10
247.867001204
 20
463.416758142
 30
0.0
 11
248.798341947
 21
460.74606452
 31
0.0
  0
LINE
  5
139
330
1F
100
AcDbEntity
  8
0
  6
Continuous
 62
     1
100
AcDbLine
 10
251.469035569
 20
461.677405263
 30
0.0
 11
248.798341947
 21
460.74606452
 31
0.0
  0
LINE
  5
13A
330
1F
100
AcDbEntity
  8
0
  6
Continuous
 62
     1
100
AcDbLine
 10
273.081241755
 20
451.241287988
 30
0.0
 11
274.012582497
 21
448.570594366
 31
0.0
  0
LINE
  5
13B
330
1F
100
AcDbEntity
  8
0
  6
Continuous
 62
     1
100
AcDbLine
 10
273.081241755
 20
451.241287988
 30
0.0
 11
270.410548133
 21
450.309947246
 31
0.0
  0
LINE
  5
13C
330
1F
100
AcDbEntity
  8
0
  6
Continuous
 62
     1
100
AcDbLine
 10
269.47920739
 20
452.980640867
 30
0.0
 11
266.808513768
 21
452.049300125
 31
0.0
  0
LINE
  5
13D
330
1F
100
AcDbEntity
  8
0
  6
Continuous
 62
     1
100
AcDbLine
 10
269.47920739
 20
452.980640867
 30
0.0
 11
270.410548133
 21
450.309947246
 31
0.0
  0
LINE
  5
13E
330
1F
100
AcDbEntity
  8
0
  6
Continuous
 62
     1
100
AcDbLine
 10
265.877173026
 20
454.719993746
 30
0.0
 11
266.808513768
 21
452.049300125
 31
0.0
  0
LINE
  5
13F
330
1F
100
AcDbEntity
  8
0
  6
Continuous
 62
     1
100
AcDbLine
 10
265.877173026
 20
454.719993746
 30
0.0
 11
263.206479404
 21
453.788653004
 31
0.0
  0
LINE
  5
140
330
1F
100
AcDbEntity
  8
0
  6
Continuous
 62
     1
100
AcDbLine
 10
276.683276119
 20
449.501935109
 30
0.0
 11
274.012582497
 21
448.570594366
 31
0.0
  0
LINE
  5
141
330
1F
100
AcDbEntity
  8
0
  6
Continuous
 62
     1
100
AcDbLine
 10
276.683276119
 20
449.501935109
 30
0.0
 11
277.614616862
 21
446.831241487
 31
0.0
  0
LINE
  5
142
330
1F
100
AcDbEntity
  8
0
  6
Continuous
 62
     1
100
AcDbLine
 10
280.285310483
 20
447.76258223
 30
0.0
 11
281.216651226
 21
445.091888608
 31
0.0
  0
LINE
  5
143
330
1F
100
AcDbEntity
  8
0
  6
Continuous
 62
     1
100
AcDbLine
 10
280.285310483
 20
447.76258223
 30
0.0
 11
277.614616862
 21
446.831241487
 31
0.0
  0
LINE
  5
144
330
1F
100
AcDbEntity
  8
0
  6
Continuous
 62
     1
100
AcDbLine
 10
287.489379212
 20
444.283876472
 30
0.0
 11
288.420719955
 21
441.61318285
 31
0.0
  0
LINE
  5
145
330
1F
100
AcDbEntity
  8
0
  6
Continuous
 62
     1
100
AcDbLine
 10
287.489379212
 20
444.283876472
 30
0.0
 11
284.81868559
 21
443.352535729
 31
0.0
  0
LINE
  5
146
330
1F
100
AcDbEntity
  8
0
  6
Continuous
 62
     1
100
AcDbLine
 10
283.887344848
 20
446.023229351
 30
0.0
 11
281.216651226
 21
445.091888608
 31
0.0
  0
LINE
  5
147
330
1F
100
AcDbEntity
  8
0
  6
Continuous
 62
     1
100
AcDbLine
 10
283.887344848
 20
446.023229351
 30
0.0
 11
284.81868559
 21
443.352535729
 31
0.0
  0
LINE
  5
148
330
1F
100
AcDbEntity
  8
0
  6
Continuous
 62
     1
100
AcDbLine
 10
298.295482305
 20
439.065817834
 30
0.0
 11
295.624788683
 21
438.134477092
 31
0.0
  0
LINE
  5
149
330
1F
100
AcDbEntity
  8
0
  6
Continuous
 62
     1
100
AcDbLine
 10
294.693447941
 20
440.805170713
 30
0.0
 11
295.624788683
 21
438.134477092
 31
0.0
  0
LINE
  5
14A
330
1F
100
AcDbEntity
  8
0
  6
Continuous
 62
     1
100
AcDbLine
 10
294.693447941
 20
440.805170713
 30
0.0
 11
292.022754319
 21
439.873829971
 31
0.0
  0
LINE
  5
14B
330
1F
100
AcDbEntity
  8
0
  6
Continuous
 62
     1
100
AcDbLine
 10
291.091413576
 20
442.544523593
 30
0.0
 11
292.022754319
 21
439.873829971
 31
0.0
  0
LINE
  5
14C
330
1F
100
AcDbEntity
  8
0
  6
Continuous
 62
     1
100
AcDbLine
 10
291.091413576
 20
442.544523593
 30
0.0
 11
288.420719955
 21
441.61318285
 31
0.0
  0
LINE
  5
14D
330
1F
100
AcDbEntity
  8
0
  6
Continuous
 62
     1
100
AcDbLine
 10
262.275138662
 20
456.459346626
 30
0.0
 11
263.206479404
 21
453.788653004
 31
0.0
  0
LINE
  5
14E
330
1F
100
AcDbEntity
  8
0
  6
Continuous
 62
     1
100
AcDbLine
 10
262.275138662
 20
456.459346626
 30
0.0
 11
261.25574341
 21
456.10385683
 31
0.0
  0
LINE
  5
14F
330
1F
100
AcDbEntity
  8
0
  6
Continuous
 62
     1
100
AcDbLine
 10
255.071069933
 20
459.938052384
 30
0.0
 11
255.25574341
 21
459.408486507
 31
0.0
  0
ARC
  5
150
330
1F
100
AcDbEntity
  8
0
  6
Continuous
 62
     2
100
AcDbCircle
 10
250.722687889
 20
450.932966074
 30
0.0
 40
5.0
100
AcDbArc
 50
24.958846585
 51
335.041153415
  0
ARC
  5
151
330
1F
100
AcDbEntity
  8
0
  6
Continuous
 62
     1
100
AcDbCircle
 10
250.722687889
 20
450.932966074
 30
0.0
 40
6.5
100
AcDbArc
 50
45.781771001
 51
314.218228999
  0
LINE
  5
152
330
1F
100
AcDbEntity
  8
0
  6
Continuous
 62
     1
100
AcDbLine
 10
246.374305537
 20
441.927880562
 30
0.0
 11
255.25574341
 21
437.639205616
 31
0.0
  0
LINE
  5
153
330
1F
100
AcDbEntity
  8
0
  6
Continuous
 62
     1
100
AcDbLine
 10
261.25574341
 20
434.741921409
 30
0.0
 11
265.549640046
 21
432.668481591
 31
0.0
  0
LINE
  5
154
330
1F
100
AcDbEntity
  8
0
  6
Continuous
 62
     2
100
AcDbLine
 10
234.110789011
 20
396.260808789
 30
0.0
 11
241.909283554
 21
394.476577061
 31
0.0
  0
LINE
  5
155
330
1F
100
AcDbEntity
  8
0
  6
Continuous
 62
     2
100
AcDbLine
 10
241.324396511
 20
394.61039443
 30
0.0
 11
241.775466191
 21
393.891690044
 31
0.0
  0
LINE
  5
156
330
1F
100
AcDbEntity
  8
0
  6
Continuous
 62
     2
100
AcDbLine
 10
234.695676115
 20
396.126991249
 30
0.0
 11
233.976971729
 21
395.675921568
 31
0.0
  0
LINE
  5
157
330
1F
100
AcDbEntity
  8
0
  6
Continuous
 62
     1
100
AcDbLine
 10
229.09639691
 20
392.278865563
 30
0.0
 11
226.86610743
 21
382.530747158
 31
0.0
  0
ARC
  5
158
330
1F
100
AcDbEntity
  8
0
  6
Continuous
 62
     1
100
AcDbCircle
 10
211.071148209
 20
371.782757978
 30
0.0
 40
1.0
100
AcDbArc
 50
167.112998711
 51
257.113
  0
LINE
  5
159
330
1F
100
AcDbEntity
  8
0
  6
Continuous
 62
     1
100
AcDbLine
 10
212.995712948
 20
384.678340577
 30
0.0
 11
210.096336391
 21
372.005786944
 31
0.0
  0
ARC
  5
15A
330
1F
100
AcDbEntity
  8
0
  6
Continuous
 62
     1
100
AcDbCircle
 10
213.970524766
 20
384.455311611
 30
0.0
 40
1.0
100
AcDbArc
 50
77.113
 51
167.112998711
  0
LINE
  5
15B
330
1F
100
AcDbEntity
  8
0
  6
Continuous
 62
     1
100
AcDbLine
 10
244.693385996
 20
388.710402108
 30
0.0
 11
242.463096597
 21
378.962284054
 31
0.0
  0
ARC
  5
15C
330
1F
100
AcDbEntity
  8
0
  6
Continuous
 62
     1
100
AcDbCircle
 10
252.013244772
 20
362.415542332
 30
0.0
 40
1.0
100
AcDbArc
 50
257.113
 51
347.112998711
  0
LINE
  5
15D
330
1F
100
AcDbEntity
  8
0
  6
Continuous
 62
     1
100
AcDbLine
 10
255.887433147
 20
374.865066999
 30
0.0
 11
252.98805659
 21
362.192513366
 31
0.0
  0
ARC
  5
15E
330
1F
100
AcDbEntity
  8
0
  6
Continuous
 62
     1
100
AcDbCircle
 10
254.912621329
 20
375.088095965
 30
0.0
 40
1.0
100
AcDbArc
 50
347.112998711
 51
77.113
  0
LINE
  5
15F
330
1F
100
AcDbEntity
  8
0
  6
Continuous
 62
     1
100
AcDbLine
 10
229.09639691
 20
392.278865563
 30
0.0
 11
244.693385996
 21
388.710402108
 31
0.0
  0
LINE
  5
160
330
1F
100
AcDbEntity
  8
0
  6
Continuous
 62
     1
100
AcDbLine
 10
210.848119265
 20
370.807946155
 30
0.0
 11
251.790215828
 21
361.440730509
 31
0.0
  0
LINE
  5
161
330
1F
100
AcDbEntity
  8
0
  6
Continuous
 62
     1
100
AcDbLine
 10
214.193553709
 20
385.430123434
 30
0.0
 11
255.135650273
 21
376.062907788
 31
0.0
  0
LINE
  5
162
330
1F
100
AcDbEntity
  8
0
  6
Continuous
 62
     1
100
AcDbLine
 10
252.129882431
 20
439.148623557
 30
0.0
 11
250.647278983
 21
432.668481591
 31
0.0
  0
LINE
  5
163
330
1F
100
AcDbEntity
  8
0
  6
Continuous
 62
     2
100
AcDbLine
 10
251.575614269
 20
439.416268955
 30
0.0
 11
250.03177573
 21
432.668481591
 31
0.0
  0
LINE
  5
164
330
1F
100
AcDbEntity
  8
0
  6
Continuous
 62
     2
100
AcDbLine
 10
245.310906434
 20
442.523886661
 30
0.0
 11
243.039073327
 21
432.594191069
 31
0.0
  0
LINE
  5
165
330
1F
100
AcDbEntity
  8
0
  6
Continuous
 62
     1
100
AcDbLine
 10
244.77934608
 20
442.890784552
 30
0.0
 11
242.400863409
 21
432.494946477
 31
0.0
  0
LINE
  5
166
330
1F
100
AcDbEntity
  8
0
  6
Continuous
 62
     2
100
AcDbLine
 10
238.844190277
 20
414.259256344
 30
0.0
 11
234.695676401
 21
396.126991341
 31
0.0
  0
LINE
  5
167
330
1F
100
AcDbEntity
  8
0
  6
Continuous
 62
     1
100
AcDbLine
 10
238.312625754
 20
414.62613574
 30
0.0
 11
232.995644412
 21
391.386749646
 31
0.0
  0
LINE
  5
168
330
1F
100
AcDbEntity
  8
0
  6
Continuous
 62
     1
100
AcDbLine
 10
246.071442667
 20
412.668481591
 30
0.0
 11
240.794138955
 21
389.602517919
 31
0.0
  0
LINE
  5
169
330
1F
100
AcDbEntity
  8
0
  6
Continuous
 62
     2
100
AcDbLine
 10
245.455939369
 20
412.668481591
 30
0.0
 11
241.324396763
 21
394.610394372
 31
0.0
  0
LINE
  5
16A
330
1F
100
AcDbEntity
  8
0
  6
Continuous
 62
     1
100
AcDbLine
 10
298.295482305
 20
439.065817834
 30
0.0
 11
311.163435381
 21
432.852131632
 31
0.0
  0
CIRCLE
  5
16B
330
1F
100
AcDbEntity
  8
0
  6
Continuous
 62
     2
100
AcDbCircle
 10
309.255747575
 20
422.668481591
 30
0.0
 40
5.0
  0
LINE
  5
16C
330
1F
100
AcDbEntity
  8
0
  6
Continuous
 62
     2
100
AcDbLine
 10
312.142498736
 20
422.668481591
 30
0.0
 11
310.699123063
 21
425.168481591
 31
0.0
  0
LINE
  5
16D
330
1F
100
AcDbEntity
  8
0
  6
Continuous
 62
     2
100
AcDbLine
 10
310.699123063
 20
425.168481591
 30
0.0
 11
307.812371717
 21
425.168481591
 31
0.0
  0
LINE
  5
16E
330
1F
100
AcDbEntity
  8
0
  6
Continuous
 62
     2
100
AcDbLine
 10
307.812371717
 20
425.168481591
 30
0.0
 11
306.368996044
 21
422.668481591
 31
0.0
  0
LINE
  5
16F
330
1F
100
AcDbEntity
  8
0
  6
Continuous
 62
     2
100
AcDbLine
 10
306.368996044
 20
422.668481591
 30
0.0
 11
307.812371717
 21
420.168481591
 31
0.0
  0
LINE
  5
170
330
1F
100
AcDbEntity
  8
0
  6
Continuous
 62
     2
100
AcDbLine
 10
307.812371717
 20
420.168481591
 30
0.0
 11
310.699123063
 21
420.168481591
 31
0.0
  0
LINE
  5
171
330
1F
100
AcDbEntity
  8
0
  6
Continuous
 62
     2
100
AcDbLine
 10
310.699123063
 20
420.168481591
 30
0.0
 11
312.142498736
 21
422.668481591
 31
0.0
  0
LINE
  5
172
330
1F
100
AcDbEntity
  8
0
  6
Continuous
 62
     1
100
AcDbLine
 10
244.255746019
 20
412.668481591
 30
0.0
 11
309.255752784
 21
412.668481591
 31
0.0
  0
ARC
  5
173
330
1F
100
AcDbEntity
  8
0
  6
Continuous
 62
     1
100
AcDbCircle
 10
309.25574739
 20
422.668481591
 30
0.0
 40
10.0
100
AcDbArc
 50
270.00003091
 51
89.99996909
  0
LINE
  5
174
330
1F
100
AcDbEntity
  8
0
  6
Continuous
 62
     1
100
AcDbLine
 10
313.05574341
 20
540.068481591
 30
0.0
 11
339.255743575
 21
540.068481591
 31
0.0
  0
ARC
  5
175
330
1F
100
AcDbEntity
  8
0
  6
Continuous
 62
     1
100
AcDbCircle
 10
339.255743575
 20
530.068481591
 30
0.0
 40
10.0
100
AcDbArc
 50
0.0
 51
90.0
  0
LINE
  5
176
330
1F
100
AcDbEntity
  8
0
  6
Continuous
 62
     1
100
AcDbLine
 10
349.255743575
 20
530.068481591
 30
0.0
 11
349.255743575
 21
374.468481591
 31
0.0
  0
LINE
  5
177
330
1F
100
AcDbEntity
  8
0
  6
Continuous
 62
     1
100
AcDbLine
 10
299.255747575
 20
374.468481591
 30
0.0
 11
349.255743575
 21
374.468481591
 31
0.0
  0
LINE
  5
178
330
1F
100
AcDbEntity
  8
0
  6
Continuous
 62
     1
100
AcDbLine
 10
299.255747575
 20
412.668481591
 30
0.0
 11
299.255747575
 21
374.468481591
 31
0.0
  0
ARC
  5
179
330
1F
100
AcDbEntity
  8
0
  6
Continuous
 62
     1
100
AcDbCircle
 10
337.755745575
 20
390.668481591
 30
0.0
 40
22.0
100
AcDbArc
 50
266.350344549
 51
58.484636108
  0
CIRCLE
  5
17A
330
1F
100
AcDbEntity
  8
0
  6
Continuous
 62
     2
100
AcDbCircle
 10
331.834820743
 20
517.482596469
 30
0.0
 40
5.0
  0
LINE
  5
17B
330
1F
100
AcDbEntity
  8
0
  6
Continuous
 62
     1
100
AcDbLine
 10
312.255745575
 20
307.468481591
 30
0.0
 11
336.255745575
 21
307.468481591
 31
0.0
  0
LINE
  5
17C
330
1F
100
AcDbEntity
  8
0
  6
Continuous
 62
     2
100
AcDbLine
 10
340.505745575
 20
342.46849685
 30
0.0
 11
342.005745575
 21
342.46849685
 31
0.0
  0
LINE
  5
17D
330
1F
100
AcDbEntity
  8
0
  6
Continuous
 62
     2
100
AcDbLine
 10
342.005745575
 20
342.46849685
 30
0.0
 11
342.005745575
 21
360.46849685
 31
0.0
  0
LINE
  5
17E
330
1F
100
AcDbEntity
  8
0
  6
Continuous
 62
     2
100
AcDbLine
 10
342.005745575
 20
360.46849685
 30
0.0
 11
340.505745575
 21
360.46849685
 31
0.0
  0
LINE
  5
17F
330
1F
100
AcDbEntity
  8
0
  6
Continuous
 62
     1
100
AcDbLine
 10
338.505745575
 20
361.46849685
 30
0.0
 11
340.505745575
 21
361.46849685
 31
0.0
  0
LINE
  5
180
330
1F
100
AcDbEntity
  8
0
  6
Continuous
 62
     1
100
AcDbLine
 10
308.005745575
 20
361.46849685
 30
0.0
 11
310.005745575
 21
361.46849685
 31
0.0
  0
LINE
  5
181
330
1F
100
AcDbEntity
  8
0
  6
Continuous
 62
     1
100
AcDbLine
 10
409.255745575
 20
294.86849685
 30
0.0
 11
239.255745575
 21
294.86849685
 31
0.0
  0
LINE
  5
182
330
1F
100
AcDbEntity
  8
0
  6
Continuous
 62
     1
100
AcDbLine
 10
234.255745575
 20
289.868500665
 30
0.0
 11
234.255745575
 21
281.86849685
 31
0.0
  0
ARC
  5
183
330
1F
100
AcDbEntity
  8
0
  6
Continuous
 62
     1
100
AcDbCircle
 10
239.255745575
 20
289.86849685
 30
0.0
 40
5.0
100
AcDbArc
 50
90.0
 51
179.99995629
  0
LINE
  5
184
330
1F
100
AcDbEntity
  8
0
  6
Continuous
 62
     1
100
AcDbLine
 10
340.505745575
 20
361.46849685
 30
0.0
 11
340.505745575
 21
294.86849685
 31
0.0
  0
LINE
  5
185
330
1F
100
AcDbEntity
  8
0
  6
Continuous
 62
     1
100
AcDbLine
 10
338.505745575
 20
294.86849685
 30
0.0
 11
338.505745575
 21
361.46849685
 31
0.0
  0
LINE
  5
186
330
1F
100
AcDbEntity
  8
0
  6
Continuous
 62
     1
100
AcDbLine
 10
310.005745575
 20
361.46849685
 30
0.0
 11
310.005745575
 21
294.86849685
 31
0.0
  0
LINE
  5
187
330
1F
100
AcDbEntity
  8
0
  6
Continuous
 62
     1
100
AcDbLine
 10
308.005745575
 20
294.86849685
 30
0.0
 11
308.005745575
 21
361.46849685
 31
0.0
  0
LINE
  5
188
330
1F
100
AcDbEntity
  8
0
  6
Continuous
 62
     2
100
AcDbLine
 10
312.255745575
 20
341.46849685
 30
0.0
 11
310.155768743
 21
341.46849685
 31
0.0
  0
ARC
  5
189
330
1F
100
AcDbEntity
  8
0
  6
Continuous
 62
     2
100
AcDbCircle
 10
304.501723773
 20
351.46849685
 30
0.0
 40
12.65404497
100
AcDbArc
 50
307.790077895
 51
52.209922105
  0
LINE
  5
18A
330
1F
100
AcDbEntity
  8
0
  6
Continuous
 62
     2
100
AcDbLine
 10
312.255745575
 20
361.46849685
 30
0.0
 11
310.155768743
 21
361.46849685
 31
0.0
  0
LINE
  5
18B
330
1F
100
AcDbEntity
  8
0
  6
Continuous
 62
     2
100
AcDbLine
 10
336.255745575
 20
341.46849685
 30
0.0
 11
338.355722407
 21
341.46849685
 31
0.0
  0
ARC
  5
18C
330
1F
100
AcDbEntity
  8
0
  6
Continuous
 62
     2
100
AcDbCircle
 10
344.009767377
 20
351.46849685
 30
0.0
 40
12.65404497
100
AcDbArc
 50
127.790077895
 51
232.209922105
  0
LINE
  5
18D
330
1F
100
AcDbEntity
  8
0
  6
Continuous
 62
     2
100
AcDbLine
 10
336.255745575
 20
361.46849685
 30
0.0
 11
338.355722407
 21
361.46849685
 31
0.0
  0
LINE
  5
18E
330
1F
100
AcDbEntity
  8
0
  6
Continuous
 62
     2
100
AcDbLine
 10
312.255745575
 20
312.468512109
 30
0.0
 11
310.155768743
 21
312.468512109
 31
0.0
  0
ARC
  5
18F
330
1F
100
AcDbEntity
  8
0
  6
Continuous
 62
     2
100
AcDbCircle
 10
304.501723773
 20
322.468512109
 30
0.0
 40
12.65404497
100
AcDbArc
 50
307.790077895
 51
52.209922105
  0
LINE
  5
190
330
1F
100
AcDbEntity
  8
0
  6
Continuous
 62
     2
100
AcDbLine
 10
312.255745575
 20
332.468512109
 30
0.0
 11
310.155768743
 21
332.468512109
 31
0.0
  0
LINE
  5
191
330
1F
100
AcDbEntity
  8
0
  6
Continuous
 62
     2
100
AcDbLine
 10
336.255745575
 20
312.468512109
 30
0.0
 11
338.355722407
 21
312.468512109
 31
0.0
  0
ARC
  5
192
330
1F
100
AcDbEntity
  8
0
  6
Continuous
 62
     2
100
AcDbCircle
 10
344.009767377
 20
322.468512109
 30
0.0
 40
12.65404497
100
AcDbArc
 50
127.790077895
 51
232.209922105
  0
LINE
  5
193
330
1F
100
AcDbEntity
  8
0
  6
Continuous
 62
     2
100
AcDbLine
 10
336.255745575
 20
332.468512109
 30
0.0
 11
338.355722407
 21
332.468512109
 31
0.0
  0
LINE
  5
194
330
1F
100
AcDbEntity
  8
0
  6
Continuous
 62
     1
100
AcDbLine
 10
312.255745575
 20
361.46849685
 30
0.0
 11
312.255745575
 21
374.468481591
 31
0.0
  0
LINE
  5
195
330
1F
100
AcDbEntity
  8
0
  6
Continuous
 62
     1
100
AcDbLine
 10
312.255745575
 20
332.468512109
 30
0.0
 11
312.255745575
 21
341.46849685
 31
0.0
  0
LINE
  5
196
330
1F
100
AcDbEntity
  8
0
  6
Continuous
 62
     1
100
AcDbLine
 10
312.255745575
 20
307.468481591
 30
0.0
 11
312.255745575
 21
312.468512109
 31
0.0
  0
LINE
  5
197
330
1F
100
AcDbEntity
  8
0
  6
Continuous
 62
     1
100
AcDbLine
 10
336.255745575
 20
361.46849685
 30
0.0
 11
336.255745575
 21
374.468481591
 31
0.0
  0
LINE
  5
198
330
1F
100
AcDbEntity
  8
0
  6
Continuous
 62
     1
100
AcDbLine
 10
336.255745575
 20
332.468512109
 30
0.0
 11
336.255745575
 21
341.46849685
 31
0.0
  0
LINE
  5
199
330
1F
100
AcDbEntity
  8
0
  6
Continuous
 62
     1
100
AcDbLine
 10
336.255745575
 20
307.468481591
 30
0.0
 11
336.255745575
 21
312.468512109
 31
0.0
  0
ARC
  5
19A
330
1F
100
AcDbEntity
  8
0
  6
Continuous
 62
     1
100
AcDbCircle
 10
364.905745575
 20
372.468496535
 30
0.0
 40
1.0
100
AcDbArc
 50
0.0
 51
89.999998711
  0
LINE
  5
19B
330
1F
100
AcDbEntity
  8
0
  6
Continuous
 62
     1
100
AcDbLine
 10
351.905745598
 20
373.468496827
 30
0.0
 11
364.905745598
 21
373.468496535
 31
0.0
  0
ARC
  5
19C
330
1F
100
AcDbEntity
  8
0
  6
Continuous
 62
     1
100
AcDbCircle
 10
351.905745575
 20
372.468496827
 30
0.0
 40
1.0
100
AcDbArc
 50
89.999998711
 51
180.0
  0
ARC
  5
19D
330
1F
100
AcDbEntity
  8
0
  6
Continuous
 62
     1
100
AcDbCircle
 10
351.905745575
 20
330.468496827
 30
0.0
 40
1.0
100
AcDbArc
 50
180.0
 51
269.999998711
  0
LINE
  5
19E
330
1F
100
AcDbEntity
  8
0
  6
Continuous
 62
     1
100
AcDbLine
 10
350.905745575
 20
330.468496827
 30
0.0
 11
350.905745575
 21
372.468496827
 31
0.0
  0
ARC
  5
19F
330
1F
100
AcDbEntity
  8
0
  6
Continuous
 62
     1
100
AcDbCircle
 10
364.905745575
 20
330.468496535
 30
0.0
 40
1.0
100
AcDbArc
 50
269.999998711
 51
0.0
  0
LINE
  5
1A0
330
1F
100
AcDbEntity
  8
0
  6
Continuous
 62
     1
100
AcDbLine
 10
365.905745575
 20
330.468496535
 30
0.0
 11
365.905745575
 21
372.468496535
 31
0.0
  0
LINE
  5
1A1
330
1F
100
AcDbEntity
  8
0
  6
Continuous
 62
     1
100
AcDbLine
 10
351.905745552
 20
329.468496827
 30
0.0
 11
364.905745552
 21
329.468496535
 31
0.0
  0
LINE
  5
1A2
330
1F
100
AcDbEntity
  8
0
  6
Continuous
 62
     1
100
AcDbLine
 10
342.005745575
 20
359.46849685
 30
0.0
 11
350.905745575
 21
359.46849685
 31
0.0
  0
LINE
  5
1A3
330
1F
100
AcDbEntity
  8
0
  6
Continuous
 62
     1
100
AcDbLine
 10
342.005745575
 20
343.46849685
 30
0.0
 11
342.005745575
 21
359.46849685
 31
0.0
  0
LINE
  5
1A4
330
1F
100
AcDbEntity
  8
0
  6
Continuous
 62
     1
100
AcDbLine
 10
342.005745575
 20
343.46849685
 30
0.0
 11
350.905745575
 21
343.46849685
 31
0.0
  0
LINE
  5
1A5
330
1F
100
AcDbEntity
  8
0
  6
Continuous
 62
     2
100
AcDbLine
 10
308.005745575
 20
331.468512109
 30
0.0
 11
306.505745575
 21
331.468512109
 31
0.0
  0
LINE
  5
1A6
330
1F
100
AcDbEntity
  8
0
  6
Continuous
 62
     2
100
AcDbLine
 10
306.505745575
 20
331.468512109
 30
0.0
 11
306.505745575
 21
313.468512109
 31
0.0
  0
LINE
  5
1A7
330
1F
100
AcDbEntity
  8
0
  6
Continuous
 62
     2
100
AcDbLine
 10
306.505745575
 20
313.468512109
 30
0.0
 11
308.005745575
 21
313.468512109
 31
0.0
  0
LINE
  5
1A8
330
1F
100
AcDbEntity
  8
0
  6
Continuous
 62
     2
100
AcDbLine
 10
301.505745575
 20
315.968512109
 30
0.0
 11
306.505745575
 21
315.968512109
 31
0.0
  0
LINE
  5
1A9
330
1F
100
AcDbEntity
  8
0
  6
Continuous
 62
     2
100
AcDbLine
 10
300.505745575
 20
316.968512109
 30
0.0
 11
301.505745575
 21
315.968512109
 31
0.0
  0
LINE
  5
1AA
330
1F
100
AcDbEntity
  8
0
  6
Continuous
 62
     2
100
AcDbLine
 10
306.505745575
 20
328.968512109
 30
0.0
 11
301.505745575
 21
328.968512109
 31
0.0
  0
LINE
  5
1AB
330
1F
100
AcDbEntity
  8
0
  6
Continuous
 62
     2
100
AcDbLine
 10
300.505745575
 20
327.968512109
 30
0.0
 11
300.505745575
 21
316.968512109
 31
0.0
  0
LINE
  5
1AC
330
1F
100
AcDbEntity
  8
0
  6
Continuous
 62
     2
100
AcDbLine
 10
301.505745575
 20
328.968512109
 30
0.0
 11
300.505745575
 21
327.968512109
 31
0.0
  0
LINE
  5
1AD
330
1F
100
AcDbEntity
  8
0
  6
Continuous
 62
     2
100
AcDbLine
 10
306.505745575
 20
322.468512109
 30
0.0
 11
301.505745575
 21
322.468512109
 31
0.0
  0
ARC
  5
1AE
330
1F
100
AcDbEntity
  8
0
  6
Continuous
 62
     2
100
AcDbCircle
 10
306.255745575
 20
325.718512109
 30
0.0
 40
5.755432217
100
AcDbArc
 50
145.619655276
 51
214.380344724
  0
ARC
  5
1AF
330
1F
100
AcDbEntity
  8
0
  6
Continuous
 62
     2
100
AcDbCircle
 10
306.255745575
 20
319.218512109
 30
0.0
 40
5.755432217
100
AcDbArc
 50
145.619655276
 51
214.380344724
  0
LINE
  5
1B0
330
1F
100
AcDbEntity
  8
0
  6
Continuous
 62
     2
100
AcDbLine
 10
300.505745575
 20
327.968512109
 30
0.0
 11
298.505745575
 21
327.468512109
 31
0.0
  0
LINE
  5
1B1
330
1F
100
AcDbEntity
  8
0
  6
Continuous
 62
     2
100
AcDbLine
 10
298.505745575
 20
327.468512109
 30
0.0
 11
298.505745575
 21
317.468512109
 31
0.0
  0
LINE
  5
1B2
330
1F
100
AcDbEntity
  8
0
  6
Continuous
 62
     2
100
AcDbLine
 10
298.505745575
 20
317.468512109
 30
0.0
 11
300.505745575
 21
316.968512109
 31
0.0
  0
LINE
  5
1B3
330
1F
100
AcDbEntity
  8
0
  6
Continuous
 62
     2
100
AcDbLine
 10
297.005745575
 20
325.468512109
 30
0.0
 11
297.005745575
 21
319.468512109
 31
0.0
  0
LINE
  5
1B4
330
1F
100
AcDbEntity
  8
0
  6
Continuous
 62
     2
100
AcDbLine
 10
297.005745575
 20
319.468512109
 30
0.0
 11
298.005745575
 21
318.468512109
 31
0.0
  0
LINE
  5
1B5
330
1F
100
AcDbEntity
  8
0
  6
Continuous
 62
     2
100
AcDbLine
 10
298.005745575
 20
326.468512109
 30
0.0
 11
298.005745575
 21
318.468512109
 31
0.0
  0
LINE
  5
1B6
330
1F
100
AcDbEntity
  8
0
  6
Continuous
 62
     2
100
AcDbLine
 10
298.505745575
 20
326.468512109
 30
0.0
 11
298.005745575
 21
326.468512109
 31
0.0
  0
LINE
  5
1B7
330
1F
100
AcDbEntity
  8
0
  6
Continuous
 62
     2
100
AcDbLine
 10
297.005745575
 20
325.468512109
 30
0.0
 11
298.505745575
 21
325.468512109
 31
0.0
  0
LINE
  5
1B8
330
1F
100
AcDbEntity
  8
0
  6
Continuous
 62
     2
100
AcDbLine
 10
298.505745575
 20
319.468512109
 30
0.0
 11
297.005745575
 21
319.468512109
 31
0.0
  0
LINE
  5
1B9
330
1F
100
AcDbEntity
  8
0
  6
Continuous
 62
     2
100
AcDbLine
 10
298.005745575
 20
318.468512109
 30
0.0
 11
298.505745575
 21
318.468512109
 31
0.0
  0
LINE
  5
1BA
330
1F
100
AcDbEntity
  8
0
  6
Continuous
 62
     2
100
AcDbLine
 10
298.005745575
 20
326.468512109
 30
0.0
 11
297.005745575
 21
325.468512109
 31
0.0
  0
LINE
  5
1BB
330
1F
100
AcDbEntity
  8
0
  6
Continuous
 62
     2
100
AcDbLine
 10
340.505745575
 20
312.468512109
 30
0.0
 11
342.005745575
 21
312.468512109
 31
0.0
  0
LINE
  5
1BC
330
1F
100
AcDbEntity
  8
0
  6
Continuous
 62
     2
100
AcDbLine
 10
342.005745575
 20
332.468512109
 30
0.0
 11
342.005745575
 21
312.468512109
 31
0.0
  0
LINE
  5
1BD
330
1F
100
AcDbEntity
  8
0
  6
Continuous
 62
     2
100
AcDbLine
 10
340.505745575
 20
332.468512109
 30
0.0
 11
342.005745575
 21
332.468512109
 31
0.0
  0
ARC
  5
1BE
330
1F
100
AcDbEntity
  8
0
  6
Continuous
 62
     2
100
AcDbCircle
 10
333.989078908
 20
322.468512109
 30
0.0
 40
12.816666667
100
AcDbArc
 50
308.717988351
 51
51.282011649
  0
LINE
  5
1BF
330
1F
100
AcDbEntity
  8
0
  6
Continuous
 62
     2
100
AcDbLine
 10
308.005745575
 20
361.46849685
 30
0.0
 11
306.505745575
 21
361.46849685
 31
0.0
  0
LINE
  5
1C0
330
1F
100
AcDbEntity
  8
0
  6
Continuous
 62
     2
100
AcDbLine
 10
306.505745575
 20
341.46849685
 30
0.0
 11
306.505745575
 21
361.46849685
 31
0.0
  0
LINE
  5
1C1
330
1F
100
AcDbEntity
  8
0
  6
Continuous
 62
     2
100
AcDbLine
 10
308.005745575
 20
341.46849685
 30
0.0
 11
306.505745575
 21
341.46849685
 31
0.0
  0
ARC
  5
1C2
330
1F
100
AcDbEntity
  8
0
  6
Continuous
 62
     2
100
AcDbCircle
 10
314.522412242
 20
351.46849685
 30
0.0
 40
12.816666667
100
AcDbArc
 50
128.717988351
 51
231.282011649
  0
ARC
  5
1C3
330
1F
100
AcDbEntity
  8
0
  6
Continuous
 62
     1
100
AcDbCircle
 10
409.255745575
 20
289.86849685
 30
0.0
 40
5.0
100
AcDbArc
 50
0.0
 51
90.0
  0
LINE
  5
1C4
330
1F
100
AcDbEntity
  8
0
  6
Continuous
 62
     1
100
AcDbLine
 10
414.255745575
 20
281.86849685
 30
0.0
 11
414.255745575
 21
289.86849685
 31
0.0
  0
CIRCLE
  5
1C5
330
1F
100
AcDbEntity
  8
0
  6
Continuous
 62
     2
100
AcDbCircle
 10
337.755745575
 20
390.668481591
 30
0.0
 40
7.0
  0
LINE
  5
1C6
330
1F
100
AcDbEntity
  8
0
  6
Continuous
 62
     2
100
AcDbLine
 10
315.464758708
 20
393.387231591
 30
0.0
 11
310.755745575
 21
396.105981591
 31
0.0
  0
LINE
  5
1C7
330
1F
100
AcDbEntity
  8
0
  6
Continuous
 62
     2
100
AcDbLine
 10
310.755745575
 20
396.105981591
 30
0.0
 11
306.046732442
 21
393.387231591
 31
0.0
  0
LINE
  5
1C8
330
1F
100
AcDbEntity
  8
0
  6
Continuous
 62
     2
100
AcDbLine
 10
306.046732442
 20
393.387231591
 30
0.0
 11
306.046732442
 21
387.949731591
 31
0.0
  0
LINE
  5
1C9
330
1F
100
AcDbEntity
  8
0
  6
Continuous
 62
     2
100
AcDbLine
 10
306.046732442
 20
387.949731591
 30
0.0
 11
310.755745575
 21
385.230981591
 31
0.0
  0
LINE
  5
1CA
330
1F
100
AcDbEntity
  8
0
  6
Continuous
 62
     2
100
AcDbLine
 10
310.755745575
 20
385.230981591
 30
0.0
 11
315.464758708
 21
387.949731591
 31
0.0
  0
LINE
  5
1CB
330
1F
100
AcDbEntity
  8
0
  6
Continuous
 62
     2
100
AcDbLine
 10
315.464758708
 20
387.949731591
 30
0.0
 11
315.464758708
 21
393.387231591
 31
0.0
  0
CIRCLE
  5
1CC
330
1F
100
AcDbEntity
  8
0
  6
Continuous
 62
     2
100
AcDbCircle
 10
310.755745575
 20
390.668481591
 30
0.0
 40
3.0
  0
CIRCLE
  5
1CD
330
1F
100
AcDbEntity
  8
0
  6
Continuous
 62
     2
100
AcDbCircle
 10
310.755745575
 20
390.668481591
 30
0.0
 40
4.7
  0
CIRCLE
  5
1CE
330
1F
100
AcDbEntity
  8
0
  6
Continuous
 62
     2
100
AcDbCircle
 10
310.755745575
 20
390.668481591
 30
0.0
 40
6.0
  0
MTEXT
  5
1CF
330
1F
100
AcDbEntity
  8
0
  6
Continuous
 62
     2
100
AcDbMText
 10
272.155743575
 20
459.068481591
 30
0.0
 40
7.5
 41
103.491
 71
     7
 72
     1
  1
\T1.111;\W0.900;φ２０～φ５３
  7
KANJI3
 73
     1
 44
1.0
  0
LINE
  5
1D1
330
1F
100
AcDbEntity
  8
0
  6
Continuous
 62
     2
100
AcDbLine
 10
543.355745575
 20
449.818481591
 30
0.0
 11
543.355745575
 21
460.318481591
 31
0.0
  0
LINE
  5
1D2
330
1F
100
AcDbEntity
  8
0
  6
Continuous
 62
     2
100
AcDbLine
 10
579.155745575
 20
460.318481591
 30
0.0
 11
579.155745575
 21
449.818481591
 31
0.0
  0
LINE
  5
1D3
330
1F
100
AcDbEntity
  8
0
  6
Continuous
 62
     1
100
AcDbLine
 10
539.155745575
 20
414.068481591
 30
0.0
 11
539.155745575
 21
434.068481591
 31
0.0
  0
LINE
  5
1D4
330
1F
100
AcDbEntity
  8
0
  6
Continuous
 62
     2
100
AcDbLine
 10
579.155745575
 20
428.818481591
 30
0.0
 11
579.155745575
 21
439.318481591
 31
0.0
  0
LINE
  5
1D5
330
1F
100
AcDbEntity
  8
0
  6
Continuous
 62
     1
100
AcDbLine
 10
583.355745575
 20
414.068481591
 30
0.0
 11
583.355745575
 21
434.068481591
 31
0.0
  0
LINE
  5
1D6
330
1F
100
AcDbEntity
  8
0
  6
Continuous
 62
     1
100
AcDbLine
 10
529.155745575
 20
431.068481591
 30
0.0
 11
529.155745575
 21
509.068481591
 31
0.0
  0
LINE
  5
1D7
330
1F
100
AcDbEntity
  8
0
  6
Continuous
 62
     1
100
AcDbLine
 10
535.155745575
 20
431.068485406
 30
0.0
 11
535.155745575
 21
509.068485406
 31
0.0
  0
LINE
  5
1D8
330
1F
100
AcDbEntity
  8
0
  6
Continuous
 62
     1
100
AcDbLine
 10
543.355745575
 20
519.068481591
 30
0.0
 11
539.155745575
 21
519.068481591
 31
0.0
  0
ARC
  5
1D9
330
1F
100
AcDbEntity
  8
0
  6
Continuous
 62
     1
100
AcDbCircle
 10
539.155745575
 20
509.068481591
 30
0.0
 40
10.0
100
AcDbArc
 50
90.0
 51
180.0
  0
LINE
  5
1DA
330
1F
100
AcDbEntity
  8
0
  6
Continuous
 62
     1
100
AcDbLine
 10
539.155745575
 20
513.068481591
 30
0.0
 11
543.355745575
 21
513.068481591
 31
0.0
  0
ARC
  5
1DB
330
1F
100
AcDbEntity
  8
0
  6
Continuous
 62
     1
100
AcDbCircle
 10
539.155745575
 20
509.068481591
 30
0.0
 40
4.0
100
AcDbArc
 50
90.0
 51
179.999945358
  0
LINE
  5
1DC
330
1F
100
AcDbEntity
  8
0
  6
Continuous
 62
     1
100
AcDbLine
 10
579.155745575
 20
519.068481591
 30
0.0
 11
583.355745575
 21
519.068481591
 31
0.0
  0
ARC
  5
1DD
330
1F
100
AcDbEntity
  8
0
  6
Continuous
 62
     1
100
AcDbCircle
 10
583.355745575
 20
509.068481591
 30
0.0
 40
10.0
100
AcDbArc
 50
0.0
 51
90.0
  0
LINE
  5
1DE
330
1F
100
AcDbEntity
  8
0
  6
Continuous
 62
     1
100
AcDbLine
 10
583.355745575
 20
513.068481591
 30
0.0
 11
579.155745575
 21
513.068481591
 31
0.0
  0
ARC
  5
1DF
330
1F
100
AcDbEntity
  8
0
  6
Continuous
 62
     1
100
AcDbCircle
 10
583.355745575
 20
509.068481591
 30
0.0
 40
4.0
100
AcDbArc
 50
0.000054642
 51
90.0
  0
LINE
  5
1E0
330
1F
100
AcDbEntity
  8
0
  6
Continuous
 62
     1
100
AcDbLine
 10
593.355745575
 20
431.068486986
 30
0.0
 11
593.355745575
 21
509.068481591
 31
0.0
  0
LINE
  5
1E1
330
1F
100
AcDbEntity
  8
0
  6
Continuous
 62
     1
100
AcDbLine
 10
587.355745575
 20
431.068486986
 30
0.0
 11
587.355745575
 21
509.068485406
 31
0.0
  0
LINE
  5
1E2
330
1F
100
AcDbEntity
  8
0
  6
Continuous
 62
     1
100
AcDbLine
 10
575.955745575
 20
541.468481591
 30
0.0
 11
579.155745575
 21
541.468481591
 31
0.0
  0
LINE
  5
1E3
330
1F
100
AcDbEntity
  8
0
  6
Continuous
 62
     1
100
AcDbLine
 10
543.355745575
 20
541.468481591
 30
0.0
 11
546.555745575
 21
541.468481591
 31
0.0
  0
LINE
  5
1E4
330
1F
100
AcDbEntity
  8
0
  6
Continuous
 62
     1
100
AcDbLine
 10
575.955745575
 20
491.068481591
 30
0.0
 11
546.555745575
 21
491.068481591
 31
0.0
  0
LINE
  5
1E5
330
1F
100
AcDbEntity
  8
0
  6
Continuous
 62
     1
100
AcDbLine
 10
575.955745575
 20
507.068481591
 30
0.0
 11
546.555745575
 21
507.068481591
 31
0.0
  0
LINE
  5
1E6
330
1F
100
AcDbEntity
  8
0
  6
Continuous
 62
     2
100
AcDbLine
 10
534.155745575
 20
429.068481591
 30
0.0
 11
539.155745575
 21
429.068481591
 31
0.0
  0
ARC
  5
1E7
330
1F
100
AcDbEntity
  8
0
  6
Continuous
 62
     2
100
AcDbCircle
 10
534.155745575
 20
428.068481591
 30
0.0
 40
1.0
100
AcDbArc
 50
90.0
 51
180.0
  0
LINE
  5
1E8
330
1F
100
AcDbEntity
  8
0
  6
Continuous
 62
     2
100
AcDbLine
 10
534.155745575
 20
419.068481591
 30
0.0
 11
539.155745575
 21
419.068481591
 31
0.0
  0
LINE
  5
1E9
330
1F
100
AcDbEntity
  8
0
  6
Continuous
 62
     2
100
AcDbLine
 10
533.155745575
 20
420.068481591
 30
0.0
 11
533.155745575
 21
428.068481591
 31
0.0
  0
ARC
  5
1EA
330
1F
100
AcDbEntity
  8
0
  6
Continuous
 62
     2
100
AcDbCircle
 10
534.155745575
 20
420.068481591
 30
0.0
 40
1.0
100
AcDbArc
 50
180.0
 51
270.0
  0
ARC
  5
1EB
330
1F
100
AcDbEntity
  8
0
  6
Continuous
 62
     1
100
AcDbCircle
 10
539.155745575
 20
431.068481591
 30
0.0
 40
10.0
100
AcDbArc
 50
180.0
 51
233.130102354
  0
ARC
  5
1EC
330
1F
100
AcDbEntity
  8
0
  6
Continuous
 62
     1
100
AcDbCircle
 10
539.155745575
 20
431.068481591
 30
0.0
 40
4.0
100
AcDbArc
 50
179.999945358
 51
210.0
  0
LINE
  5
1ED
330
1F
100
AcDbEntity
  8
0
  6
Continuous
 62
     2
100
AcDbLine
 10
588.355745575
 20
429.068481591
 30
0.0
 11
583.355745575
 21
429.068481591
 31
0.0
  0
ARC
  5
1EE
330
1F
100
AcDbEntity
  8
0
  6
Continuous
 62
     2
100
AcDbCircle
 10
588.355745575
 20
428.068481591
 30
0.0
 40
1.0
100
AcDbArc
 50
0.0
 51
90.0
  0
LINE
  5
1EF
330
1F
100
AcDbEntity
  8
0
  6
Continuous
 62
     2
100
AcDbLine
 10
588.355745575
 20
419.068481591
 30
0.0
 11
583.355745575
 21
419.068481591
 31
0.0
  0
LINE
  5
1F0
330
1F
100
AcDbEntity
  8
0
  6
Continuous
 62
     2
100
AcDbLine
 10
589.355745575
 20
420.068481591
 30
0.0
 11
589.355745575
 21
428.068481591
 31
0.0
  0
ARC
  5
1F1
330
1F
100
AcDbEntity
  8
0
  6
Continuous
 62
     2
100
AcDbCircle
 10
588.355745575
 20
420.068481591
 30
0.0
 40
1.0
100
AcDbArc
 50
270.0
 51
0.0
  0
ARC
  5
1F2
330
1F
100
AcDbEntity
  8
0
  6
Continuous
 62
     1
100
AcDbCircle
 10
583.355745575
 20
431.068481591
 30
0.0
 40
4.0
100
AcDbArc
 50
330.0
 51
0.000077275
  0
ARC
  5
1F3
330
1F
100
AcDbEntity
  8
0
  6
Continuous
 62
     1
100
AcDbCircle
 10
583.355745575
 20
431.068481591
 30
0.0
 40
10.0
100
AcDbArc
 50
306.869897646
 51
0.0
  0
LINE
  5
1F4
330
1F
100
AcDbEntity
  8
0
  6
Continuous
 62
     1
100
AcDbLine
 10
542.355745575
 20
434.068481591
 30
0.0
 11
539.155745575
 21
434.068481591
 31
0.0
  0
LINE
  5
1F5
330
1F
100
AcDbEntity
  8
0
  6
Continuous
 62
     1
100
AcDbLine
 10
542.355745575
 20
414.068481591
 30
0.0
 11
542.355745575
 21
434.068481591
 31
0.0
  0
LINE
  5
1F6
330
1F
100
AcDbEntity
  8
0
  6
Continuous
 62
     1
100
AcDbLine
 10
542.355745575
 20
414.068481591
 30
0.0
 11
539.155745575
 21
414.068481591
 31
0.0
  0
LINE
  5
1F7
330
1F
100
AcDbEntity
  8
0
  6
Continuous
 62
     1
100
AcDbLine
 10
580.155745575
 20
434.068481591
 30
0.0
 11
583.355745575
 21
434.068481591
 31
0.0
  0
LINE
  5
1F8
330
1F
100
AcDbEntity
  8
0
  6
Continuous
 62
     1
100
AcDbLine
 10
580.155745575
 20
414.068481591
 30
0.0
 11
580.155745575
 21
434.068481591
 31
0.0
  0
LINE
  5
1F9
330
1F
100
AcDbEntity
  8
0
  6
Continuous
 62
     1
100
AcDbLine
 10
580.155745575
 20
414.068481591
 30
0.0
 11
583.355745575
 21
414.068481591
 31
0.0
  0
LINE
  5
1FA
330
1F
100
AcDbEntity
  8
0
  6
Continuous
 62
     1
100
AcDbLine
 10
574.955745575
 20
414.068481591
 30
0.0
 11
571.755745575
 21
414.068481591
 31
0.0
  0
LINE
  5
1FB
330
1F
100
AcDbEntity
  8
0
  6
Continuous
 62
     1
100
AcDbLine
 10
547.555745575
 20
414.068481591
 30
0.0
 11
550.755745575
 21
414.068481591
 31
0.0
  0
LINE
  5
1FC
330
1F
100
AcDbEntity
  8
0
  6
Continuous
 62
     1
100
AcDbLine
 10
566.255745575
 20
375.868481591
 30
0.0
 11
566.255745575
 21
379.068481591
 31
0.0
  0
LINE
  5
1FD
330
1F
100
AcDbEntity
  8
0
  6
Continuous
 62
     1
100
AcDbLine
 10
556.255745575
 20
375.868481591
 30
0.0
 11
556.255745575
 21
379.068481591
 31
0.0
  0
LINE
  5
1FE
330
1F
100
AcDbEntity
  8
0
  6
Continuous
 62
     1
100
AcDbLine
 10
546.555745575
 20
381.668481591
 30
0.0
 11
546.555745575
 21
541.468481591
 31
0.0
  0
ARC
  5
1FF
330
1F
100
AcDbEntity
  8
0
  6
Continuous
 62
     1
100
AcDbCircle
 10
549.155745575
 20
381.668481591
 30
0.0
 40
2.6
100
AcDbArc
 50
180.0
 51
270.0
  0
LINE
  5
200
330
1F
100
AcDbEntity
  8
0
  6
Continuous
 62
     1
100
AcDbLine
 10
575.955745575
 20
381.668481591
 30
0.0
 11
575.955745575
 21
541.468481591
 31
0.0
  0
ARC
  5
201
330
1F
100
AcDbEntity
  8
0
  6
Continuous
 62
     1
100
AcDbCircle
 10
573.355745575
 20
381.668481591
 30
0.0
 40
2.6
100
AcDbArc
 50
270.0
 51
0.0
  0
LINE
  5
202
330
1F
100
AcDbEntity
  8
0
  6
Continuous
 62
     1
100
AcDbLine
 10
543.355745575
 20
381.668486263
 30
0.0
 11
543.355745575
 21
541.468481591
 31
0.0
  0
ARC
  5
203
330
1F
100
AcDbEntity
  8
0
  6
Continuous
 62
     1
100
AcDbCircle
 10
549.155745575
 20
381.668481591
 30
0.0
 40
5.8
100
AcDbArc
 50
179.999953857
 51
270.000037684
  0
LINE
  5
204
330
1F
100
AcDbEntity
  8
0
  6
Continuous
 62
     1
100
AcDbLine
 10
556.255745575
 20
375.868481591
 30
0.0
 11
549.15574939
 21
375.868481591
 31
0.0
  0
LINE
  5
205
330
1F
100
AcDbEntity
  8
0
  6
Continuous
 62
     1
100
AcDbLine
 10
579.155745575
 20
381.668486263
 30
0.0
 11
579.155745575
 21
541.468481591
 31
0.0
  0
ARC
  5
206
330
1F
100
AcDbEntity
  8
0
  6
Continuous
 62
     1
100
AcDbCircle
 10
573.355745575
 20
381.668481591
 30
0.0
 40
5.8
100
AcDbArc
 50
270.000053293
 51
0.000046159
  0
LINE
  5
207
330
1F
100
AcDbEntity
  8
0
  6
Continuous
 62
     1
100
AcDbLine
 10
573.35575097
 20
375.868481591
 30
0.0
 11
566.255745575
 21
375.868481591
 31
0.0
  0
ARC
  5
208
330
1F
100
AcDbEntity
  8
0
  6
Continuous
 62
     1
100
AcDbCircle
 10
603.655745575
 20
413.068481591
 30
0.0
 40
1.0
100
AcDbArc
 50
0.0
 51
89.999998711
  0
LINE
  5
209
330
1F
100
AcDbEntity
  8
0
  6
Continuous
 62
     1
100
AcDbLine
 10
590.655745598
 20
414.068481884
 30
0.0
 11
603.655745598
 21
414.068481591
 31
0.0
  0
ARC
  5
20A
330
1F
100
AcDbEntity
  8
0
  6
Continuous
 62
     1
100
AcDbCircle
 10
590.655745575
 20
413.068481884
 30
0.0
 40
1.0
100
AcDbArc
 50
89.999998711
 51
180.0
  0
ARC
  5
20B
330
1F
100
AcDbEntity
  8
0
  6
Continuous
 62
     1
100
AcDbCircle
 10
590.655745575
 20
371.068481884
 30
0.0
 40
1.0
100
AcDbArc
 50
180.0
 51
269.999998711
  0
LINE
  5
20C
330
1F
100
AcDbEntity
  8
0
  6
Continuous
 62
     1
100
AcDbLine
 10
589.655745575
 20
371.068481884
 30
0.0
 11
589.655745575
 21
413.068481884
 31
0.0
  0
ARC
  5
20D
330
1F
100
AcDbEntity
  8
0
  6
Continuous
 62
     1
100
AcDbCircle
 10
603.655745575
 20
371.068481591
 30
0.0
 40
1.0
100
AcDbArc
 50
269.999998711
 51
0.0
  0
LINE
  5
20E
330
1F
100
AcDbEntity
  8
0
  6
Continuous
 62
     1
100
AcDbLine
 10
604.655745575
 20
371.068481591
 30
0.0
 11
604.655745575
 21
413.068481591
 31
0.0
  0
LINE
  5
20F
330
1F
100
AcDbEntity
  8
0
  6
Continuous
 62
     1
100
AcDbLine
 10
590.655745552
 20
370.068481884
 30
0.0
 11
603.655745552
 21
370.068481591
 31
0.0
  0
LINE
  5
210
330
1F
100
AcDbEntity
  8
0
  6
Continuous
 62
     1
100
AcDbLine
 10
580.755745575
 20
400.068481906
 30
0.0
 11
589.655745575
 21
400.068481906
 31
0.0
  0
LINE
  5
211
330
1F
100
AcDbEntity
  8
0
  6
Continuous
 62
     1
100
AcDbLine
 10
580.755745575
 20
384.068481906
 30
0.0
 11
580.755745575
 21
400.068481906
 31
0.0
  0
LINE
  5
212
330
1F
100
AcDbEntity
  8
0
  6
Continuous
 62
     1
100
AcDbLine
 10
580.755745575
 20
384.068481906
 30
0.0
 11
589.655745575
 21
384.068481906
 31
0.0
  0
LINE
  5
213
330
1F
100
AcDbEntity
  8
0
  6
Continuous
 62
     1
100
AcDbLine
 10
560.555745575
 20
379.068481591
 30
0.0
 11
549.155745575
 21
379.068481591
 31
0.0
  0
LINE
  5
214
330
1F
100
AcDbEntity
  8
0
  6
Continuous
 62
     1
100
AcDbLine
 10
573.355745575
 20
379.068481591
 30
0.0
 11
561.955745575
 21
379.068481591
 31
0.0
  0
LINE
  5
215
330
1F
100
AcDbEntity
  8
0
  6
Continuous
 62
     1
100
AcDbLine
 10
546.555745575
 20
381.668481591
 30
0.0
 11
549.155745575
 21
379.068481591
 31
0.0
  0
LINE
  5
216
330
1F
100
AcDbEntity
  8
0
  6
Continuous
 62
     1
100
AcDbLine
 10
573.355745575
 20
379.068481591
 30
0.0
 11
575.955745575
 21
381.668481591
 31
0.0
  0
LINE
  5
217
330
1F
100
AcDbEntity
  8
0
  6
Continuous
 62
     1
100
AcDbLine
 10
573.355745575
 20
405.068481591
 30
0.0
 11
575.955745575
 21
402.468481591
 31
0.0
  0
LINE
  5
218
330
1F
100
AcDbEntity
  8
0
  6
Continuous
 62
     1
100
AcDbLine
 10
560.555745575
 20
379.068481591
 30
0.0
 11
560.555745575
 21
405.068481591
 31
0.0
  0
LINE
  5
219
330
1F
100
AcDbEntity
  8
0
  6
Continuous
 62
     1
100
AcDbLine
 10
561.955745575
 20
379.068481591
 30
0.0
 11
561.955745575
 21
405.068481591
 31
0.0
  0
LINE
  5
21A
330
1F
100
AcDbEntity
  8
0
  6
Continuous
 62
     1
100
AcDbLine
 10
549.155745575
 20
405.068481591
 30
0.0
 11
546.555745575
 21
402.468481591
 31
0.0
  0
LINE
  5
21B
330
1F
100
AcDbEntity
  8
0
  6
Continuous
 62
     1
100
AcDbLine
 10
575.255745575
 20
413.068481591
 30
0.0
 11
547.255745575
 21
413.068481591
 31
0.0
  0
LINE
  5
21C
330
1F
100
AcDbEntity
  8
0
  6
Continuous
 62
     1
100
AcDbLine
 10
575.255745575
 20
405.068481591
 30
0.0
 11
575.255745575
 21
413.068481591
 31
0.0
  0
LINE
  5
21D
330
1F
100
AcDbEntity
  8
0
  6
Continuous
 62
     1
100
AcDbLine
 10
575.255745575
 20
405.068481591
 30
0.0
 11
547.255745575
 21
405.068481591
 31
0.0
  0
LINE
  5
21E
330
1F
100
AcDbEntity
  8
0
  6
Continuous
 62
     1
100
AcDbLine
 10
547.255745575
 20
405.068481591
 30
0.0
 11
547.255745575
 21
413.068481591
 31
0.0
  0
ARC
  5
21F
330
1F
100
AcDbEntity
  8
0
  6
Continuous
 62
     2
100
AcDbCircle
 10
541.878401825
 20
392.068481591
 30
0.0
 40
3.84765625
100
AcDbArc
 50
135.041131206
 51
224.958868794
  0
ARC
  5
220
330
1F
100
AcDbEntity
  8
0
  6
Continuous
 62
     2
100
AcDbCircle
 10
539.414534637
 20
387.990356591
 30
0.0
 40
1.383789063
100
AcDbArc
 50
100.77862352
 51
259.22137648
  0
ARC
  5
221
330
1F
100
AcDbEntity
  8
0
  6
Continuous
 62
     2
100
AcDbCircle
 10
539.414534637
 20
396.146606591
 30
0.0
 40
1.383789063
100
AcDbArc
 50
100.77862352
 51
259.22137648
  0
LINE
  5
222
330
1F
100
AcDbEntity
  8
0
  6
Continuous
 62
     2
100
AcDbLine
 10
538.030745575
 20
387.990356591
 30
0.0
 11
538.030745575
 21
396.146606591
 31
0.0
  0
LINE
  5
223
330
1F
100
AcDbEntity
  8
0
  6
Continuous
 62
     2
100
AcDbLine
 10
538.030745575
 20
387.990356591
 30
0.0
 11
537.655745575
 21
387.990356591
 31
0.0
  0
ARC
  5
224
330
1F
100
AcDbEntity
  8
0
  6
Continuous
 62
     2
100
AcDbCircle
 10
537.655745575
 20
389.115356591
 30
0.0
 40
1.125
100
AcDbArc
 50
180.0
 51
270.0
  0
LINE
  5
225
330
1F
100
AcDbEntity
  8
0
  6
Continuous
 62
     2
100
AcDbLine
 10
537.655745575
 20
396.146606591
 30
0.0
 11
538.030745575
 21
396.146606591
 31
0.0
  0
LINE
  5
226
330
1F
100
AcDbEntity
  8
0
  6
Continuous
 62
     2
100
AcDbLine
 10
536.530745575
 20
389.115356591
 30
0.0
 11
536.530745575
 21
395.021606591
 31
0.0
  0
ARC
  5
227
330
1F
100
AcDbEntity
  8
0
  6
Continuous
 62
     2
100
AcDbCircle
 10
537.655745575
 20
395.021606591
 30
0.0
 40
1.125
100
AcDbArc
 50
90.0
 51
180.0
  0
LINE
  5
228
330
1F
100
AcDbEntity
  8
0
  6
Continuous
 62
     2
100
AcDbLine
 10
536.530745575
 20
389.068481591
 30
0.0
 11
535.405745575
 21
389.068481591
 31
0.0
  0
LINE
  5
229
330
1F
100
AcDbEntity
  8
0
  6
Continuous
 62
     2
100
AcDbLine
 10
535.405745575
 20
389.068481591
 30
0.0
 11
535.405745575
 21
395.068481591
 31
0.0
  0
LINE
  5
22A
330
1F
100
AcDbEntity
  8
0
  6
Continuous
 62
     2
100
AcDbLine
 10
535.405745575
 20
395.068481591
 30
0.0
 11
536.530745575
 21
395.068481591
 31
0.0
  0
LINE
  5
22B
330
1F
100
AcDbEntity
  8
0
  6
Continuous
 62
     2
100
AcDbLine
 10
535.030745575
 20
394.693481591
 30
0.0
 11
536.530745575
 21
394.693481591
 31
0.0
  0
LINE
  5
22C
330
1F
100
AcDbEntity
  8
0
  6
Continuous
 62
     2
100
AcDbLine
 10
535.030745575
 20
389.443481591
 30
0.0
 11
535.030745575
 21
394.693481591
 31
0.0
  0
LINE
  5
22D
330
1F
100
AcDbEntity
  8
0
  6
Continuous
 62
     2
100
AcDbLine
 10
536.530745575
 20
389.443481591
 30
0.0
 11
535.030745575
 21
389.443481591
 31
0.0
  0
LINE
  5
22E
330
1F
100
AcDbEntity
  8
0
  6
Continuous
 62
     2
100
AcDbLine
 10
535.405745575
 20
389.068481591
 30
0.0
 11
535.030745575
 21
389.443481591
 31
0.0
  0
LINE
  5
22F
330
1F
100
AcDbEntity
  8
0
  6
Continuous
 62
     2
100
AcDbLine
 10
535.030745575
 20
394.693481591
 30
0.0
 11
535.405745575
 21
395.068481591
 31
0.0
  0
LINE
  5
230
330
1F
100
AcDbEntity
  8
0
  6
Continuous
 62
     2
100
AcDbLine
 10
540.288841197
 20
394.787231591
 30
0.0
 11
539.155745575
 21
394.787231591
 31
0.0
  0
LINE
  5
231
330
1F
100
AcDbEntity
  8
0
  6
Continuous
 62
     2
100
AcDbLine
 10
540.288841197
 20
389.349731591
 30
0.0
 11
539.155745575
 21
389.349731591
 31
0.0
  0
LINE
  5
232
330
1F
100
AcDbEntity
  8
0
  6
Continuous
 62
     2
100
AcDbLine
 10
541.750375873
 20
397.505981591
 30
0.0
 11
539.155745575
 21
397.505981591
 31
0.0
  0
LINE
  5
233
330
1F
100
AcDbEntity
  8
0
  6
Continuous
 62
     2
100
AcDbLine
 10
542.155745575
 20
397.837231591
 30
0.0
 11
542.155745575
 21
398.818481591
 31
0.0
  0
LINE
  5
234
330
1F
100
AcDbEntity
  8
0
  6
Continuous
 62
     2
100
AcDbLine
 10
542.155745575
 20
385.318481591
 30
0.0
 11
542.155745575
 21
386.155783392
 31
0.0
  0
LINE
  5
235
330
1F
100
AcDbEntity
  8
0
  6
Continuous
 62
     2
100
AcDbLine
 10
539.155745575
 20
386.630981591
 30
0.0
 11
541.750375873
 21
386.630981591
 31
0.0
  0
LINE
  5
236
330
1F
100
AcDbEntity
  8
0
  6
Continuous
 62
     2
100
AcDbLine
 10
542.155745575
 20
385.318481591
 30
0.0
 11
543.037981212
 21
385.318481591
 31
0.0
  0
LINE
  5
237
330
1F
100
AcDbEntity
  8
0
  6
Continuous
 62
     2
100
AcDbLine
 10
542.155745575
 20
398.818481591
 30
0.0
 11
543.037981212
 21
398.818481591
 31
0.0
  0
ARC
  5
238
330
1F
100
AcDbEntity
  8
0
  6
Continuous
 62
     2
100
AcDbCircle
 10
548.605745575
 20
392.068481591
 30
0.0
 40
8.75
100
AcDbArc
 50
126.869897646
 51
233.130102354
  0
LINE
  5
239
330
1F
100
AcDbEntity
  8
0
  6
Continuous
 62
     1
100
AcDbLine
 10
547.555745575
 20
464.816758142
 30
0.0
 11
550.755745575
 21
464.816758142
 31
0.0
  0
LINE
  5
23A
330
1F
100
AcDbEntity
  8
0
  6
Continuous
 62
     1
100
AcDbLine
 10
574.955745575
 20
464.816758142
 30
0.0
 11
571.755745575
 21
464.816758142
 31
0.0
  0
LINE
  5
23B
330
1F
100
AcDbEntity
  8
0
  6
Continuous
 62
     1
100
AcDbLine
 10
550.755745575
 20
414.068481591
 30
0.0
 11
550.755745575
 21
464.816758142
 31
0.0
  0
LINE
  5
23C
330
1F
100
AcDbEntity
  8
0
  6
Continuous
 62
     1
100
AcDbLine
 10
547.555745575
 20
414.068481591
 30
0.0
 11
547.555745575
 21
464.816758142
 31
0.0
  0
LINE
  5
23D
330
1F
100
AcDbEntity
  8
0
  6
Continuous
 62
     1
100
AcDbLine
 10
571.755745575
 20
414.068481591
 30
0.0
 11
571.755745575
 21
464.816758142
 31
0.0
  0
LINE
  5
23E
330
1F
100
AcDbEntity
  8
0
  6
Continuous
 62
     1
100
AcDbLine
 10
574.955745575
 20
414.068481591
 30
0.0
 11
574.955745575
 21
464.816758142
 31
0.0
  0
LINE
  5
23F
330
1F
100
AcDbEntity
  8
0
  6
Continuous
 62
     1
100
AcDbLine
 10
571.755745575
 20
462.332966561
 30
0.0
 11
550.755745575
 21
462.332966561
 31
0.0
  0
LINE
  5
240
330
1F
100
AcDbEntity
  8
0
  6
Continuous
 62
     1
100
AcDbLine
 10
571.755745575
 20
442.332966561
 30
0.0
 11
550.755745575
 21
442.332966561
 31
0.0
  0
ARC
  5
241
330
1F
100
AcDbEntity
  8
0
  6
Continuous
 62
     2
100
AcDbCircle
 10
570.478401825
 20
424.068481591
 30
0.0
 40
3.84765625
100
AcDbArc
 50
135.041131206
 51
224.958868794
  0
ARC
  5
242
330
1F
100
AcDbEntity
  8
0
  6
Continuous
 62
     2
100
AcDbCircle
 10
568.014534637
 20
419.990356591
 30
0.0
 40
1.383789063
100
AcDbArc
 50
100.77862352
 51
259.22137648
  0
ARC
  5
243
330
1F
100
AcDbEntity
  8
0
  6
Continuous
 62
     2
100
AcDbCircle
 10
568.014534637
 20
428.146606591
 30
0.0
 40
1.383789063
100
AcDbArc
 50
100.77862352
 51
259.22137648
  0
LINE
  5
244
330
1F
100
AcDbEntity
  8
0
  6
Continuous
 62
     2
100
AcDbLine
 10
566.630745575
 20
419.990356591
 30
0.0
 11
566.630745575
 21
428.146606591
 31
0.0
  0
LINE
  5
245
330
1F
100
AcDbEntity
  8
0
  6
Continuous
 62
     2
100
AcDbLine
 10
566.630745575
 20
419.990356591
 30
0.0
 11
566.255745575
 21
419.990356591
 31
0.0
  0
ARC
  5
246
330
1F
100
AcDbEntity
  8
0
  6
Continuous
 62
     2
100
AcDbCircle
 10
566.255745575
 20
421.115356591
 30
0.0
 40
1.125
100
AcDbArc
 50
180.0
 51
270.0
  0
LINE
  5
247
330
1F
100
AcDbEntity
  8
0
  6
Continuous
 62
     2
100
AcDbLine
 10
566.255745575
 20
428.146606591
 30
0.0
 11
566.630745575
 21
428.146606591
 31
0.0
  0
LINE
  5
248
330
1F
100
AcDbEntity
  8
0
  6
Continuous
 62
     2
100
AcDbLine
 10
565.130745575
 20
421.115356591
 30
0.0
 11
565.130745575
 21
427.021606591
 31
0.0
  0
ARC
  5
249
330
1F
100
AcDbEntity
  8
0
  6
Continuous
 62
     2
100
AcDbCircle
 10
566.255745575
 20
427.021606591
 30
0.0
 40
1.125
100
AcDbArc
 50
90.0
 51
180.0
  0
LINE
  5
24A
330
1F
100
AcDbEntity
  8
0
  6
Continuous
 62
     2
100
AcDbLine
 10
565.130745575
 20
421.068481591
 30
0.0
 11
564.005745575
 21
421.068481591
 31
0.0
  0
LINE
  5
24B
330
1F
100
AcDbEntity
  8
0
  6
Continuous
 62
     2
100
AcDbLine
 10
564.005745575
 20
421.068481591
 30
0.0
 11
564.005745575
 21
427.068481591
 31
0.0
  0
LINE
  5
24C
330
1F
100
AcDbEntity
  8
0
  6
Continuous
 62
     2
100
AcDbLine
 10
564.005745575
 20
427.068481591
 30
0.0
 11
565.130745575
 21
427.068481591
 31
0.0
  0
LINE
  5
24D
330
1F
100
AcDbEntity
  8
0
  6
Continuous
 62
     2
100
AcDbLine
 10
563.630745575
 20
426.693481591
 30
0.0
 11
565.130745575
 21
426.693481591
 31
0.0
  0
LINE
  5
24E
330
1F
100
AcDbEntity
  8
0
  6
Continuous
 62
     2
100
AcDbLine
 10
563.630745575
 20
421.443481591
 30
0.0
 11
563.630745575
 21
426.693481591
 31
0.0
  0
LINE
  5
24F
330
1F
100
AcDbEntity
  8
0
  6
Continuous
 62
     2
100
AcDbLine
 10
565.130745575
 20
421.443481591
 30
0.0
 11
563.630745575
 21
421.443481591
 31
0.0
  0
LINE
  5
250
330
1F
100
AcDbEntity
  8
0
  6
Continuous
 62
     2
100
AcDbLine
 10
564.005745575
 20
421.068481591
 30
0.0
 11
563.630745575
 21
421.443481591
 31
0.0
  0
LINE
  5
251
330
1F
100
AcDbEntity
  8
0
  6
Continuous
 62
     2
100
AcDbLine
 10
563.630745575
 20
426.693481591
 30
0.0
 11
564.005745575
 21
427.068481591
 31
0.0
  0
LINE
  5
252
330
1F
100
AcDbEntity
  8
0
  6
Continuous
 62
     2
100
AcDbLine
 10
570.755745575
 20
417.318481591
 30
0.0
 11
570.755745575
 21
430.818481591
 31
0.0
  0
LINE
  5
253
330
1F
100
AcDbEntity
  8
0
  6
Continuous
 62
     2
100
AcDbLine
 10
570.755745575
 20
426.787231591
 30
0.0
 11
567.755745575
 21
426.787231591
 31
0.0
  0
LINE
  5
254
330
1F
100
AcDbEntity
  8
0
  6
Continuous
 62
     2
100
AcDbLine
 10
570.755745575
 20
421.349731591
 30
0.0
 11
567.755745575
 21
421.349731591
 31
0.0
  0
LINE
  5
255
330
1F
100
AcDbEntity
  8
0
  6
Continuous
 62
     2
100
AcDbLine
 10
567.755745575
 20
418.630981591
 30
0.0
 11
570.755745575
 21
418.630981591
 31
0.0
  0
LINE
  5
256
330
1F
100
AcDbEntity
  8
0
  6
Continuous
 62
     2
100
AcDbLine
 10
570.755745575
 20
429.505981591
 30
0.0
 11
567.755745575
 21
429.505981591
 31
0.0
  0
LINE
  5
257
330
1F
100
AcDbEntity
  8
0
  6
Continuous
 62
     2
100
AcDbLine
 10
570.755745575
 20
430.818481591
 30
0.0
 11
571.755745575
 21
430.818481591
 31
0.0
  0
LINE
  5
258
330
1F
100
AcDbEntity
  8
0
  6
Continuous
 62
     2
100
AcDbLine
 10
570.755745575
 20
417.318481591
 30
0.0
 11
571.755745575
 21
417.318481591
 31
0.0
  0
ARC
  5
259
330
1F
100
AcDbEntity
  8
0
  6
Continuous
 62
     2
100
AcDbCircle
 10
552.033089325
 20
424.068481591
 30
0.0
 40
3.84765625
100
AcDbArc
 50
315.041131206
 51
44.958868794
  0
ARC
  5
25A
330
1F
100
AcDbEntity
  8
0
  6
Continuous
 62
     2
100
AcDbCircle
 10
554.496956512
 20
428.146606591
 30
0.0
 40
1.383789063
100
AcDbArc
 50
280.77862352
 51
79.22137648
  0
ARC
  5
25B
330
1F
100
AcDbEntity
  8
0
  6
Continuous
 62
     2
100
AcDbCircle
 10
554.496956512
 20
419.990356591
 30
0.0
 40
1.383789063
100
AcDbArc
 50
280.77862352
 51
79.22137648
  0
LINE
  5
25C
330
1F
100
AcDbEntity
  8
0
  6
Continuous
 62
     2
100
AcDbLine
 10
555.880745575
 20
428.146606591
 30
0.0
 11
555.880745575
 21
419.990356591
 31
0.0
  0
LINE
  5
25D
330
1F
100
AcDbEntity
  8
0
  6
Continuous
 62
     2
100
AcDbLine
 10
555.880745575
 20
428.146606591
 30
0.0
 11
556.255745575
 21
428.146606591
 31
0.0
  0
ARC
  5
25E
330
1F
100
AcDbEntity
  8
0
  6
Continuous
 62
     2
100
AcDbCircle
 10
556.255745575
 20
427.021606591
 30
0.0
 40
1.125
100
AcDbArc
 50
0.0
 51
90.0
  0
LINE
  5
25F
330
1F
100
AcDbEntity
  8
0
  6
Continuous
 62
     2
100
AcDbLine
 10
556.255745575
 20
419.990356591
 30
0.0
 11
555.880745575
 21
419.990356591
 31
0.0
  0
LINE
  5
260
330
1F
100
AcDbEntity
  8
0
  6
Continuous
 62
     2
100
AcDbLine
 10
557.380745575
 20
427.021606591
 30
0.0
 11
557.380745575
 21
421.115356591
 31
0.0
  0
ARC
  5
261
330
1F
100
AcDbEntity
  8
0
  6
Continuous
 62
     2
100
AcDbCircle
 10
556.255745575
 20
421.115356591
 30
0.0
 40
1.125
100
AcDbArc
 50
270.0
 51
0.0
  0
LINE
  5
262
330
1F
100
AcDbEntity
  8
0
  6
Continuous
 62
     2
100
AcDbLine
 10
557.380745575
 20
427.068481591
 30
0.0
 11
558.505745575
 21
427.068481591
 31
0.0
  0
LINE
  5
263
330
1F
100
AcDbEntity
  8
0
  6
Continuous
 62
     2
100
AcDbLine
 10
558.505745575
 20
427.068481591
 30
0.0
 11
558.505745575
 21
421.068481591
 31
0.0
  0
LINE
  5
264
330
1F
100
AcDbEntity
  8
0
  6
Continuous
 62
     2
100
AcDbLine
 10
558.505745575
 20
421.068481591
 30
0.0
 11
557.380745575
 21
421.068481591
 31
0.0
  0
LINE
  5
265
330
1F
100
AcDbEntity
  8
0
  6
Continuous
 62
     2
100
AcDbLine
 10
558.880745575
 20
421.443481591
 30
0.0
 11
557.380745575
 21
421.443481591
 31
0.0
  0
LINE
  5
266
330
1F
100
AcDbEntity
  8
0
  6
Continuous
 62
     2
100
AcDbLine
 10
558.880745575
 20
426.693481591
 30
0.0
 11
558.880745575
 21
421.443481591
 31
0.0
  0
LINE
  5
267
330
1F
100
AcDbEntity
  8
0
  6
Continuous
 62
     2
100
AcDbLine
 10
557.380745575
 20
426.693481591
 30
0.0
 11
558.880745575
 21
426.693481591
 31
0.0
  0
LINE
  5
268
330
1F
100
AcDbEntity
  8
0
  6
Continuous
 62
     2
100
AcDbLine
 10
558.505745575
 20
427.068481591
 30
0.0
 11
558.880745575
 21
426.693481591
 31
0.0
  0
LINE
  5
269
330
1F
100
AcDbEntity
  8
0
  6
Continuous
 62
     2
100
AcDbLine
 10
558.880745575
 20
421.443481591
 30
0.0
 11
558.505745575
 21
421.068481591
 31
0.0
  0
LINE
  5
26A
330
1F
100
AcDbEntity
  8
0
  6
Continuous
 62
     2
100
AcDbLine
 10
551.755745575
 20
430.818481591
 30
0.0
 11
551.755745575
 21
417.318481591
 31
0.0
  0
LINE
  5
26B
330
1F
100
AcDbEntity
  8
0
  6
Continuous
 62
     2
100
AcDbLine
 10
551.755745575
 20
421.349731591
 30
0.0
 11
554.755745575
 21
421.349731591
 31
0.0
  0
LINE
  5
26C
330
1F
100
AcDbEntity
  8
0
  6
Continuous
 62
     2
100
AcDbLine
 10
551.755745575
 20
426.787231591
 30
0.0
 11
554.755745575
 21
426.787231591
 31
0.0
  0
LINE
  5
26D
330
1F
100
AcDbEntity
  8
0
  6
Continuous
 62
     2
100
AcDbLine
 10
554.755745575
 20
429.505981591
 30
0.0
 11
551.755745575
 21
429.505981591
 31
0.0
  0
LINE
  5
26E
330
1F
100
AcDbEntity
  8
0
  6
Continuous
 62
     2
100
AcDbLine
 10
551.755745575
 20
418.630981591
 30
0.0
 11
554.755745575
 21
418.630981591
 31
0.0
  0
LINE
  5
26F
330
1F
100
AcDbEntity
  8
0
  6
Continuous
 62
     2
100
AcDbLine
 10
551.755745575
 20
417.318481591
 30
0.0
 11
550.755745575
 21
417.318481591
 31
0.0
  0
LINE
  5
270
330
1F
100
AcDbEntity
  8
0
  6
Continuous
 62
     2
100
AcDbLine
 10
551.755745575
 20
430.818481591
 30
0.0
 11
550.755745575
 21
430.818481591
 31
0.0
  0
LINE
  5
271
330
1F
100
AcDbEntity
  8
0
  6
Continuous
 62
     1
100
AcDbLine
 10
550.755745575
 20
434.068481591
 30
0.0
 11
571.755745575
 21
434.068481591
 31
0.0
  0
LINE
  5
272
330
1F
100
AcDbEntity
  8
0
  6
Continuous
 62
     1
100
AcDbLine
 10
550.755745575
 20
414.068481591
 30
0.0
 11
571.755745575
 21
414.068481591
 31
0.0
  0
LINE
  5
273
330
1F
100
AcDbEntity
  8
0
  6
Continuous
 62
     2
100
AcDbLine
 10
547.555745575
 20
434.068481591
 30
0.0
 11
550.755745575
 21
434.068481591
 31
0.0
  0
LINE
  5
274
330
1F
100
AcDbEntity
  8
0
  6
Continuous
 62
     2
100
AcDbLine
 10
574.955745575
 20
434.068481591
 30
0.0
 11
571.755745575
 21
434.068481591
 31
0.0
  0
LINE
  5
275
330
1F
100
AcDbEntity
  8
0
  6
Continuous
 62
     1
100
AcDbLine
 10
583.755745575
 20
382.146515611
 30
0.0
 11
583.755745575
 21
367.524338332
 31
0.0
  0
ARC
  5
276
330
1F
100
AcDbEntity
  8
0
  6
Continuous
 62
     1
100
AcDbCircle
 10
571.654134158
 20
404.68481258
 30
0.0
 40
26.655813484
100
AcDbArc
 50
284.790517015
 51
287.380098345
  0
ARC
  5
277
330
1F
100
AcDbEntity
  8
0
  6
Continuous
 62
     1
100
AcDbCircle
 10
573.725852886
 20
398.000820465
 30
0.0
 40
19.658152678
100
AcDbArc
 50
287.436752774
 51
290.605408306
  0
ARC
  5
278
330
1F
100
AcDbEntity
  8
0
  6
Continuous
 62
     1
100
AcDbCircle
 10
575.761262719
 20
392.53269409
 30
0.0
 40
13.823534012
100
AcDbArc
 50
290.68499081
 51
294.686644108
  0
ARC
  5
279
330
1F
100
AcDbEntity
  8
0
  6
Continuous
 62
     1
100
AcDbCircle
 10
577.670459185
 20
388.33495562
 30
0.0
 40
9.212078085
100
AcDbArc
 50
294.801714527
 51
300.039100892
  0
ARC
  5
27A
330
1F
100
AcDbEntity
  8
0
  6
Continuous
 62
     1
100
AcDbCircle
 10
579.365989861
 20
385.368066624
 30
0.0
 40
5.794948722
100
AcDbArc
 50
300.21117653
 51
307.33508943
  0
ARC
  5
27B
330
1F
100
AcDbEntity
  8
0
  6
Continuous
 62
     1
100
AcDbCircle
 10
580.768177119
 20
383.50316963
 30
0.0
 40
3.461810437
100
AcDbArc
 50
307.602089243
 51
317.638319352
  0
ARC
  5
27C
330
1F
100
AcDbEntity
  8
0
  6
Continuous
 62
     1
100
AcDbCircle
 10
581.80990393
 20
382.532663074
 30
0.0
 40
2.038193258
100
AcDbArc
 50
318.065303038
 51
332.373975404
  0
ARC
  5
27D
330
1F
100
AcDbEntity
  8
0
  6
Continuous
 62
     1
100
AcDbCircle
 10
582.440255085
 20
382.18579389
 30
0.0
 40
1.318949437
100
AcDbArc
 50
333.026934205
 51
352.274493798
  0
ARC
  5
27E
330
1F
100
AcDbEntity
  8
0
  6
Continuous
 62
     1
100
AcDbCircle
 10
582.626871947
 20
382.147264714
 30
0.0
 40
1.128922966
100
AcDbArc
 50
352.939015513
 51
14.525040664
  0
ARC
  5
27F
330
1F
100
AcDbEntity
  8
0
  6
Continuous
 62
     1
100
AcDbCircle
 10
582.3594261
 20
382.078018243
 30
0.0
 40
1.405187972
100
AcDbArc
 50
14.523286388
 51
33.339399487
  0
ARC
  5
280
330
1F
100
AcDbEntity
  8
0
  6
Continuous
 62
     1
100
AcDbCircle
 10
581.652408207
 20
381.641451824
 30
0.0
 40
2.235914704
100
AcDbArc
 50
32.728106306
 51
46.571024455
  0
ARC
  5
281
330
1F
100
AcDbEntity
  8
0
  6
Continuous
 62
     1
100
AcDbCircle
 10
580.541784808
 20
380.528849815
 30
0.0
 40
3.807648261
100
AcDbArc
 50
45.943511726
 51
55.644233081
  0
ARC
  5
282
330
1F
100
AcDbEntity
  8
0
  6
Continuous
 62
     1
100
AcDbCircle
 10
579.081633838
 20
378.479509335
 30
0.0
 40
6.323676099
100
AcDbArc
 50
55.200962768
 51
62.106293202
  0
ARC
  5
283
330
1F
100
AcDbEntity
  8
0
  6
Continuous
 62
     1
100
AcDbCircle
 10
573.841022841
 20
366.696394912
 30
0.0
 40
19.239169941
100
AcDbArc
 50
68.936120702
 51
73.963783698
  0
LINE
  5
284
330
1F
100
AcDbEntity
  8
0
  6
Continuous
 62
     1
100
AcDbLine
 10
538.755745575
 20
367.524338332
 30
0.0
 11
538.755745575
 21
382.146515611
 31
0.0
  0
ARC
  5
285
330
1F
100
AcDbEntity
  8
0
  6
Continuous
 62
     1
100
AcDbCircle
 10
550.128442748
 20
362.098096779
 30
0.0
 40
24.061653095
100
AcDbArc
 50
105.645582459
 51
108.47010098
  0
ARC
  5
286
330
1F
100
AcDbEntity
  8
0
  6
Continuous
 62
     1
100
AcDbCircle
 10
548.019738612
 20
368.474376099
 30
0.0
 40
17.345775111
100
AcDbArc
 50
108.53611293
 51
112.044714844
  0
ARC
  5
287
330
1F
100
AcDbEntity
  8
0
  6
Continuous
 62
     1
100
AcDbCircle
 10
545.983452237
 20
373.55509486
 30
0.0
 40
11.872238044
100
AcDbArc
 50
112.138970054
 51
116.650027814
  0
ARC
  5
288
330
1F
100
AcDbEntity
  8
0
  6
Continuous
 62
     1
100
AcDbCircle
 10
544.11446242
 20
377.320717805
 30
0.0
 40
7.668370345
100
AcDbArc
 50
116.788981926
 51
122.816968923
  0
ARC
  5
289
330
1F
100
AcDbEntity
  8
0
  6
Continuous
 62
     1
100
AcDbCircle
 10
542.502713844
 20
379.85198618
 30
0.0
 40
4.667610362
100
AcDbArc
 50
123.029521124
 51
131.411858447
  0
ARC
  5
28A
330
1F
100
AcDbEntity
  8
0
  6
Continuous
 62
     1
100
AcDbCircle
 10
541.22753626
 20
381.322066149
 30
0.0
 40
2.7216477
100
AcDbArc
 50
131.749938081
 51
143.759898451
  0
ARC
  5
28B
330
1F
100
AcDbEntity
  8
0
  6
Continuous
 62
     1
100
AcDbCircle
 10
540.352828887
 20
381.982424006
 30
0.0
 40
1.625845315
100
AcDbArc
 50
144.306433806
 51
161.299289144
  0
ARC
  5
28C
330
1F
100
AcDbEntity
  8
0
  6
Continuous
 62
     1
100
AcDbCircle
 10
539.923810497
 20
382.143890254
 30
0.0
 40
1.167807706
100
AcDbArc
 50
162.054284468
 51
183.442215058
  0
ARC
  5
28D
330
1F
100
AcDbEntity
  8
0
  6
Continuous
 62
     1
100
AcDbCircle
 10
539.964257541
 20
382.155409012
 30
0.0
 40
1.208907406
100
AcDbArc
 50
183.872063295
 51
205.00693855
  0
ARC
  5
28E
330
1F
100
AcDbEntity
  8
0
  6
Continuous
 62
     1
100
AcDbCircle
 10
540.471958792
 20
382.37846624
 30
0.0
 40
1.763351666
100
AcDbArc
 50
204.601673382
 51
221.127019555
  0
ARC
  5
28F
330
1F
100
AcDbEntity
  8
0
  6
Continuous
 62
     1
100
AcDbCircle
 10
541.419136577
 20
383.157105157
 30
0.0
 40
2.989173609
100
AcDbArc
 50
220.427849939
 51
232.057503359
  0
ARC
  5
290
330
1F
100
AcDbEntity
  8
0
  6
Continuous
 62
     1
100
AcDbCircle
 10
542.757094369
 20
384.793383435
 30
0.0
 40
5.102495176
100
AcDbArc
 50
231.506686859
 51
239.636789514
  0
ARC
  5
291
330
1F
100
AcDbEntity
  8
0
  6
Continuous
 62
     1
100
AcDbCircle
 10
544.418978942
 20
387.526549683
 30
0.0
 40
8.300990405
100
AcDbArc
 50
239.275263453
 51
245.141619774
  0
ARC
  5
292
330
1F
100
AcDbEntity
  8
0
  6
Continuous
 62
     1
100
AcDbCircle
 10
546.323268982
 20
391.514758973
 30
0.0
 40
12.720313442
100
AcDbArc
 50
244.910522479
 51
249.31613129
  0
ARC
  5
293
330
1F
100
AcDbEntity
  8
0
  6
Continuous
 62
     1
100
AcDbCircle
 10
548.378761995
 20
396.821936173
 30
0.0
 40
18.411496072
100
AcDbArc
 50
249.165365087
 51
252.602983062
  0
ARC
  5
294
330
1F
100
AcDbEntity
  8
0
  6
Continuous
 62
     1
100
AcDbCircle
 10
550.490335052
 20
403.411052057
 30
0.0
 40
25.330580114
100
AcDbArc
 50
252.501436385
 51
255.276634956
  0
ARC
  5
295
330
1F
100
AcDbEntity
  8
0
  6
Continuous
 62
     1
100
AcDbCircle
 10
550.490335052
 20
403.411052057
 30
0.0
 40
25.330580114
100
AcDbArc
 50
252.501436385
 51
255.276634956
  0
LINE
  5
296
330
1F
100
AcDbEntity
  8
0
  6
Continuous
 62
     1
100
AcDbLine
 10
565.255745575
 20
434.068481591
 30
0.0
 11
565.255745575
 21
442.332966561
 31
0.0
  0
LINE
  5
297
330
1F
100
AcDbEntity
  8
0
  6
Continuous
 62
     1
100
AcDbLine
 10
557.255745575
 20
434.068481591
 30
0.0
 11
557.255745575
 21
442.332966561
 31
0.0
  0
LINE
  5
298
330
1F
100
AcDbEntity
  8
0
  6
Continuous
 62
     2
100
AcDbLine
 10
558.505745575
 20
434.068481591
 30
0.0
 11
558.505745575
 21
442.332966561
 31
0.0
  0
LINE
  5
299
330
1F
100
AcDbEntity
  8
0
  6
Continuous
 62
     2
100
AcDbLine
 10
564.005745575
 20
434.068481591
 30
0.0
 11
564.005745575
 21
442.332966561
 31
0.0
  0
LINE
  5
29A
330
1F
100
AcDbEntity
  8
0
  6
Continuous
 62
     1
100
AcDbLine
 10
575.955745575
 20
516.468481591
 30
0.0
 11
546.555745575
 21
516.468481591
 31
0.0
  0
LINE
  5
29B
330
1F
100
AcDbEntity
  8
0
  6
Continuous
 62
     1
100
AcDbLine
 10
575.955745575
 20
532.468481591
 30
0.0
 11
546.555745575
 21
532.468481591
 31
0.0
  0
LINE
  5
29C
330
1F
100
AcDbEntity
  8
0
  6
Continuous
 62
     1
100
AcDbLine
 10
575.955745575
 20
513.068481591
 30
0.0
 11
546.555745575
 21
513.068481591
 31
0.0
  0
LINE
  5
29E
330
1F
100
AcDbEntity
  8
0
  6
LTYPE3
 62
     2
100
AcDbLine
 10
565.755745575
 20
392.068481906
 30
0.0
 11
604.655745575
 21
392.068481906
 31
0.0
  0
LINE
  5
29F
330
1F
100
AcDbEntity
  8
0
  6
Continuous
 62
     1
100
AcDbLine
 10
518.955745575
 20
294.86849685
 30
0.0
 11
515.755745575
 21
294.86849685
 31
0.0
  0
LINE
  5
2A0
330
1F
100
AcDbEntity
  8
0
  6
Continuous
 62
     1
100
AcDbLine
 10
606.755745575
 20
294.86849685
 30
0.0
 11
603.555745575
 21
294.86849685
 31
0.0
  0
LINE
  5
2A1
330
1F
100
AcDbEntity
  8
0
  6
Continuous
 62
     1
100
AcDbLine
 10
603.555745575
 20
294.86849685
 30
0.0
 11
603.555745575
 21
287.66849685
 31
0.0
  0
ARC
  5
2A2
330
1F
100
AcDbEntity
  8
0
  6
Continuous
 62
     1
100
AcDbCircle
 10
600.955745575
 20
287.66849685
 30
0.0
 40
2.6
100
AcDbArc
 50
270.0
 51
0.0
  0
LINE
  5
2A3
330
1F
100
AcDbEntity
  8
0
  6
Continuous
 62
     1
100
AcDbLine
 10
606.755745575
 20
287.66849685
 30
0.0
 11
606.755745575
 21
294.86849685
 31
0.0
  0
ARC
  5
2A4
330
1F
100
AcDbEntity
  8
0
  6
Continuous
 62
     1
100
AcDbCircle
 10
600.955745575
 20
287.66849685
 30
0.0
 40
5.8
100
AcDbArc
 50
270.0
 51
0.0
  0
LINE
  5
2A5
330
1F
100
AcDbEntity
  8
0
  6
Continuous
 62
     1
100
AcDbLine
 10
515.755745575
 20
287.66849685
 30
0.0
 11
515.755745575
 21
294.86849685
 31
0.0
  0
LINE
  5
2A6
330
1F
100
AcDbEntity
  8
0
  6
Continuous
 62
     1
100
AcDbLine
 10
600.955745575
 20
281.86849685
 30
0.0
 11
521.555745575
 21
281.86849685
 31
0.0
  0
ARC
  5
2A7
330
1F
100
AcDbEntity
  8
0
  6
Continuous
 62
     1
100
AcDbCircle
 10
521.555745575
 20
287.66849685
 30
0.0
 40
5.8
100
AcDbArc
 50
180.0
 51
270.0
  0
LINE
  5
2A8
330
1F
100
AcDbEntity
  8
0
  6
Continuous
 62
     1
100
AcDbLine
 10
518.955745575
 20
287.66849685
 30
0.0
 11
518.955745575
 21
294.86849685
 31
0.0
  0
LINE
  5
2A9
330
1F
100
AcDbEntity
  8
0
  6
Continuous
 62
     1
100
AcDbLine
 10
600.955745575
 20
285.06849685
 30
0.0
 11
521.555745575
 21
285.06849685
 31
0.0
  0
ARC
  5
2AA
330
1F
100
AcDbEntity
  8
0
  6
Continuous
 62
     1
100
AcDbCircle
 10
521.555745575
 20
287.66849685
 30
0.0
 40
2.6
100
AcDbArc
 50
180.0
 51
270.0
  0
LINE
  5
2AB
330
1F
100
AcDbEntity
  8
0
  6
Continuous
 62
     1
100
AcDbLine
 10
521.255745575
 20
322.06849685
 30
0.0
 11
521.255745575
 21
285.06849685
 31
0.0
  0
LINE
  5
2AC
330
1F
100
AcDbEntity
  8
0
  6
Continuous
 62
     1
100
AcDbLine
 10
521.255745575
 20
285.06849685
 30
0.0
 11
601.255745575
 21
285.06849685
 31
0.0
  0
LINE
  5
2AD
330
1F
100
AcDbEntity
  8
0
  6
Continuous
 62
     1
100
AcDbLine
 10
601.255745575
 20
285.06849685
 30
0.0
 11
601.255745575
 21
322.06849685
 31
0.0
  0
LINE
  5
2AE
330
1F
100
AcDbEntity
  8
0
  6
Continuous
 62
     2
100
AcDbLine
 10
521.255745575
 20
287.06849685
 30
0.0
 11
601.255745575
 21
287.06849685
 31
0.0
  0
LINE
  5
2AF
330
1F
100
AcDbEntity
  8
0
  6
Continuous
 62
     2
100
AcDbLine
 10
527.755745575
 20
287.06849685
 30
0.0
 11
527.755745575
 21
289.06849685
 31
0.0
  0
LINE
  5
2B0
330
1F
100
AcDbEntity
  8
0
  6
Continuous
 62
     2
100
AcDbLine
 10
527.755745575
 20
289.06849685
 30
0.0
 11
538.755745575
 21
289.06849685
 31
0.0
  0
LINE
  5
2B1
330
1F
100
AcDbEntity
  8
0
  6
Continuous
 62
     2
100
AcDbLine
 10
538.755745575
 20
287.06849685
 30
0.0
 11
538.755745575
 21
289.06849685
 31
0.0
  0
LINE
  5
2B2
330
1F
100
AcDbEntity
  8
0
  6
Continuous
 62
     2
100
AcDbLine
 10
533.255745575
 20
281.36849685
 30
0.0
 11
527.540719424
 21
281.86849685
 31
0.0
  0
LINE
  5
2B3
330
1F
100
AcDbEntity
  8
0
  6
Continuous
 62
     2
100
AcDbLine
 10
533.255745575
 20
281.36849685
 30
0.0
 11
538.970771726
 21
281.86849685
 31
0.0
  0
LINE
  5
2B4
330
1F
100
AcDbEntity
  8
0
  6
Continuous
 62
     2
100
AcDbLine
 10
594.755745575
 20
287.06849685
 30
0.0
 11
594.755745575
 21
289.06849685
 31
0.0
  0
LINE
  5
2B5
330
1F
100
AcDbEntity
  8
0
  6
Continuous
 62
     2
100
AcDbLine
 10
594.755745575
 20
289.06849685
 30
0.0
 11
583.755745575
 21
289.06849685
 31
0.0
  0
LINE
  5
2B6
330
1F
100
AcDbEntity
  8
0
  6
Continuous
 62
     2
100
AcDbLine
 10
583.755745575
 20
287.06849685
 30
0.0
 11
583.755745575
 21
289.06849685
 31
0.0
  0
LINE
  5
2B7
330
1F
100
AcDbEntity
  8
0
  6
Continuous
 62
     2
100
AcDbLine
 10
589.255745575
 20
281.36849685
 30
0.0
 11
594.970771726
 21
281.86849685
 31
0.0
  0
LINE
  5
2B8
330
1F
100
AcDbEntity
  8
0
  6
Continuous
 62
     2
100
AcDbLine
 10
589.255745575
 20
281.36849685
 30
0.0
 11
583.540719424
 21
281.86849685
 31
0.0
  0
CIRCLE
  5
2B9
330
1F
100
AcDbEntity
  8
0
  6
Continuous
 62
     1
100
AcDbCircle
 10
561.255745575
 20
351.068481591
 30
0.0
 40
22.0
  0
LINE
  5
2BA
330
1F
100
AcDbEntity
  8
0
  6
Continuous
 62
     1
100
AcDbLine
 10
567.534429752
 20
325.69349685
 30
0.0
 11
561.255745575
 21
329.31849685
 31
0.0
  0
LINE
  5
2BB
330
1F
100
AcDbEntity
  8
0
  6
Continuous
 62
     1
100
AcDbLine
 10
561.255745575
 20
329.31849685
 30
0.0
 11
554.977061398
 21
325.69349685
 31
0.0
  0
LINE
  5
2BC
330
1F
100
AcDbEntity
  8
0
  6
Continuous
 62
     1
100
AcDbLine
 10
554.977061398
 20
325.69349685
 30
0.0
 11
554.977061398
 21
318.44349685
 31
0.0
  0
LINE
  5
2BD
330
1F
100
AcDbEntity
  8
0
  6
Continuous
 62
     1
100
AcDbLine
 10
554.977061398
 20
318.44349685
 30
0.0
 11
561.255745575
 21
314.81849685
 31
0.0
  0
LINE
  5
2BE
330
1F
100
AcDbEntity
  8
0
  6
Continuous
 62
     1
100
AcDbLine
 10
561.255745575
 20
314.81849685
 30
0.0
 11
567.534429752
 21
318.44349685
 31
0.0
  0
LINE
  5
2BF
330
1F
100
AcDbEntity
  8
0
  6
Continuous
 62
     1
100
AcDbLine
 10
567.534429752
 20
318.44349685
 30
0.0
 11
567.534429752
 21
325.69349685
 31
0.0
  0
CIRCLE
  5
2C0
330
1F
100
AcDbEntity
  8
0
  6
Continuous
 62
     2
100
AcDbCircle
 10
561.255745575
 20
322.06849685
 30
0.0
 40
6.0
  0
ARC
  5
2C1
330
1F
100
AcDbEntity
  8
0
  6
Continuous
 62
     1
100
AcDbCircle
 10
561.255745575
 20
322.06849685
 30
0.0
 40
40.0
100
AcDbArc
 50
122.484737191
 51
180.0
  0
ARC
  5
2C2
330
1F
100
AcDbEntity
  8
0
  6
Continuous
 62
     1
100
AcDbCircle
 10
561.255745575
 20
322.06849685
 30
0.0
 40
40.0
100
AcDbArc
 50
0.0
 51
57.515262809
  0
ARC
  5
2C3
330
1F
100
AcDbEntity
  8
0
  6
Continuous
 62
     1
100
AcDbCircle
 10
561.255745575
 20
322.06849685
 30
0.0
 40
33.5
100
AcDbArc
 50
130.419061771
 51
135.0
  0
ARC
  5
2C4
330
1F
100
AcDbEntity
  8
0
  6
Continuous
 62
     1
100
AcDbCircle
 10
561.255745575
 20
322.06849685
 30
0.0
 40
33.5
100
AcDbArc
 50
45.0
 51
49.580938229
  0
ARC
  5
2C5
330
1F
100
AcDbEntity
  8
0
  6
Continuous
 62
     1
100
AcDbCircle
 10
540.749648921
 20
342.574593504
 30
0.0
 40
4.5
100
AcDbArc
 50
135.0
 51
300.81719292
  0
ARC
  5
2C6
330
1F
100
AcDbEntity
  8
0
  6
Continuous
 62
     1
100
AcDbCircle
 10
581.761842229
 20
342.574593504
 30
0.0
 40
4.5
100
AcDbArc
 50
239.18280708
 51
45.000048568
  0
ARC
  5
2C7
330
1F
100
AcDbEntity
  8
0
  6
Continuous
 62
     1
100
AcDbCircle
 10
572.20325731
 20
388.173447499
 30
0.0
 40
24.688611432
100
AcDbArc
 50
285.437249401
 51
288.183595712
  0
ARC
  5
2C8
330
1F
100
AcDbEntity
  8
0
  6
Continuous
 62
     1
100
AcDbCircle
 10
574.290598224
 20
381.755625621
 30
0.0
 40
17.939915431
100
AcDbArc
 50
288.246391842
 51
291.639983438
  0
ARC
  5
2C9
330
1F
100
AcDbEntity
  8
0
  6
Continuous
 62
     1
100
AcDbCircle
 10
576.31608753
 20
376.597953624
 30
0.0
 40
12.398828037
100
AcDbArc
 50
291.729078466
 51
296.064275749
  0
ARC
  5
2CA
330
1F
100
AcDbEntity
  8
0
  6
Continuous
 62
     1
100
AcDbCircle
 10
578.187776446
 20
372.729374417
 30
0.0
 40
8.101316602
100
AcDbArc
 50
296.194632511
 51
301.943461996
  0
ARC
  5
2CB
330
1F
100
AcDbEntity
  8
0
  6
Continuous
 62
     1
100
AcDbCircle
 10
579.817828211
 20
370.082461365
 30
0.0
 40
4.992822387
100
AcDbArc
 50
302.141078672
 51
310.068921052
  0
ARC
  5
2CC
330
1F
100
AcDbEntity
  8
0
  6
Continuous
 62
     1
100
AcDbCircle
 10
581.127947719
 20
368.50013956
 30
0.0
 40
2.938626014
100
AcDbArc
 50
310.380065896
 51
321.665161961
  0
ARC
  5
2CD
330
1F
100
AcDbEntity
  8
0
  6
Continuous
 62
     1
100
AcDbCircle
 10
582.054082857
 20
367.748359433
 30
0.0
 40
1.745936632
100
AcDbArc
 50
322.165782999
 51
338.178338104
  0
ARC
  5
2CE
330
1F
100
AcDbEntity
  8
0
  6
Continuous
 62
     1
100
AcDbCircle
 10
582.549729091
 20
367.533547549
 30
0.0
 40
1.206051645
100
AcDbArc
 50
338.899444038
 51
359.562494373
  0
ARC
  5
2CF
330
1F
100
AcDbEntity
  8
0
  6
Continuous
 62
     1
100
AcDbCircle
 10
539.923102223
 20
367.526194444
 30
0.0
 40
1.167358123
100
AcDbArc
 50
180.09110097
 51
201.44696058
  0
ARC
  5
2D0
330
1F
100
AcDbEntity
  8
0
  6
Continuous
 62
     1
100
AcDbCircle
 10
540.343719855
 20
367.683175808
 30
0.0
 40
1.616267586
100
AcDbArc
 50
201.174597304
 51
218.481281598
  0
ARC
  5
2D1
330
1F
100
AcDbEntity
  8
0
  6
Continuous
 62
     1
100
AcDbCircle
 10
541.200850848
 20
368.323854682
 30
0.0
 40
2.686096282
100
AcDbArc
 50
217.802387767
 51
230.152384417
  0
ARC
  5
2D2
330
1F
100
AcDbEntity
  8
0
  6
Continuous
 62
     1
100
AcDbCircle
 10
542.451021
 20
369.749777195
 30
0.0
 40
4.582126654
100
AcDbArc
 50
229.575146089
 51
238.214854153
  0
ARC
  5
2D3
330
1F
100
AcDbEntity
  8
0
  6
Continuous
 62
     1
100
AcDbCircle
 10
544.032881684
 20
372.20618569
 30
0.0
 40
7.503539509
100
AcDbArc
 50
237.827328905
 51
244.034576601
  0
ARC
  5
2D4
330
1F
100
AcDbEntity
  8
0
  6
Continuous
 62
     1
100
AcDbCircle
 10
545.870215325
 20
375.864009611
 30
0.0
 40
11.596683666
100
AcDbArc
 50
243.785711943
 51
248.420933832
  0
ARC
  5
2D5
330
1F
100
AcDbEntity
  8
0
  6
Continuous
 62
     1
100
AcDbCircle
 10
547.876416332
 20
380.806256023
 30
0.0
 40
16.930450644
100
AcDbArc
 50
248.258814165
 51
251.854810561
  0
ARC
  5
2D6
330
1F
100
AcDbEntity
  8
0
  6
Continuous
 62
     1
100
AcDbCircle
 10
549.959834487
 20
387.02025136
 30
0.0
 40
23.484299477
100
AcDbArc
 50
251.745971262
 51
254.633183631
  0
ARC
  5
2D7
330
1F
100
AcDbEntity
  8
0
  6
Continuous
 62
     1
100
AcDbCircle
 10
561.255745575
 20
322.06849685
 30
0.0
 40
8.0
100
AcDbArc
 50
114.861577542
 51
65.138422458
  0
CIRCLE
  5
2D8
330
1F
100
AcDbEntity
  8
0
  6
Continuous
 62
     2
100
AcDbCircle
 10
561.255745575
 20
351.068481591
 30
0.0
 40
16.0
  0
MTEXT
  5
2D9
330
1F
100
AcDbEntity
  8
0
  6
Continuous
 62
     2
100
AcDbMText
 10
655.521002101
 20
122.980798081
 30
0.0
 40
12.00120012
 41
165.602160216
 71
     7
 72
     1
  1
\T1.111;\W0.900;ＢＣＨ－１５０
  7
KANJI4
 73
     1
 44
1.0
  0
MTEXT
  5
2DB
330
1F
100
AcDbEntity
  8
0
  6
Continuous
 62
     2
100
AcDbMText
 10
655.521002101
 20
88.477347735
 30
0.0
 40
9.000900091
 41
232.201620188
 71
     7
 72
     1
  1
\T1.111;\W0.900;黒色半艶消し焼付け塗装　他
  7
KANJI0
 73
     1
 44
1.0
  0
MTEXT
  5
2DC
330
1F
100
AcDbEntity
  8
0
  6
Continuous
 62
     2
100
AcDbMText
 10
655.521002101
 20
70.475547554
 30
0.0
 40
9.000900091
 41
178.201620182
 71
     7
 72
     1
  1
\T1.111;\W0.900;自重　　２．０８ｋｇ
  7
KANJI0
 73
     1
 44
1.0
  0
MTEXT
  5
2DD
330
1F
100
AcDbEntity
  8
0
  6
Continuous
 62
     2
100
AcDbMText
 10
655.521002101
 20
52.473747375
 30
0.0
 40
9.000900091
 41
160.20162018
 71
     7
 72
     1
  1
\T1.111;\W0.900;耐荷重　　２０ｋｇ
  7
KANJI0
 73
     1
 44
1.0
  0
MTEXT
  5
2DE
330
1F
100
AcDbEntity
  8
0
  6
Continuous
 62
     2
100
AcDbMText
 10
655.521002101
 20
34.471947195
 30
0.0
 40
9.000900091
 41
286.201620194
 71
     7
 72
     1
  1
\T1.111;\W0.900;尺度　　１／３　　　　用紙　Ａ４
  7
KANJI0
 73
     1
 44
1.0
  0
LINE
  5
2E0
330
1F
100
AcDbEntity
  8
0
  6
LTYPE4
 62
     2
100
AcDbLine
 10
310.005745575
 20
220.26849685
 30
0.0
 11
310.005745575
 21
140.26849685
 31
0.0
  0
LINE
  5
2E1
330
1F
100
AcDbEntity
  8
0
  6
LTYPE4
 62
     2
100
AcDbLine
 10
338.505745575
 20
220.26849685
 30
0.0
 11
338.505745575
 21
140.26849685
 31
0.0
  0
CIRCLE
  5
2E2
330
1F
100
AcDbEntity
  8
0
  6
LTYPE4
 62
     2
100
AcDbCircle
 10
296.255745575
 20
208.26849685
 30
0.0
 40
5.5
  0
CIRCLE
  5
2E3
330
1F
100
AcDbEntity
  8
0
  6
LTYPE4
 62
     2
100
AcDbCircle
 10
296.255745575
 20
152.26849685
 30
0.0
 40
5.5
  0
CIRCLE
  5
2E4
330
1F
100
AcDbEntity
  8
0
  6
LTYPE4
 62
     2
100
AcDbCircle
 10
352.255745575
 20
152.26849685
 30
0.0
 40
5.5
  0
CIRCLE
  5
2E5
330
1F
100
AcDbEntity
  8
0
  6
LTYPE4
 62
     2
100
AcDbCircle
 10
352.255745575
 20
208.26849685
 30
0.0
 40
5.5
  0
LINE
  5
2E6
330
1F
100
AcDbEntity
  8
0
  6
LTYPE4
 62
     2
100
AcDbLine
 10
284.505745575
 20
214.26849685
 30
0.0
 11
284.505745575
 21
146.26849685
 31
0.0
  0
LINE
  5
2E7
330
1F
100
AcDbEntity
  8
0
  6
LTYPE4
 62
     2
100
AcDbLine
 10
364.005745575
 20
146.26849685
 30
0.0
 11
364.005745575
 21
214.26849685
 31
0.0
  0
LINE
  5
2E8
330
1F
100
AcDbEntity
  8
0
  6
LTYPE4
 62
     2
100
AcDbLine
 10
310.005745575
 20
220.26849685
 30
0.0
 11
290.50574939
 21
220.26849685
 31
0.0
  0
ARC
  5
2E9
330
1F
100
AcDbEntity
  8
0
  6
LTYPE4
 62
     2
100
AcDbCircle
 10
290.505745575
 20
214.26849685
 30
0.0
 40
6.0
100
AcDbArc
 50
89.999963572
 51
180.0
  0
ARC
  5
2EA
330
1F
100
AcDbEntity
  8
0
  6
LTYPE4
 62
     2
100
AcDbCircle
 10
290.505745575
 20
146.26849685
 30
0.0
 40
6.0
100
AcDbArc
 50
180.0
 51
270.000051517
  0
LINE
  5
2EB
330
1F
100
AcDbEntity
  8
0
  6
LTYPE4
 62
     2
100
AcDbLine
 10
290.50575097
 20
140.26849685
 30
0.0
 11
310.005745575
 21
140.26849685
 31
0.0
  0
LINE
  5
2EC
330
1F
100
AcDbEntity
  8
0
  6
LTYPE4
 62
     2
100
AcDbLine
 10
338.505745575
 20
140.26849685
 30
0.0
 11
358.00575097
 21
140.26849685
 31
0.0
  0
ARC
  5
2ED
330
1F
100
AcDbEntity
  8
0
  6
LTYPE4
 62
     2
100
AcDbCircle
 10
358.005745575
 20
146.26849685
 30
0.0
 40
6.0
100
AcDbArc
 50
270.000051517
 51
0.0
  0
ARC
  5
2EE
330
1F
100
AcDbEntity
  8
0
  6
LTYPE4
 62
     2
100
AcDbCircle
 10
358.005745575
 20
214.26849685
 30
0.0
 40
6.0
100
AcDbArc
 50
0.0
 51
89.999948483
  0
LINE
  5
2EF
330
1F
100
AcDbEntity
  8
0
  6
LTYPE4
 62
     2
100
AcDbLine
 10
358.00575097
 20
220.26849685
 30
0.0
 11
338.505745575
 21
220.26849685
 31
0.0
  0
ENDSEC
  0
SECTION
  2
OBJECTS
  0
DICTIONARY
  5
C
330
0
100
AcDbDictionary
280
     0
281
     1
  3
ACAD_GROUP
350
D
  3
ACAD_LAYOUT
350
1A
  3
ACAD_MLINESTYLE
350
17
  3
ACAD_PLOTSETTINGS
350
19
  3
ACAD_PLOTSTYLENAME
350
E
  0
DICTIONARY
  5
D
102
{ACAD_REACTORS
330
C
102
}
330
C
100
AcDbDictionary
280
     0
281
     1
  0
DICTIONARY
  5
1A
102
{ACAD_REACTORS
330
C
102
}
330
C
100
AcDbDictionary
280
     0
281
     1
  3
Model
350
22
  3
ﾚｲｱｳﾄ1
350
1E
  3
ﾚｲｱｳﾄ2
350
26
  0
LAYOUT
  5
22
102
{ACAD_REACTORS
330
1A
102
}
330
1A
100
AcDbPlotSettings
  1

  2

  4

  6

 40
0.0
 41
0.0
 42
0.0
 43
0.0
 44
0.0
 45
0.0
 46
0.0
 47
0.0
 48
0.0
 49
0.0
140
0.0
141
0.0
142
1.0
143
1.0
 70
  1712
 72
     0
 73
     0
 74
     0
  7

 75
     0
147
1.0
148
0.0
149
0.0
100
AcDbLayout
  1
Model
 70
     1
 71
     0
 10
0.0
 20
0.0
 11
0.0
 21
0.0
 12
0.0
 22
0.0
 32
0.0
 14
0.0
 24
0.0
 34
0.0
 15
0.0
 25
0.0
 35
0.0
146
0.0
 13
0.0
 23
0.0
 33
0.0
 16
1.0
 26
0.0
 36
0.0
 17
0.0
 27
1.0
 37
0.0
 76
     0
330
1F
331
0
345
0
346
0
  0
LAYOUT
  5
1E
102
{ACAD_REACTORS
330
1A
102
}
330
1A
100
AcDbPlotSettings
  1

  2

  4

  6

 40
0.0
 41
0.0
 42
0.0
 43
0.0
 44
0.0
 45
0.0
 46
0.0
 47
0.0
 48
0.0
 49
0.0
140
0.0
141
0.0
142
1.0
143
1.0
 70
   688
 72
     0
 73
     0
 74
     5
  7

 75
    16
147
1.0
148
0.0
149
0.0
100
AcDbLayout
  1
ﾚｲｱｳﾄ1
 70
     1
 71
     1
 10
0.0
 20
0.0
 11
0.0
 21
0.0
 12
0.0
 22
0.0
 32
0.0
 14
0.0
 24
0.0
 34
0.0
 15
0.0
 25
0.0
 35
0.0
146
0.0
 13
0.0
 23
0.0
 33
0.0
 16
1.0
 26
0.0
 36
0.0
 17
0.0
 27
1.0
 37
0.0
 76
     0
330
1B
331
0
345
0
346
0
  0
LAYOUT
  5
26
102
{ACAD_REACTORS
330
1A
102
}
330
1A
100
AcDbPlotSettings
  1

  2

  4

  6

 40
0.0
 41
0.0
 42
0.0
 43
0.0
 44
0.0
 45
0.0
 46
0.0
 47
0.0
 48
0.0
 49
0.0
140
0.0
141
0.0
142
1.0
143
1.0
 70
   688
 72
     0
 73
     0
 74
     5
  7

 75
    16
147
1.0
148
0.0
149
0.0
100
AcDbLayout
  1
ﾚｲｱｳﾄ2
 70
     1
 71
     2
 10
0.0
 20
0.0
 11
0.0
 21
0.0
 12
0.0
 22
0.0
 32
0.0
 14
0.0
 24
0.0
 34
0.0
 15
0.0
 25
0.0
 35
0.0
146
0.0
 13
0.0
 23
0.0
 33
0.0
 16
1.0
 26
0.0
 36
0.0
 17
0.0
 27
1.0
 37
0.0
 76
     0
330
23
331
0
345
0
346
0
  0
DICTIONARY
  5
17
102
{ACAD_REACTORS
330
C
102
}
330
C
100
AcDbDictionary
280
     0
281
     1
  3
Standard
350
18
  0
MLINESTYLE
  5
18
102
{ACAD_REACTORS
330
17
102
}
330
17
100
AcDbMlineStyle
  2
STANDARD
 70
     0
  3

 62
   256
 51
90.0
 52
90.0
 71
     2
 49
0.5
 62
   256
  6
ByLayer
 49
-0.5
 62
   256
  6
ByLayer
  0
DICTIONARY
  5
19
102
{ACAD_REACTORS
330
C
102
}
330
C
100
AcDbDictionary
280
     0
281
     1
  0
ACDBDICTIONARYWDFLT
  5
E
330
C
100
AcDbDictionary
281
     0
  3
Normal
350
F
100
AcDbDictionaryWithDefault
340
F
  0
ACDBPLACEHOLDER
  5
F
102
{ACAD_REACTORS
330
E
102
}
330
E
  0
ENDSEC
  0
EOF
