  0
SECTION
  2
HEADER
  9
$ACADVER
  1
AC1015
  9
$ACADMAINTVER
 70
     6
  9
$DWGCODEPAGE
  3
ANSI_932
  9
$INSBASE
 10
0.0
 20
0.0
 30
0.0
  9
$EXTMIN
 10
0.0
 20
0.0
 30
0.0
  9
$EXTMAX
 10
594.0
 20
420.0
 30
0.0
  9
$LIMMIN
 10
0.0
 20
0.0
  9
$LIMMAX
 10
594.0
 20
420.0
  9
$ORTHOMODE
 70
     0
  9
$REGENMODE
 70
     1
  9
$FILLMODE
 70
     1
  9
$QTEXTMODE
 70
     0
  9
$MIRRTEXT
 70
     1
  9
$LTSCALE
 40
2.0
  9
$ATTMODE
 70
     1
  9
$TEXTSIZE
 40
2.5
  9
$TRACEWID
 40
1.0
  9
$TEXTSTYLE
  7
Standard
  9
$CLAYER
  8
0
  9
$CELTYPE
  6
ByLayer
  9
$CECOLOR
 62
   256
  9
$CELTSCALE
 40
1.0
  9
$DISPSILH
 70
     0
  9
$DIMSCALE
 40
1.0
  9
$DIMASZ
 40
2.5
  9
$DIMEXO
 40
0.625
  9
$DIMDLI
 40
3.75
  9
$DIMRND
 40
0.0
  9
$DIMDLE
 40
0.0
  9
$DIMEXE
 40
1.25
  9
$DIMTP
 40
0.0
  9
$DIMTM
 40
0.0
  9
$DIMTXT
 40
2.5
  9
$DIMCEN
 40
2.5
  9
$DIMTSZ
 40
0.0
  9
$DIMTOL
 70
     0
  9
$DIMLIM
 70
     0
  9
$DIMTIH
 70
     0
  9
$DIMTOH
 70
     0
  9
$DIMSE1
 70
     0
  9
$DIMSE2
 70
     0
  9
$DIMTAD
 70
     1
  9
$DIMZIN
 70
     8
  9
$DIMBLK
  1

  9
$DIMASO
 70
     1
  9
$DIMSHO
 70
     1
  9
$DIMPOST
  1

  9
$DIMAPOST
  1

  9
$DIMALT
 70
     0
  9
$DIMALTD
 70
     3
  9
$DIMALTF
 40
0.03937007874016
  9
$DIMLFAC
 40
1.0
  9
$DIMTOFL
 70
     1
  9
$DIMTVP
 40
0.0
  9
$DIMTIX
 70
     0
  9
$DIMSOXD
 70
     0
  9
$DIMSAH
 70
     0
  9
$DIMBLK1
  1

  9
$DIMBLK2
  1

  9
$DIMSTYLE
  2
ISO-25
  9
$DIMCLRD
 70
     0
  9
$DIMCLRE
 70
     0
  9
$DIMCLRT
 70
     0
  9
$DIMTFAC
 40
1.0
  9
$DIMGAP
 40
0.625
  9
$DIMJUST
 70
     0
  9
$DIMSD1
 70
     0
  9
$DIMSD2
 70
     0
  9
$DIMTOLJ
 70
     0
  9
$DIMTZIN
 70
     8
  9
$DIMALTZ
 70
     0
  9
$DIMALTTZ
 70
     0
  9
$DIMUPT
 70
     0
  9
$DIMDEC
 70
     2
  9
$DIMTDEC
 70
     2
  9
$DIMALTU
 70
     2
  9
$DIMALTTD
 70
     3
  9
$DIMTXSTY
  7
Standard
  9
$DIMAUNIT
 70
     0
  9
$DIMADEC
 70
     0
  9
$DIMALTRND
 40
0.0
  9
$DIMAZIN
 70
     0
  9
$DIMDSEP
 70
    46
  9
$DIMATFIT
 70
     3
  9
$DIMFRAC
 70
     0
  9
$DIMLDRBLK
  1

  9
$DIMLUNIT
 70
     2
  9
$DIMLWD
 70
    -2
  9
$DIMLWE
 70
    -2
  9
$DIMTMOVE
 70
     0
  9
$LUNITS
 70
     2
  9
$LUPREC
 70
     4
  9
$SKETCHINC
 40
1.0
  9
$FILLETRAD
 40
10.0
  9
$AUNITS
 70
     0
  9
$AUPREC
 70
     0
  9
$MENU
  1
.
  9
$ELEVATION
 40
0.0
  9
$PELEVATION
 40
0.0
  9
$THICKNESS
 40
0.0
  9
$LIMCHECK
 70
     0
  9
$CHAMFERA
 40
10.0
  9
$CHAMFERB
 40
10.0
  9
$CHAMFERC
 40
20.0
  9
$CHAMFERD
 40
0.0
  9
$SKPOLY
 70
     0
  9
$TDCREATE
 40
2459258.000000
  9
$TDUCREATE
 40
0.000000000
  9
$TDUPDATE
 40
2459258.000000
  9
$TDUUPDATE
 40
2459258.000000
  9
$TDINDWG
 40
0.0
  9
$TDUSRTIMER
 40
0.0
  9
$USRTIMER
 70
     1
  9
$ANGBASE
 50
0.0
  9
$ANGDIR
 70
     0
  9
$PDMODE
 70
     0
  9
$PDSIZE
 40
0.0
  9
$PLINEWID
 40
0.0
  9
$SPLFRAME
 70
     0
  9
$SPLINETYPE
 70
     6
  9
$SPLINESEGS
 70
     8
  9
$HANDSEED
  5
048E
  9
$SURFTAB1
 70
     6
  9
$SURFTAB2
 70
     6
  9
$SURFTYPE
 70
     6
  9
$SURFU
 70
     6
  9
$SURFV
 70
     6
  9
$UCSBASE
  2

  9
$UCSNAME
  2

  9
$UCSORG
 10
0.0
 20
0.0
 30
0.0
  9
$UCSXDIR
 10
1.0
 20
0.0
 30
0.0
  9
$UCSYDIR
 10
0.0
 20
1.0
 30
0.0
  9
$UCSORTHOREF
  2

  9
$UCSORTHOVIEW
 70
     0
  9
$UCSORGTOP
 10
0.0
 20
0.0
 30
0.0
  9
$UCSORGBOTTOM
 10
0.0
 20
0.0
 30
0.0
  9
$UCSORGLEFT
 10
0.0
 20
0.0
 30
0.0
  9
$UCSORGRIGHT
 10
0.0
 20
0.0
 30
0.0
  9
$UCSORGFRONT
 10
0.0
 20
0.0
 30
0.0
  9
$UCSORGBACK
 10
0.0
 20
0.0
 30
0.0
  9
$PUCSBASE
  2

  9
$PUCSNAME
  2

  9
$PUCSORG
 10
0.0
 20
0.0
 30
0.0
  9
$PUCSXDIR
 10
1.0
 20
0.0
 30
0.0
  9
$PUCSYDIR
 10
0.0
 20
1.0
 30
0.0
  9
$PUCSORTHOREF
  2

  9
$PUCSORTHOVIEW
 70
     0
  9
$PUCSORGTOP
 10
0.0
 20
0.0
 30
0.0
  9
$PUCSORGBOTTOM
 10
0.0
 20
0.0
 30
0.0
  9
$PUCSORGLEFT
 10
0.0
 20
0.0
 30
0.0
  9
$PUCSORGRIGHT
 10
0.0
 20
0.0
 30
0.0
  9
$PUCSORGFRONT
 10
0.0
 20
0.0
 30
0.0
  9
$PUCSORGBACK
 10
0.0
 20
0.0
 30
0.0
  9
$USERI1
 70
     0
  9
$USERI2
 70
     0
  9
$USERI3
 70
     0
  9
$USERI4
 70
     0
  9
$USERI5
 70
     0
  9
$USERR1
 40
0.0
  9
$USERR2
 40
0.0
  9
$USERR3
 40
0.0
  9
$USERR4
 40
0.0
  9
$USERR5
 40
0.0
  9
$WORLDVIEW
 70
     1
  9
$SHADEDGE
 70
     3
  9
$SHADEDIF
 70
    70
  9
$TILEMODE
 70
     1
  9
$MAXACTVP
 70
    64
  9
$PINSBASE
 10
0.0
 20
0.0
 30
0.0
  9
$PLIMCHECK
 70
     0
  9
$PEXTMIN
 10
1.000000E+20
 20
1.000000E+20
 30
1.000000E+20
  9
$PEXTMAX
 10
-1.000000E+20
 20
-1.000000E+20
 30
-1.000000E+20
  9
$PLIMMIN
 10
0.0
 20
0.0
  9
$PLIMMAX
 10
0.0
 20
0.0
  9
$UNITMODE
 70
     0
  9
$VISRETAIN
 70
     0
  9
$PLINEGEN
 70
     0
  9
$PSLTSCALE
 70
     1
  9
$TREEDEPTH
 70
  3020
  9
$CMLSTYLE
  2
STANDARD
  9
$CMLJUST
 70
     0
  9
$CMLSCALE
 40
20.0
  9
$PROXYGRAPHICS
 70
     1
  9
$MEASUREMENT
 70
     1
  9
$CELWEIGHT
370
    -1
  9
$ENDCAPS
280
     0
  9
$JOINSTYLE
280
     0
  9
$LWDISPLAY
290
     0
  9
$INSUNITS
 70
     4
  9
$HYPERLINKBASE
  1

  9
$STYLESHEET
  1

  9
$XEDIT
290
     1
  9
$CEPSNTYPE
380
     0
  9
$PSTYLEMODE
290
     1
  9
$FINGERPRINTGUID
  2
{C7FC832E-5E6B-DB75-D74F-7DE4CAF3583E}
  9
$VERSIONGUID
  2
{C7FC832E-5E6B-DB75-D74F-7DE4CAF3583E}
  9
$EXTNAMES
290
     1
  9
$PSVPSCALE
 40
0.0
  0
ENDSEC
  0
SECTION
  2
CLASSES
  0
ENDSEC
  0
SECTION
  2
TABLES
  0
TABLE
  2
VPORT
  5
8
330
0
100
AcDbSymbolTable
 70
     3
  0
VPORT
  5
29
330
8
100
AcDbSymbolTableRecord
100
AcDbViewportTableRecord
  2
*Active
 70
     0
 10
0.0
 20
0.0
 11
1.0
 21
1.0
 12
297.0
 22
210.0
 13
0.0
 23
0.0
 14
10.0
 24
10.0
 15
0.0
 25
0.0
 16
0.0
 26
0.0
 36
1.0
 17
0.0
 27
0.0
 37
0.0
 40
420.0
 41
1.414285714
 42
50.0
 43
0.0
 44
0.0
 50
0.0
 51
0.0
 71
     0
 72
  1000
 73
     1
 74
     3
 75
     0
 76
     0
 77
     0
 78
     0
281
     0
 65
     0
110
0.0
120
0.0
130
0.0
111
1.0
121
0.0
131
0.0
112
0.0
122
1.0
132
0.0
 79
     0
146
0.0
  0
ENDTAB
  0
TABLE
  2
LTYPE
  5
5
330
0
100
AcDbSymbolTable
 70
     8
  0
LTYPE
  5
14
330
5
100
AcDbSymbolTableRecord
100
AcDbLinetypeTableRecord
  2
ByBlock
 70
     0
  3

 72
    65
 73
     0
 40
0.0
  0
LTYPE
  5
15
330
5
100
AcDbSymbolTableRecord
100
AcDbLinetypeTableRecord
  2
ByLayer
 70
     0
  3

 72
    65
 73
     0
 40
0.0
  0
LTYPE
  5
16
330
5
100
AcDbSymbolTableRecord
100
AcDbLinetypeTableRecord
  2
Continuous
 70
     0
  3
Solid line
 72
    65
 73
     0
 40
0.0
  0
LTYPE
  5
A9
330
5
100
AcDbSymbolTableRecord
100
AcDbLinetypeTableRecord
  2
LTYPE1
 70
     0
  3
HIDDEN
 72
    65
 73
     2
 40
3.0
 49
1.8
 74
     0
 49
-1.2
 74
     0
  0
LTYPE
  5
B7
330
5
100
AcDbSymbolTableRecord
100
AcDbLinetypeTableRecord
  2
LTYPE2
 70
     0
  3
HIDDEN
 72
    65
 73
     2
 40
2.5
 49
1.5
 74
     0
 49
-1.0
 74
     0
  0
LTYPE
  5
C5
330
5
100
AcDbSymbolTableRecord
100
AcDbLinetypeTableRecord
  2
LTYPE3
 70
     0
  3
HIDDEN
 72
    65
 73
     2
 40
2.0
 49
1.2
 74
     0
 49
-0.8
 74
     0
  0
LTYPE
  5
E2
330
5
100
AcDbSymbolTableRecord
100
AcDbLinetypeTableRecord
  2
LTYPE4
 70
     0
  3
CENTER
 72
    65
 73
     4
 40
12.0
 49
8.4
 74
     0
 49
-1.2
 74
     0
 49
1.2
 74
     0
 49
-1.2
 74
     0
  0
LTYPE
  5
1CF
330
5
100
AcDbSymbolTableRecord
100
AcDbLinetypeTableRecord
  2
LTYPE5
 70
     0
  3
PHANTOM
 72
    65
 73
     6
 40
15.0
 49
11.25
 74
     0
 49
-0.75
 74
     0
 49
0.75
 74
     0
 49
-0.75
 74
     0
 49
0.75
 74
     0
 49
-0.75
 74
     0
  0
ENDTAB
  0
TABLE
  2
LAYER
  5
2
330
0
100
AcDbSymbolTable
 70
   128
  0
LAYER
  5
10
330
2
100
AcDbSymbolTableRecord
100
AcDbLayerTableRecord
  2
0
 70
     0
 62
     7
  6
Continuous
290
     1
370
    -3
390
F
  0
LAYER
  5
2A
330
2
100
AcDbSymbolTableRecord
100
AcDbLayerTableRecord
  2
1
 70
     0
 62
     7
  6
Continuous
290
     1
370
    -3
390
F
  0
LAYER
  5
2B
330
2
100
AcDbSymbolTableRecord
100
AcDbLayerTableRecord
  2
2
 70
     0
 62
     7
  6
Continuous
290
     1
370
    -3
390
F
  0
LAYER
  5
2C
330
2
100
AcDbSymbolTableRecord
100
AcDbLayerTableRecord
  2
3
 70
     0
 62
     7
  6
Continuous
290
     1
370
    -3
390
F
  0
LAYER
  5
2D
330
2
100
AcDbSymbolTableRecord
100
AcDbLayerTableRecord
  2
4
 70
     0
 62
     7
  6
Continuous
290
     1
370
    -3
390
F
  0
LAYER
  5
2E
330
2
100
AcDbSymbolTableRecord
100
AcDbLayerTableRecord
  2
5
 70
     0
 62
     7
  6
Continuous
290
     1
370
    -3
390
F
  0
LAYER
  5
2F
330
2
100
AcDbSymbolTableRecord
100
AcDbLayerTableRecord
  2
6
 70
     0
 62
     7
  6
Continuous
290
     1
370
    -3
390
F
  0
LAYER
  5
30
330
2
100
AcDbSymbolTableRecord
100
AcDbLayerTableRecord
  2
7
 70
     0
 62
     7
  6
Continuous
290
     1
370
    -3
390
F
  0
LAYER
  5
31
330
2
100
AcDbSymbolTableRecord
100
AcDbLayerTableRecord
  2
8
 70
     0
 62
     7
  6
Continuous
290
     1
370
    -3
390
F
  0
LAYER
  5
32
330
2
100
AcDbSymbolTableRecord
100
AcDbLayerTableRecord
  2
9
 70
     0
 62
     7
  6
Continuous
290
     1
370
    -3
390
F
  0
LAYER
  5
33
330
2
100
AcDbSymbolTableRecord
100
AcDbLayerTableRecord
  2
10
 70
     0
 62
     7
  6
Continuous
290
     1
370
    -3
390
F
  0
LAYER
  5
34
330
2
100
AcDbSymbolTableRecord
100
AcDbLayerTableRecord
  2
11
 70
     0
 62
     7
  6
Continuous
290
     1
370
    -3
390
F
  0
LAYER
  5
35
330
2
100
AcDbSymbolTableRecord
100
AcDbLayerTableRecord
  2
12
 70
     0
 62
     7
  6
Continuous
290
     1
370
    -3
390
F
  0
LAYER
  5
36
330
2
100
AcDbSymbolTableRecord
100
AcDbLayerTableRecord
  2
13
 70
     0
 62
     7
  6
Continuous
290
     1
370
    -3
390
F
  0
LAYER
  5
37
330
2
100
AcDbSymbolTableRecord
100
AcDbLayerTableRecord
  2
14
 70
     0
 62
     7
  6
Continuous
290
     1
370
    -3
390
F
  0
LAYER
  5
38
330
2
100
AcDbSymbolTableRecord
100
AcDbLayerTableRecord
  2
15
 70
     0
 62
     7
  6
Continuous
290
     1
370
    -3
390
F
  0
LAYER
  5
39
330
2
100
AcDbSymbolTableRecord
100
AcDbLayerTableRecord
  2
16
 70
     0
 62
     7
  6
Continuous
290
     1
370
    -3
390
F
  0
LAYER
  5
3A
330
2
100
AcDbSymbolTableRecord
100
AcDbLayerTableRecord
  2
17
 70
     0
 62
     7
  6
Continuous
290
     1
370
    -3
390
F
  0
LAYER
  5
3B
330
2
100
AcDbSymbolTableRecord
100
AcDbLayerTableRecord
  2
18
 70
     0
 62
     7
  6
Continuous
290
     1
370
    -3
390
F
  0
LAYER
  5
3C
330
2
100
AcDbSymbolTableRecord
100
AcDbLayerTableRecord
  2
19
 70
     0
 62
     7
  6
Continuous
290
     1
370
    -3
390
F
  0
LAYER
  5
3D
330
2
100
AcDbSymbolTableRecord
100
AcDbLayerTableRecord
  2
20
 70
     0
 62
     7
  6
Continuous
290
     1
370
    -3
390
F
  0
LAYER
  5
3E
330
2
100
AcDbSymbolTableRecord
100
AcDbLayerTableRecord
  2
21
 70
     0
 62
     7
  6
Continuous
290
     1
370
    -3
390
F
  0
LAYER
  5
3F
330
2
100
AcDbSymbolTableRecord
100
AcDbLayerTableRecord
  2
22
 70
     0
 62
     7
  6
Continuous
290
     1
370
    -3
390
F
  0
LAYER
  5
40
330
2
100
AcDbSymbolTableRecord
100
AcDbLayerTableRecord
  2
23
 70
     0
 62
     7
  6
Continuous
290
     1
370
    -3
390
F
  0
LAYER
  5
41
330
2
100
AcDbSymbolTableRecord
100
AcDbLayerTableRecord
  2
24
 70
     0
 62
     7
  6
Continuous
290
     1
370
    -3
390
F
  0
LAYER
  5
42
330
2
100
AcDbSymbolTableRecord
100
AcDbLayerTableRecord
  2
25
 70
     0
 62
     7
  6
Continuous
290
     1
370
    -3
390
F
  0
LAYER
  5
43
330
2
100
AcDbSymbolTableRecord
100
AcDbLayerTableRecord
  2
26
 70
     0
 62
     7
  6
Continuous
290
     1
370
    -3
390
F
  0
LAYER
  5
44
330
2
100
AcDbSymbolTableRecord
100
AcDbLayerTableRecord
  2
27
 70
     0
 62
     7
  6
Continuous
290
     1
370
    -3
390
F
  0
LAYER
  5
45
330
2
100
AcDbSymbolTableRecord
100
AcDbLayerTableRecord
  2
28
 70
     0
 62
     7
  6
Continuous
290
     1
370
    -3
390
F
  0
LAYER
  5
46
330
2
100
AcDbSymbolTableRecord
100
AcDbLayerTableRecord
  2
29
 70
     0
 62
     7
  6
Continuous
290
     1
370
    -3
390
F
  0
LAYER
  5
47
330
2
100
AcDbSymbolTableRecord
100
AcDbLayerTableRecord
  2
30
 70
     0
 62
     7
  6
Continuous
290
     1
370
    -3
390
F
  0
LAYER
  5
48
330
2
100
AcDbSymbolTableRecord
100
AcDbLayerTableRecord
  2
31
 70
     0
 62
     7
  6
Continuous
290
     1
370
    -3
390
F
  0
LAYER
  5
49
330
2
100
AcDbSymbolTableRecord
100
AcDbLayerTableRecord
  2
32
 70
     0
 62
     7
  6
Continuous
290
     1
370
    -3
390
F
  0
LAYER
  5
4A
330
2
100
AcDbSymbolTableRecord
100
AcDbLayerTableRecord
  2
33
 70
     0
 62
     7
  6
Continuous
290
     1
370
    -3
390
F
  0
LAYER
  5
4B
330
2
100
AcDbSymbolTableRecord
100
AcDbLayerTableRecord
  2
34
 70
     0
 62
     7
  6
Continuous
290
     1
370
    -3
390
F
  0
LAYER
  5
4C
330
2
100
AcDbSymbolTableRecord
100
AcDbLayerTableRecord
  2
35
 70
     0
 62
     7
  6
Continuous
290
     1
370
    -3
390
F
  0
LAYER
  5
4D
330
2
100
AcDbSymbolTableRecord
100
AcDbLayerTableRecord
  2
36
 70
     0
 62
     7
  6
Continuous
290
     1
370
    -3
390
F
  0
LAYER
  5
4E
330
2
100
AcDbSymbolTableRecord
100
AcDbLayerTableRecord
  2
37
 70
     0
 62
     7
  6
Continuous
290
     1
370
    -3
390
F
  0
LAYER
  5
4F
330
2
100
AcDbSymbolTableRecord
100
AcDbLayerTableRecord
  2
38
 70
     0
 62
     7
  6
Continuous
290
     1
370
    -3
390
F
  0
LAYER
  5
50
330
2
100
AcDbSymbolTableRecord
100
AcDbLayerTableRecord
  2
39
 70
     0
 62
     7
  6
Continuous
290
     1
370
    -3
390
F
  0
LAYER
  5
51
330
2
100
AcDbSymbolTableRecord
100
AcDbLayerTableRecord
  2
40
 70
     0
 62
     7
  6
Continuous
290
     1
370
    -3
390
F
  0
LAYER
  5
52
330
2
100
AcDbSymbolTableRecord
100
AcDbLayerTableRecord
  2
41
 70
     0
 62
     7
  6
Continuous
290
     1
370
    -3
390
F
  0
LAYER
  5
53
330
2
100
AcDbSymbolTableRecord
100
AcDbLayerTableRecord
  2
42
 70
     0
 62
     7
  6
Continuous
290
     1
370
    -3
390
F
  0
LAYER
  5
54
330
2
100
AcDbSymbolTableRecord
100
AcDbLayerTableRecord
  2
43
 70
     0
 62
     7
  6
Continuous
290
     1
370
    -3
390
F
  0
LAYER
  5
55
330
2
100
AcDbSymbolTableRecord
100
AcDbLayerTableRecord
  2
44
 70
     0
 62
     7
  6
Continuous
290
     1
370
    -3
390
F
  0
LAYER
  5
56
330
2
100
AcDbSymbolTableRecord
100
AcDbLayerTableRecord
  2
45
 70
     0
 62
     7
  6
Continuous
290
     1
370
    -3
390
F
  0
LAYER
  5
57
330
2
100
AcDbSymbolTableRecord
100
AcDbLayerTableRecord
  2
46
 70
     0
 62
     7
  6
Continuous
290
     1
370
    -3
390
F
  0
LAYER
  5
58
330
2
100
AcDbSymbolTableRecord
100
AcDbLayerTableRecord
  2
47
 70
     0
 62
     7
  6
Continuous
290
     1
370
    -3
390
F
  0
LAYER
  5
59
330
2
100
AcDbSymbolTableRecord
100
AcDbLayerTableRecord
  2
48
 70
     0
 62
     7
  6
Continuous
290
     1
370
    -3
390
F
  0
LAYER
  5
5A
330
2
100
AcDbSymbolTableRecord
100
AcDbLayerTableRecord
  2
49
 70
     0
 62
     7
  6
Continuous
290
     1
370
    -3
390
F
  0
LAYER
  5
5B
330
2
100
AcDbSymbolTableRecord
100
AcDbLayerTableRecord
  2
50
 70
     0
 62
     7
  6
Continuous
290
     1
370
    -3
390
F
  0
LAYER
  5
5C
330
2
100
AcDbSymbolTableRecord
100
AcDbLayerTableRecord
  2
51
 70
     0
 62
     7
  6
Continuous
290
     1
370
    -3
390
F
  0
LAYER
  5
5D
330
2
100
AcDbSymbolTableRecord
100
AcDbLayerTableRecord
  2
52
 70
     0
 62
     7
  6
Continuous
290
     1
370
    -3
390
F
  0
LAYER
  5
5E
330
2
100
AcDbSymbolTableRecord
100
AcDbLayerTableRecord
  2
53
 70
     0
 62
     7
  6
Continuous
290
     1
370
    -3
390
F
  0
LAYER
  5
5F
330
2
100
AcDbSymbolTableRecord
100
AcDbLayerTableRecord
  2
54
 70
     0
 62
     7
  6
Continuous
290
     1
370
    -3
390
F
  0
LAYER
  5
60
330
2
100
AcDbSymbolTableRecord
100
AcDbLayerTableRecord
  2
55
 70
     0
 62
     7
  6
Continuous
290
     1
370
    -3
390
F
  0
LAYER
  5
61
330
2
100
AcDbSymbolTableRecord
100
AcDbLayerTableRecord
  2
56
 70
     0
 62
     7
  6
Continuous
290
     1
370
    -3
390
F
  0
LAYER
  5
62
330
2
100
AcDbSymbolTableRecord
100
AcDbLayerTableRecord
  2
57
 70
     0
 62
     7
  6
Continuous
290
     1
370
    -3
390
F
  0
LAYER
  5
63
330
2
100
AcDbSymbolTableRecord
100
AcDbLayerTableRecord
  2
58
 70
     0
 62
     7
  6
Continuous
290
     1
370
    -3
390
F
  0
LAYER
  5
64
330
2
100
AcDbSymbolTableRecord
100
AcDbLayerTableRecord
  2
59
 70
     0
 62
     7
  6
Continuous
290
     1
370
    -3
390
F
  0
LAYER
  5
65
330
2
100
AcDbSymbolTableRecord
100
AcDbLayerTableRecord
  2
60
 70
     0
 62
     7
  6
Continuous
290
     1
370
    -3
390
F
  0
LAYER
  5
66
330
2
100
AcDbSymbolTableRecord
100
AcDbLayerTableRecord
  2
61
 70
     0
 62
     7
  6
Continuous
290
     1
370
    -3
390
F
  0
LAYER
  5
67
330
2
100
AcDbSymbolTableRecord
100
AcDbLayerTableRecord
  2
62
 70
     0
 62
     7
  6
Continuous
290
     1
370
    -3
390
F
  0
LAYER
  5
68
330
2
100
AcDbSymbolTableRecord
100
AcDbLayerTableRecord
  2
63
 70
     0
 62
     7
  6
Continuous
290
     1
370
    -3
390
F
  0
LAYER
  5
69
330
2
100
AcDbSymbolTableRecord
100
AcDbLayerTableRecord
  2
64
 70
     0
 62
     7
  6
Continuous
290
     1
370
    -3
390
F
  0
LAYER
  5
6A
330
2
100
AcDbSymbolTableRecord
100
AcDbLayerTableRecord
  2
65
 70
     0
 62
     7
  6
Continuous
290
     1
370
    -3
390
F
  0
LAYER
  5
6B
330
2
100
AcDbSymbolTableRecord
100
AcDbLayerTableRecord
  2
66
 70
     0
 62
     7
  6
Continuous
290
     1
370
    -3
390
F
  0
LAYER
  5
6C
330
2
100
AcDbSymbolTableRecord
100
AcDbLayerTableRecord
  2
67
 70
     0
 62
     7
  6
Continuous
290
     1
370
    -3
390
F
  0
LAYER
  5
6D
330
2
100
AcDbSymbolTableRecord
100
AcDbLayerTableRecord
  2
68
 70
     0
 62
     7
  6
Continuous
290
     1
370
    -3
390
F
  0
LAYER
  5
6E
330
2
100
AcDbSymbolTableRecord
100
AcDbLayerTableRecord
  2
69
 70
     0
 62
     7
  6
Continuous
290
     1
370
    -3
390
F
  0
LAYER
  5
6F
330
2
100
AcDbSymbolTableRecord
100
AcDbLayerTableRecord
  2
70
 70
     0
 62
     7
  6
Continuous
290
     1
370
    -3
390
F
  0
LAYER
  5
70
330
2
100
AcDbSymbolTableRecord
100
AcDbLayerTableRecord
  2
71
 70
     0
 62
     7
  6
Continuous
290
     1
370
    -3
390
F
  0
LAYER
  5
71
330
2
100
AcDbSymbolTableRecord
100
AcDbLayerTableRecord
  2
72
 70
     0
 62
     7
  6
Continuous
290
     1
370
    -3
390
F
  0
LAYER
  5
72
330
2
100
AcDbSymbolTableRecord
100
AcDbLayerTableRecord
  2
73
 70
     0
 62
     7
  6
Continuous
290
     1
370
    -3
390
F
  0
LAYER
  5
73
330
2
100
AcDbSymbolTableRecord
100
AcDbLayerTableRecord
  2
74
 70
     0
 62
     7
  6
Continuous
290
     1
370
    -3
390
F
  0
LAYER
  5
74
330
2
100
AcDbSymbolTableRecord
100
AcDbLayerTableRecord
  2
75
 70
     0
 62
     7
  6
Continuous
290
     1
370
    -3
390
F
  0
LAYER
  5
75
330
2
100
AcDbSymbolTableRecord
100
AcDbLayerTableRecord
  2
76
 70
     0
 62
     7
  6
Continuous
290
     1
370
    -3
390
F
  0
LAYER
  5
76
330
2
100
AcDbSymbolTableRecord
100
AcDbLayerTableRecord
  2
77
 70
     0
 62
     7
  6
Continuous
290
     1
370
    -3
390
F
  0
LAYER
  5
77
330
2
100
AcDbSymbolTableRecord
100
AcDbLayerTableRecord
  2
78
 70
     0
 62
     7
  6
Continuous
290
     1
370
    -3
390
F
  0
LAYER
  5
78
330
2
100
AcDbSymbolTableRecord
100
AcDbLayerTableRecord
  2
79
 70
     0
 62
     7
  6
Continuous
290
     1
370
    -3
390
F
  0
LAYER
  5
79
330
2
100
AcDbSymbolTableRecord
100
AcDbLayerTableRecord
  2
80
 70
     0
 62
     7
  6
Continuous
290
     1
370
    -3
390
F
  0
LAYER
  5
7A
330
2
100
AcDbSymbolTableRecord
100
AcDbLayerTableRecord
  2
81
 70
     0
 62
     7
  6
Continuous
290
     1
370
    -3
390
F
  0
LAYER
  5
7B
330
2
100
AcDbSymbolTableRecord
100
AcDbLayerTableRecord
  2
82
 70
     0
 62
     7
  6
Continuous
290
     1
370
    -3
390
F
  0
LAYER
  5
7C
330
2
100
AcDbSymbolTableRecord
100
AcDbLayerTableRecord
  2
83
 70
     0
 62
     7
  6
Continuous
290
     1
370
    -3
390
F
  0
LAYER
  5
7D
330
2
100
AcDbSymbolTableRecord
100
AcDbLayerTableRecord
  2
84
 70
     0
 62
     7
  6
Continuous
290
     1
370
    -3
390
F
  0
LAYER
  5
7E
330
2
100
AcDbSymbolTableRecord
100
AcDbLayerTableRecord
  2
85
 70
     0
 62
     7
  6
Continuous
290
     1
370
    -3
390
F
  0
LAYER
  5
7F
330
2
100
AcDbSymbolTableRecord
100
AcDbLayerTableRecord
  2
86
 70
     0
 62
     7
  6
Continuous
290
     1
370
    -3
390
F
  0
LAYER
  5
80
330
2
100
AcDbSymbolTableRecord
100
AcDbLayerTableRecord
  2
87
 70
     0
 62
     7
  6
Continuous
290
     1
370
    -3
390
F
  0
LAYER
  5
81
330
2
100
AcDbSymbolTableRecord
100
AcDbLayerTableRecord
  2
88
 70
     0
 62
     7
  6
Continuous
290
     1
370
    -3
390
F
  0
LAYER
  5
82
330
2
100
AcDbSymbolTableRecord
100
AcDbLayerTableRecord
  2
89
 70
     0
 62
     7
  6
Continuous
290
     1
370
    -3
390
F
  0
LAYER
  5
83
330
2
100
AcDbSymbolTableRecord
100
AcDbLayerTableRecord
  2
90
 70
     0
 62
     7
  6
Continuous
290
     1
370
    -3
390
F
  0
LAYER
  5
84
330
2
100
AcDbSymbolTableRecord
100
AcDbLayerTableRecord
  2
91
 70
     0
 62
     7
  6
Continuous
290
     1
370
    -3
390
F
  0
LAYER
  5
85
330
2
100
AcDbSymbolTableRecord
100
AcDbLayerTableRecord
  2
92
 70
     0
 62
     7
  6
Continuous
290
     1
370
    -3
390
F
  0
LAYER
  5
86
330
2
100
AcDbSymbolTableRecord
100
AcDbLayerTableRecord
  2
93
 70
     0
 62
     7
  6
Continuous
290
     1
370
    -3
390
F
  0
LAYER
  5
87
330
2
100
AcDbSymbolTableRecord
100
AcDbLayerTableRecord
  2
94
 70
     0
 62
     7
  6
Continuous
290
     1
370
    -3
390
F
  0
LAYER
  5
88
330
2
100
AcDbSymbolTableRecord
100
AcDbLayerTableRecord
  2
95
 70
     0
 62
     7
  6
Continuous
290
     1
370
    -3
390
F
  0
LAYER
  5
89
330
2
100
AcDbSymbolTableRecord
100
AcDbLayerTableRecord
  2
96
 70
     0
 62
     7
  6
Continuous
290
     1
370
    -3
390
F
  0
LAYER
  5
8A
330
2
100
AcDbSymbolTableRecord
100
AcDbLayerTableRecord
  2
97
 70
     0
 62
     7
  6
Continuous
290
     1
370
    -3
390
F
  0
LAYER
  5
8B
330
2
100
AcDbSymbolTableRecord
100
AcDbLayerTableRecord
  2
98
 70
     0
 62
     7
  6
Continuous
290
     1
370
    -3
390
F
  0
LAYER
  5
8C
330
2
100
AcDbSymbolTableRecord
100
AcDbLayerTableRecord
  2
99
 70
     0
 62
     7
  6
Continuous
290
     1
370
    -3
390
F
  0
LAYER
  5
8D
330
2
100
AcDbSymbolTableRecord
100
AcDbLayerTableRecord
  2
100
 70
     0
 62
     7
  6
Continuous
290
     1
370
    -3
390
F
  0
LAYER
  5
8E
330
2
100
AcDbSymbolTableRecord
100
AcDbLayerTableRecord
  2
101
 70
     0
 62
     7
  6
Continuous
290
     1
370
    -3
390
F
  0
LAYER
  5
8F
330
2
100
AcDbSymbolTableRecord
100
AcDbLayerTableRecord
  2
102
 70
     0
 62
     7
  6
Continuous
290
     1
370
    -3
390
F
  0
LAYER
  5
90
330
2
100
AcDbSymbolTableRecord
100
AcDbLayerTableRecord
  2
103
 70
     0
 62
     7
  6
Continuous
290
     1
370
    -3
390
F
  0
LAYER
  5
91
330
2
100
AcDbSymbolTableRecord
100
AcDbLayerTableRecord
  2
104
 70
     0
 62
     7
  6
Continuous
290
     1
370
    -3
390
F
  0
LAYER
  5
92
330
2
100
AcDbSymbolTableRecord
100
AcDbLayerTableRecord
  2
105
 70
     0
 62
     7
  6
Continuous
290
     1
370
    -3
390
F
  0
LAYER
  5
93
330
2
100
AcDbSymbolTableRecord
100
AcDbLayerTableRecord
  2
106
 70
     0
 62
     7
  6
Continuous
290
     1
370
    -3
390
F
  0
LAYER
  5
94
330
2
100
AcDbSymbolTableRecord
100
AcDbLayerTableRecord
  2
107
 70
     0
 62
     7
  6
Continuous
290
     1
370
    -3
390
F
  0
LAYER
  5
95
330
2
100
AcDbSymbolTableRecord
100
AcDbLayerTableRecord
  2
108
 70
     0
 62
     7
  6
Continuous
290
     1
370
    -3
390
F
  0
LAYER
  5
96
330
2
100
AcDbSymbolTableRecord
100
AcDbLayerTableRecord
  2
109
 70
     0
 62
     7
  6
Continuous
290
     1
370
    -3
390
F
  0
LAYER
  5
97
330
2
100
AcDbSymbolTableRecord
100
AcDbLayerTableRecord
  2
110
 70
     0
 62
     7
  6
Continuous
290
     1
370
    -3
390
F
  0
LAYER
  5
98
330
2
100
AcDbSymbolTableRecord
100
AcDbLayerTableRecord
  2
111
 70
     0
 62
     7
  6
Continuous
290
     1
370
    -3
390
F
  0
LAYER
  5
99
330
2
100
AcDbSymbolTableRecord
100
AcDbLayerTableRecord
  2
112
 70
     0
 62
     7
  6
Continuous
290
     1
370
    -3
390
F
  0
LAYER
  5
9A
330
2
100
AcDbSymbolTableRecord
100
AcDbLayerTableRecord
  2
113
 70
     0
 62
     7
  6
Continuous
290
     1
370
    -3
390
F
  0
LAYER
  5
9B
330
2
100
AcDbSymbolTableRecord
100
AcDbLayerTableRecord
  2
114
 70
     0
 62
     7
  6
Continuous
290
     1
370
    -3
390
F
  0
LAYER
  5
9C
330
2
100
AcDbSymbolTableRecord
100
AcDbLayerTableRecord
  2
115
 70
     0
 62
     7
  6
Continuous
290
     1
370
    -3
390
F
  0
LAYER
  5
9D
330
2
100
AcDbSymbolTableRecord
100
AcDbLayerTableRecord
  2
116
 70
     0
 62
     7
  6
Continuous
290
     1
370
    -3
390
F
  0
LAYER
  5
9E
330
2
100
AcDbSymbolTableRecord
100
AcDbLayerTableRecord
  2
117
 70
     0
 62
     7
  6
Continuous
290
     1
370
    -3
390
F
  0
LAYER
  5
9F
330
2
100
AcDbSymbolTableRecord
100
AcDbLayerTableRecord
  2
118
 70
     0
 62
     7
  6
Continuous
290
     1
370
    -3
390
F
  0
LAYER
  5
A0
330
2
100
AcDbSymbolTableRecord
100
AcDbLayerTableRecord
  2
119
 70
     0
 62
     7
  6
Continuous
290
     1
370
    -3
390
F
  0
LAYER
  5
A1
330
2
100
AcDbSymbolTableRecord
100
AcDbLayerTableRecord
  2
120
 70
     0
 62
     7
  6
Continuous
290
     1
370
    -3
390
F
  0
LAYER
  5
A2
330
2
100
AcDbSymbolTableRecord
100
AcDbLayerTableRecord
  2
121
 70
     0
 62
     7
  6
Continuous
290
     1
370
    -3
390
F
  0
LAYER
  5
A3
330
2
100
AcDbSymbolTableRecord
100
AcDbLayerTableRecord
  2
122
 70
     0
 62
     7
  6
Continuous
290
     1
370
    -3
390
F
  0
LAYER
  5
A4
330
2
100
AcDbSymbolTableRecord
100
AcDbLayerTableRecord
  2
123
 70
     0
 62
     7
  6
Continuous
290
     1
370
    -3
390
F
  0
LAYER
  5
A5
330
2
100
AcDbSymbolTableRecord
100
AcDbLayerTableRecord
  2
124
 70
     0
 62
     7
  6
Continuous
290
     1
370
    -3
390
F
  0
LAYER
  5
A6
330
2
100
AcDbSymbolTableRecord
100
AcDbLayerTableRecord
  2
125
 70
     0
 62
     7
  6
Continuous
290
     1
370
    -3
390
F
  0
LAYER
  5
A7
330
2
100
AcDbSymbolTableRecord
100
AcDbLayerTableRecord
  2
126
 70
     0
 62
     7
  6
Continuous
290
     1
370
    -3
390
F
  0
LAYER
  5
A8
330
2
100
AcDbSymbolTableRecord
100
AcDbLayerTableRecord
  2
127
 70
     0
 62
     7
  6
Continuous
290
     1
370
    -3
390
F
  0
ENDTAB
  0
TABLE
  2
STYLE
  5
3
330
0
100
AcDbSymbolTable
 70
     6
  0
STYLE
  5
11
330
3
100
AcDbSymbolTableRecord
100
AcDbTextStyleTableRecord
  2
Standard
 70
     0
 40
0.0
 41
1.0
 50
0.0
 71
     0
 42
2.5
  3
txt.shx
  4
extfont.shx
  0
STYLE
  5
359
330
3
100
AcDbSymbolTableRecord
100
AcDbTextStyleTableRecord
  2
KANJI0
 70
     0
 40
6.0
 41
0.9
 50
0.0
 71
     0
 42
6.0
  3
txt.shx
  4
extfont.shx
  0
STYLE
  5
360
330
3
100
AcDbSymbolTableRecord
100
AcDbTextStyleTableRecord
  2
KANJI1
 70
     0
 40
8.0
 41
0.9
 50
0.0
 71
     0
 42
8.0
  3
txt.shx
  4
extfont.shx
  0
STYLE
  5
3A9
330
3
100
AcDbSymbolTableRecord
100
AcDbTextStyleTableRecord
  2
KANJI2
 70
     0
 40
6.0
 41
0.6
 50
0.0
 71
     0
 42
6.0
  3
txt.shx
  4
extfont.shx
  0
STYLE
  5
3CD
330
3
100
AcDbSymbolTableRecord
100
AcDbTextStyleTableRecord
  2
KANJI3
 70
     0
 40
3.6
 41
0.6
 50
0.0
 71
     0
 42
3.6
  3
txt.shx
  4
extfont.shx
  0
STYLE
  5
47E
330
3
100
AcDbSymbolTableRecord
100
AcDbTextStyleTableRecord
  2
KANJI4
 70
     0
 40
6.0
 41
0.666666667
 50
0.0
 71
     0
 42
6.0
  3
txt.shx
  4
extfont.shx
  0
ENDTAB
  0
TABLE
  2
VIEW
  5
6
330
0
100
AcDbSymbolTable
 70
     0
  0
ENDTAB
  0
TABLE
  2
UCS
  5
7
330
0
100
AcDbSymbolTable
 70
     0
  0
ENDTAB
  0
TABLE
  2
APPID
  5
9
330
0
100
AcDbSymbolTable
 70
     1
  0
APPID
  5
12
330
9
100
AcDbSymbolTableRecord
100
AcDbRegAppTableRecord
  2
ACAD
 70
     0
  0
ENDTAB
  0
TABLE
  2
DIMSTYLE
  5
A
330
0
100
AcDbSymbolTable
 70
     1
100
AcDbDimStyleTable
 71
     0
  0
DIMSTYLE
105
27
330
A
100
AcDbSymbolTableRecord
100
AcDbDimStyleTableRecord
  2
ISO-25
 70
    64
  3

  4

 40
1.0
 41
2.5
 42
0.625
 43
3.75
 44
1.25
 45
0.0
 46
0.0
 47
0.0
 48
0.0
 71
     0
 72
     0
 73
     0
 74
     0
 75
     0
 76
     0
 77
     1
 78
     8
 79
     0
140
2.5
141
2.5
142
0.0
143
0.039370079
144
1.0
145
0.0
146
1.0
147
0.625
148
0.0
170
     0
171
     3
172
     1
173
     0
174
     0
175
     0
176
     0
177
     0
178
     0
179
     0
270
     2
271
     2
272
     2
273
     2
274
     3
275
     0
276
     0
277
     2
278
    46
279
     0
280
     0
281
     0
282
     0
283
     1
284
     8
285
     0
286
     0
288
     0
289
     3
340
11
341
0
342
0
343
0
344
0
371
    -2
372
    -2
  0
ENDTAB
  0
TABLE
  2
BLOCK_RECORD
  5
1
330
0
100
AcDbSymbolTable
 70
     3
  0
BLOCK_RECORD
  5
1F
330
1
100
AcDbSymbolTableRecord
100
AcDbBlockTableRecord
  2
*Model_Space
340
22
  0
BLOCK_RECORD
  5
1B
330
1
100
AcDbSymbolTableRecord
100
AcDbBlockTableRecord
  2
*Paper_Space
340
1E
  0
BLOCK_RECORD
  5
23
330
1
100
AcDbSymbolTableRecord
100
AcDbBlockTableRecord
  2
*Paper_Space0
340
26
  0
ENDTAB
  0
ENDSEC
  0
SECTION
  2
BLOCKS
  0
BLOCK
  5
1C
330
1B
100
AcDbEntity
 67
     1
  8
0
100
AcDbBlockBegin
  2
*Paper_Space
 70
     0
 10
0.0
 20
0.0
 30
0.0
  3
*Paper_Space
  1

  0
ENDBLK
  5
1D
330
1B
100
AcDbEntity
  8
0
100
AcDbBlockEnd
  0
BLOCK
  5
20
330
1F
100
AcDbEntity
  8
0
100
AcDbBlockBegin
  2
*Model_Space
 70
     0
 10
0.0
 20
0.0
 30
0.0
  3
*Model_Space
  1

  0
ENDBLK
  5
21
330
1F
100
AcDbEntity
  8
0
100
AcDbBlockEnd
  0
BLOCK
  5
24
330
23
100
AcDbEntity
 67
     1
  8
0
100
AcDbBlockBegin
  2
*Paper_Space0
 70
     0
 10
0.0
 20
0.0
 30
0.0
  3
*Paper_Space0
  1

  0
ENDBLK
  5
25
330
23
100
AcDbEntity
  8
0
100
AcDbBlockEnd
  0
ENDSEC
  0
SECTION
  2
ENTITIES
  0
LINE
  5
AA
330
1F
100
AcDbEntity
  8
0
  6
LTYPE1
 62
     1
100
AcDbLine
 10
410.361760198
 20
229.848404499
 30
0.0
 11
411.520216129
 21
230.659564074
 31
0.0
  0
ARC
  5
AB
330
1F
100
AcDbEntity
  8
0
  6
Continuous
 62
     1
100
AcDbCircle
 10
419.7
 20
294.8
 30
0.0
 40
1.5
100
AcDbArc
 50
180.0
 51
225.0
  0
LINE
  5
AC
330
1F
100
AcDbEntity
  8
0
  6
Continuous
 62
     1
100
AcDbLine
 10
418.2
 20
296.3
 30
0.0
 11
418.2
 21
294.8
 31
0.0
  0
ARC
  5
AD
330
1F
100
AcDbEntity
  8
0
  6
Continuous
 62
     1
100
AcDbCircle
 10
447.7
 20
294.461522369
 30
0.0
 40
21.0
100
AcDbArc
 50
225.0
 51
315.0
  0
LINE
  5
AE
330
1F
100
AcDbEntity
  8
0
  6
Continuous
 62
     1
100
AcDbLine
 10
477.2
 20
296.3
 30
0.0
 11
477.2
 21
294.8
 31
0.0
  0
ARC
  5
AF
330
1F
100
AcDbEntity
  8
0
  6
Continuous
 62
     1
100
AcDbCircle
 10
475.7
 20
294.8
 30
0.0
 40
1.5
100
AcDbArc
 50
315.0
 51
0.0
  0
LINE
  5
B0
330
1F
100
AcDbEntity
  8
0
  6
Continuous
 62
     1
100
AcDbLine
 10
492.7
 20
292.3
 30
0.0
 11
475.2
 21
292.3
 31
0.0
  0
LINE
  5
B1
330
1F
100
AcDbEntity
  8
0
  6
Continuous
 62
     1
100
AcDbLine
 10
418.2
 20
306.3
 30
0.0
 11
418.2
 21
307.8
 31
0.0
  0
ARC
  5
B2
330
1F
100
AcDbEntity
  8
0
  6
Continuous
 62
     1
100
AcDbCircle
 10
419.7
 20
307.8
 30
0.0
 40
1.5
100
AcDbArc
 50
135.0
 51
180.0
  0
LINE
  5
B3
330
1F
100
AcDbEntity
  8
0
  6
Continuous
 62
     1
100
AcDbLine
 10
178.2
 20
253.3
 30
0.0
 11
178.2
 21
261.3
 31
0.0
  0
LINE
  5
B4
330
1F
100
AcDbEntity
  8
0
  6
Continuous
 62
     1
100
AcDbLine
 10
178.2
 20
253.3
 30
0.0
 11
178.2
 21
261.3
 31
0.0
  0
LINE
  5
B5
330
1F
100
AcDbEntity
  8
0
  6
Continuous
 62
     1
100
AcDbLine
 10
178.2
 20
261.3
 30
0.0
 11
178.2
 21
269.3
 31
0.0
  0
LINE
  5
B6
330
1F
100
AcDbEntity
  8
0
  6
Continuous
 62
     1
100
AcDbLine
 10
178.2
 20
261.3
 30
0.0
 11
178.2
 21
269.3
 31
0.0
  0
LINE
  5
B8
330
1F
100
AcDbEntity
  8
0
  6
LTYPE2
 62
     1
100
AcDbLine
 10
182.2
 20
316.3
 30
0.0
 11
182.2
 21
316.3
 31
0.0
  0
ARC
  5
B9
330
1F
100
AcDbEntity
  8
0
  6
Continuous
 62
     1
100
AcDbCircle
 10
172.2
 20
261.15
 30
0.0
 40
31.120732639
100
AcDbArc
 50
23.682087725
 51
48.840031845
  0
ARC
  5
BA
330
1F
100
AcDbEntity
  8
0
  6
Continuous
 62
     1
100
AcDbCircle
 10
183.2
 20
261.15
 30
0.0
 40
31.120732639
100
AcDbArc
 50
131.159968155
 51
156.317912275
  0
ARC
  5
BB
330
1F
100
AcDbEntity
  8
0
  6
Continuous
 62
     1
100
AcDbCircle
 10
198.9
 20
222.8
 30
0.0
 40
1.0
100
AcDbArc
 50
270.0
 51
0.0
  0
LINE
  5
BC
330
1F
100
AcDbEntity
  8
0
  6
Continuous
 62
     1
100
AcDbLine
 10
199.9
 20
233.8
 30
0.0
 11
199.9
 21
222.8
 31
0.0
  0
LINE
  5
BD
330
1F
100
AcDbEntity
  8
0
  6
Continuous
 62
     1
100
AcDbLine
 10
198.9
 20
221.8
 30
0.0
 11
195.7
 21
221.8
 31
0.0
  0
ARC
  5
BE
330
1F
100
AcDbEntity
  8
0
  6
Continuous
 62
     1
100
AcDbCircle
 10
198.9
 20
233.8
 30
0.0
 40
1.0
100
AcDbArc
 50
0.0
 51
90.0
  0
LINE
  5
BF
330
1F
100
AcDbEntity
  8
0
  6
Continuous
 62
     1
100
AcDbLine
 10
195.7
 20
234.8
 30
0.0
 11
198.9
 21
234.8
 31
0.0
  0
ARC
  5
C0
330
1F
100
AcDbEntity
  8
0
  6
Continuous
 62
     3
100
AcDbCircle
 10
168.7
 20
330.1
 30
0.0
 40
1.0
100
AcDbArc
 50
180.0
 51
212.005383208
  0
ARC
  5
C1
330
1F
100
AcDbEntity
  8
0
  6
Continuous
 62
     3
100
AcDbCircle
 10
186.7
 20
330.1
 30
0.0
 40
1.0
100
AcDbArc
 50
327.994616792
 51
0.0
  0
ARC
  5
C2
330
1F
100
AcDbEntity
  8
0
  6
Continuous
 62
     1
100
AcDbCircle
 10
447.7
 20
195.7
 30
0.0
 40
13.0
100
AcDbArc
 50
327.3
 51
8.9
  0
ARC
  5
C3
330
1F
100
AcDbEntity
  8
0
  6
Continuous
 62
     1
100
AcDbCircle
 10
447.7
 20
195.7
 30
0.0
 40
13.0
100
AcDbArc
 50
42.8
 51
137.2
  0
LINE
  5
C4
330
1F
100
AcDbEntity
  8
0
  6
Continuous
 62
     3
100
AcDbLine
 10
161.7
 20
151.7
 30
0.0
 11
160.7
 21
152.7
 31
0.0
  0
LINE
  5
C6
330
1F
100
AcDbEntity
  8
0
  6
LTYPE3
 62
     2
100
AcDbLine
 10
352.7
 20
72.3
 30
0.0
 11
542.7
 21
72.3
 31
0.0
  0
LINE
  5
C7
330
1F
100
AcDbEntity
  8
0
  6
LTYPE3
 62
     2
100
AcDbLine
 10
352.7
 20
28.3
 30
0.0
 11
542.7
 21
28.3
 31
0.0
  0
LINE
  5
C8
330
1F
100
AcDbEntity
  8
0
  6
LTYPE3
 62
     2
100
AcDbLine
 10
352.7
 20
128.5
 30
0.0
 11
542.7
 21
128.5
 31
0.0
  0
LINE
  5
C9
330
1F
100
AcDbEntity
  8
0
  6
LTYPE3
 62
     2
100
AcDbLine
 10
437.7
 20
266.5
 30
0.0
 11
437.7
 21
256.1
 31
0.0
  0
LINE
  5
CA
330
1F
100
AcDbEntity
  8
0
  6
LTYPE3
 62
     2
100
AcDbLine
 10
432.7
 20
255.6
 30
0.0
 11
433.2
 21
256.1
 31
0.0
  0
LINE
  5
CB
330
1F
100
AcDbEntity
  8
0
  6
LTYPE3
 62
     2
100
AcDbLine
 10
462.7
 20
255.6
 30
0.0
 11
462.2
 21
256.1
 31
0.0
  0
LINE
  5
CC
330
1F
100
AcDbEntity
  8
0
  6
LTYPE3
 62
     2
100
AcDbLine
 10
457.7
 20
256.1
 30
0.0
 11
457.7
 21
266.5
 31
0.0
  0
LINE
  5
CD
330
1F
100
AcDbEntity
  8
0
  6
LTYPE3
 62
     2
100
AcDbLine
 10
462.2
 20
256.1
 30
0.0
 11
433.2
 21
256.1
 31
0.0
  0
LINE
  5
CE
330
1F
100
AcDbEntity
  8
0
  6
LTYPE3
 62
     2
100
AcDbLine
 10
433.2
 20
266.5
 30
0.0
 11
462.2
 21
266.5
 31
0.0
  0
LINE
  5
CF
330
1F
100
AcDbEntity
  8
0
  6
LTYPE3
 62
     2
100
AcDbLine
 10
462.7
 20
267.0
 30
0.0
 11
462.2
 21
266.5
 31
0.0
  0
LINE
  5
D0
330
1F
100
AcDbEntity
  8
0
  6
LTYPE3
 62
     2
100
AcDbLine
 10
433.2
 20
266.5
 30
0.0
 11
432.7
 21
267.0
 31
0.0
  0
LINE
  5
D1
330
1F
100
AcDbEntity
  8
0
  6
LTYPE3
 62
     2
100
AcDbLine
 10
434.7
 20
276.3
 30
0.0
 11
432.7
 21
274.3
 31
0.0
  0
LINE
  5
D2
330
1F
100
AcDbEntity
  8
0
  6
LTYPE3
 62
     2
100
AcDbLine
 10
432.7
 20
276.3
 30
0.0
 11
432.7
 21
216.3
 31
0.0
  0
LINE
  5
D3
330
1F
100
AcDbEntity
  8
0
  6
LTYPE3
 62
     2
100
AcDbLine
 10
462.7
 20
274.3
 30
0.0
 11
460.7
 21
276.3
 31
0.0
  0
LINE
  5
D4
330
1F
100
AcDbEntity
  8
0
  6
LTYPE3
 62
     2
100
AcDbLine
 10
462.7
 20
216.3
 30
0.0
 11
462.7
 21
276.3
 31
0.0
  0
LINE
  5
D5
330
1F
100
AcDbEntity
  8
0
  6
LTYPE3
 62
     2
100
AcDbLine
 10
462.7
 20
276.3
 30
0.0
 11
432.7
 21
276.3
 31
0.0
  0
LINE
  5
D6
330
1F
100
AcDbEntity
  8
0
  6
LTYPE3
 62
     2
100
AcDbLine
 10
164.7
 20
276.3
 30
0.0
 11
162.7
 21
274.3
 31
0.0
  0
LINE
  5
D7
330
1F
100
AcDbEntity
  8
0
  6
LTYPE3
 62
     2
100
AcDbLine
 10
192.7
 20
274.3
 30
0.0
 11
190.7
 21
276.3
 31
0.0
  0
LINE
  5
D8
330
1F
100
AcDbEntity
  8
0
  6
LTYPE3
 62
     2
100
AcDbLine
 10
192.7
 20
276.3
 30
0.0
 11
162.7
 21
276.3
 31
0.0
  0
LINE
  5
D9
330
1F
100
AcDbEntity
  8
0
  6
LTYPE3
 62
     2
100
AcDbLine
 10
192.7
 20
267.0
 30
0.0
 11
192.2
 21
266.5
 31
0.0
  0
LINE
  5
DA
330
1F
100
AcDbEntity
  8
0
  6
LTYPE3
 62
     2
100
AcDbLine
 10
163.2
 20
266.5
 30
0.0
 11
162.7
 21
267.0
 31
0.0
  0
LINE
  5
DB
330
1F
100
AcDbEntity
  8
0
  6
LTYPE3
 62
     2
100
AcDbLine
 10
163.2
 20
266.5
 30
0.0
 11
192.2
 21
266.5
 31
0.0
  0
LINE
  5
DC
330
1F
100
AcDbEntity
  8
0
  6
LTYPE3
 62
     2
100
AcDbLine
 10
192.2
 20
256.1
 30
0.0
 11
163.2
 21
256.1
 31
0.0
  0
LINE
  5
DD
330
1F
100
AcDbEntity
  8
0
  6
LTYPE3
 62
     2
100
AcDbLine
 10
162.7
 20
255.6
 30
0.0
 11
163.2
 21
256.1
 31
0.0
  0
LINE
  5
DE
330
1F
100
AcDbEntity
  8
0
  6
LTYPE3
 62
     2
100
AcDbLine
 10
162.7
 20
276.3
 30
0.0
 11
162.7
 21
216.3
 31
0.0
  0
LINE
  5
DF
330
1F
100
AcDbEntity
  8
0
  6
LTYPE3
 62
     2
100
AcDbLine
 10
167.7
 20
266.5
 30
0.0
 11
167.7
 21
256.1
 31
0.0
  0
LINE
  5
E0
330
1F
100
AcDbEntity
  8
0
  6
LTYPE3
 62
     2
100
AcDbLine
 10
192.7
 20
255.6
 30
0.0
 11
192.2
 21
256.1
 31
0.0
  0
LINE
  5
E1
330
1F
100
AcDbEntity
  8
0
  6
LTYPE3
 62
     2
100
AcDbLine
 10
192.7
 20
216.3
 30
0.0
 11
192.7
 21
276.3
 31
0.0
  0
LINE
  5
E3
330
1F
100
AcDbEntity
  8
0
  6
LTYPE4
 62
     2
100
AcDbLine
 10
177.7
 20
214.3
 30
0.0
 11
177.7
 21
84.3
 31
0.0
  0
LINE
  5
E4
330
1F
100
AcDbEntity
  8
0
  6
Continuous
 62
     2
100
AcDbLine
 10
467.7
 20
75.5
 30
0.0
 11
467.7
 21
76.0
 31
0.0
  0
LINE
  5
E5
330
1F
100
AcDbEntity
  8
0
  6
Continuous
 62
     2
100
AcDbLine
 10
467.7
 20
76.0
 30
0.0
 11
470.7
 21
76.5
 31
0.0
  0
LINE
  5
E6
330
1F
100
AcDbEntity
  8
0
  6
Continuous
 62
     2
100
AcDbLine
 10
470.7
 20
76.5
 30
0.0
 11
473.7
 21
76.0
 31
0.0
  0
LINE
  5
E7
330
1F
100
AcDbEntity
  8
0
  6
Continuous
 62
     2
100
AcDbLine
 10
473.7
 20
76.0
 30
0.0
 11
473.7
 21
75.5
 31
0.0
  0
LINE
  5
E8
330
1F
100
AcDbEntity
  8
0
  6
Continuous
 62
     2
100
AcDbLine
 10
444.7
 20
75.5
 30
0.0
 11
444.7
 21
76.0
 31
0.0
  0
LINE
  5
E9
330
1F
100
AcDbEntity
  8
0
  6
Continuous
 62
     2
100
AcDbLine
 10
444.7
 20
76.0
 30
0.0
 11
447.7
 21
76.5
 31
0.0
  0
LINE
  5
EA
330
1F
100
AcDbEntity
  8
0
  6
Continuous
 62
     2
100
AcDbLine
 10
447.7
 20
76.5
 30
0.0
 11
450.7
 21
76.0
 31
0.0
  0
LINE
  5
EB
330
1F
100
AcDbEntity
  8
0
  6
Continuous
 62
     2
100
AcDbLine
 10
450.7
 20
76.0
 30
0.0
 11
450.7
 21
75.5
 31
0.0
  0
LINE
  5
EC
330
1F
100
AcDbEntity
  8
0
  6
Continuous
 62
     2
100
AcDbLine
 10
421.7
 20
75.5
 30
0.0
 11
421.7
 21
76.0
 31
0.0
  0
LINE
  5
ED
330
1F
100
AcDbEntity
  8
0
  6
Continuous
 62
     2
100
AcDbLine
 10
421.7
 20
76.0
 30
0.0
 11
424.7
 21
76.5
 31
0.0
  0
LINE
  5
EE
330
1F
100
AcDbEntity
  8
0
  6
Continuous
 62
     2
100
AcDbLine
 10
424.7
 20
76.5
 30
0.0
 11
427.7
 21
76.0
 31
0.0
  0
LINE
  5
EF
330
1F
100
AcDbEntity
  8
0
  6
Continuous
 62
     2
100
AcDbLine
 10
427.7
 20
76.0
 30
0.0
 11
427.7
 21
75.5
 31
0.0
  0
LINE
  5
F0
330
1F
100
AcDbEntity
  8
0
  6
Continuous
 62
     2
100
AcDbLine
 10
427.7
 20
25.1
 30
0.0
 11
427.7
 21
24.6
 31
0.0
  0
LINE
  5
F1
330
1F
100
AcDbEntity
  8
0
  6
Continuous
 62
     2
100
AcDbLine
 10
427.7
 20
24.6
 30
0.0
 11
424.7
 21
24.1
 31
0.0
  0
LINE
  5
F2
330
1F
100
AcDbEntity
  8
0
  6
Continuous
 62
     2
100
AcDbLine
 10
424.7
 20
24.1
 30
0.0
 11
421.7
 21
24.6
 31
0.0
  0
LINE
  5
F3
330
1F
100
AcDbEntity
  8
0
  6
Continuous
 62
     2
100
AcDbLine
 10
421.7
 20
24.6
 30
0.0
 11
421.7
 21
25.1
 31
0.0
  0
LINE
  5
F4
330
1F
100
AcDbEntity
  8
0
  6
Continuous
 62
     2
100
AcDbLine
 10
450.7
 20
25.1
 30
0.0
 11
450.7
 21
24.6
 31
0.0
  0
LINE
  5
F5
330
1F
100
AcDbEntity
  8
0
  6
Continuous
 62
     2
100
AcDbLine
 10
450.7
 20
24.6
 30
0.0
 11
447.7
 21
24.1
 31
0.0
  0
LINE
  5
F6
330
1F
100
AcDbEntity
  8
0
  6
Continuous
 62
     2
100
AcDbLine
 10
447.7
 20
24.1
 30
0.0
 11
444.7
 21
24.6
 31
0.0
  0
LINE
  5
F7
330
1F
100
AcDbEntity
  8
0
  6
Continuous
 62
     2
100
AcDbLine
 10
444.7
 20
24.6
 30
0.0
 11
444.7
 21
25.1
 31
0.0
  0
LINE
  5
F8
330
1F
100
AcDbEntity
  8
0
  6
Continuous
 62
     2
100
AcDbLine
 10
473.7
 20
25.1
 30
0.0
 11
473.7
 21
24.6
 31
0.0
  0
LINE
  5
F9
330
1F
100
AcDbEntity
  8
0
  6
Continuous
 62
     2
100
AcDbLine
 10
473.7
 20
24.6
 30
0.0
 11
470.7
 21
24.1
 31
0.0
  0
LINE
  5
FA
330
1F
100
AcDbEntity
  8
0
  6
Continuous
 62
     2
100
AcDbLine
 10
470.7
 20
24.1
 30
0.0
 11
467.7
 21
24.6
 31
0.0
  0
LINE
  5
FB
330
1F
100
AcDbEntity
  8
0
  6
Continuous
 62
     2
100
AcDbLine
 10
467.7
 20
24.6
 30
0.0
 11
467.7
 21
25.1
 31
0.0
  0
LINE
  5
FC
330
1F
100
AcDbEntity
  8
0
  6
Continuous
 62
     1
100
AcDbLine
 10
542.7
 20
75.5
 30
0.0
 11
352.7
 21
75.5
 31
0.0
  0
ARC
  5
FD
330
1F
100
AcDbEntity
  8
0
  6
Continuous
 62
     1
100
AcDbCircle
 10
372.7
 20
50.3
 30
0.0
 40
4.5
100
AcDbArc
 50
90.0
 51
270.0
  0
LINE
  5
FE
330
1F
100
AcDbEntity
  8
0
  6
Continuous
 62
     1
100
AcDbLine
 10
392.700005395
 20
45.8
 30
0.0
 11
372.7
 21
45.8
 31
0.0
  0
LINE
  5
FF
330
1F
100
AcDbEntity
  8
0
  6
Continuous
 62
     1
100
AcDbLine
 10
372.7
 20
54.8
 30
0.0
 11
392.700005395
 21
54.8
 31
0.0
  0
ARC
  5
100
330
1F
100
AcDbEntity
  8
0
  6
Continuous
 62
     1
100
AcDbCircle
 10
392.7
 20
50.3
 30
0.0
 40
4.5
100
AcDbArc
 50
270.000068689
 51
89.999931311
  0
CIRCLE
  5
101
330
1F
100
AcDbEntity
  8
0
  6
Continuous
 62
     1
100
AcDbCircle
 10
447.7
 20
50.3
 30
0.0
 40
4.5
  0
LINE
  5
102
330
1F
100
AcDbEntity
  8
0
  6
Continuous
 62
     1
100
AcDbLine
 10
542.7
 20
25.1
 30
0.0
 11
352.7
 21
25.1
 31
0.0
  0
LINE
  5
103
330
1F
100
AcDbEntity
  8
0
  6
Continuous
 62
     1
100
AcDbLine
 10
352.7
 20
75.5
 30
0.0
 11
352.7
 21
25.1
 31
0.0
  0
ARC
  5
104
330
1F
100
AcDbEntity
  8
0
  6
Continuous
 62
     1
100
AcDbCircle
 10
522.7
 20
50.3
 30
0.0
 40
4.5
100
AcDbArc
 50
270.0
 51
90.0
  0
LINE
  5
105
330
1F
100
AcDbEntity
  8
0
  6
Continuous
 62
     1
100
AcDbLine
 10
502.700007629
 20
54.8
 30
0.0
 11
522.7
 21
54.8
 31
0.0
  0
ARC
  5
106
330
1F
100
AcDbEntity
  8
0
  6
Continuous
 62
     1
100
AcDbCircle
 10
502.7
 20
50.3
 30
0.0
 40
4.5
100
AcDbArc
 50
89.99990286
 51
270.00009714
  0
LINE
  5
107
330
1F
100
AcDbEntity
  8
0
  6
Continuous
 62
     1
100
AcDbLine
 10
522.7
 20
45.8
 30
0.0
 11
502.700007629
 21
45.8
 31
0.0
  0
LINE
  5
108
330
1F
100
AcDbEntity
  8
0
  6
Continuous
 62
     1
100
AcDbLine
 10
542.7
 20
25.1
 30
0.0
 11
542.7
 21
75.5
 31
0.0
  0
LINE
  5
109
330
1F
100
AcDbEntity
  8
0
  6
Continuous
 62
     1
100
AcDbLine
 10
352.7
 20
125.3
 30
0.0
 11
352.7
 21
128.5
 31
0.0
  0
LINE
  5
10A
330
1F
100
AcDbEntity
  8
0
  6
Continuous
 62
     1
100
AcDbLine
 10
447.7
 20
125.3
 30
0.0
 11
352.7
 21
125.3
 31
0.0
  0
ARC
  5
10B
330
1F
100
AcDbEntity
  8
0
  6
Continuous
 62
     1
100
AcDbCircle
 10
362.7
 20
128.5
 30
0.0
 40
10.0
100
AcDbArc
 50
90.0
 51
180.0
  0
LINE
  5
10C
330
1F
100
AcDbEntity
  8
0
  6
Continuous
 62
     1
100
AcDbLine
 10
362.7
 20
138.5
 30
0.0
 11
407.7
 21
138.5
 31
0.0
  0
LINE
  5
10D
330
1F
100
AcDbEntity
  8
0
  6
Continuous
 62
     1
100
AcDbLine
 10
447.7
 20
125.3
 30
0.0
 11
542.7
 21
125.3
 31
0.0
  0
LINE
  5
10E
330
1F
100
AcDbEntity
  8
0
  6
Continuous
 62
     1
100
AcDbLine
 10
542.7
 20
125.3
 30
0.0
 11
542.7
 21
128.5
 31
0.0
  0
LINE
  5
10F
330
1F
100
AcDbEntity
  8
0
  6
Continuous
 62
     1
100
AcDbLine
 10
532.7
 20
138.5
 30
0.0
 11
487.7
 21
138.5
 31
0.0
  0
ARC
  5
110
330
1F
100
AcDbEntity
  8
0
  6
Continuous
 62
     1
100
AcDbCircle
 10
532.7
 20
128.5
 30
0.0
 40
10.0
100
AcDbArc
 50
0.0
 51
90.0
  0
LINE
  5
111
330
1F
100
AcDbEntity
  8
0
  6
Continuous
 62
     1
100
AcDbLine
 10
407.7
 20
138.5
 30
0.0
 11
407.7
 21
165.7
 31
0.0
  0
LINE
  5
112
330
1F
100
AcDbEntity
  8
0
  6
Continuous
 62
     1
100
AcDbLine
 10
487.7
 20
148.5
 30
0.0
 11
407.7
 21
148.5
 31
0.0
  0
ARC
  5
113
330
1F
100
AcDbEntity
  8
0
  6
Continuous
 62
     1
100
AcDbCircle
 10
477.7
 20
165.7
 30
0.0
 40
4.5
100
AcDbArc
 50
270.0
 51
0.0
  0
ARC
  5
114
330
1F
100
AcDbEntity
  8
0
  6
Continuous
 62
     1
100
AcDbCircle
 10
477.7
 20
165.7
 30
0.0
 40
4.5
100
AcDbArc
 50
180.0
 51
270.0
  0
ARC
  5
115
330
1F
100
AcDbEntity
  8
0
  6
Continuous
 62
     1
100
AcDbCircle
 10
447.7
 20
165.7
 30
0.0
 40
25.5
100
AcDbArc
 50
0.0
 51
74.1
  0
ARC
  5
116
330
1F
100
AcDbEntity
  8
0
  6
Continuous
 62
     1
100
AcDbCircle
 10
447.7
 20
165.7
 30
0.0
 40
34.5
100
AcDbArc
 50
0.0
 51
75.9
  0
LINE
  5
117
330
1F
100
AcDbEntity
  8
0
  6
Continuous
 62
     1
100
AcDbLine
 10
487.7
 20
165.7
 30
0.0
 11
487.7
 21
138.5
 31
0.0
  0
ARC
  5
118
330
1F
100
AcDbEntity
  8
0
  6
Continuous
 62
     1
100
AcDbCircle
 10
447.7
 20
165.7
 30
0.0
 40
40.0
100
AcDbArc
 50
0.0
 51
180.0
  0
LINE
  5
119
330
1F
100
AcDbEntity
  8
0
  6
Continuous
 62
     1
100
AcDbLine
 10
464.7
 20
208.7
 30
0.0
 11
464.7
 21
201.9
 31
0.0
  0
LINE
  5
11A
330
1F
100
AcDbEntity
  8
0
  6
Continuous
 62
     1
100
AcDbLine
 10
459.7
 20
216.3
 30
0.0
 11
459.7
 21
212.7
 31
0.0
  0
POINT
  5
11B
330
1F
100
AcDbEntity
  8
0
  6
Continuous
 62
     1
100
AcDbPoint
 10
470.7
 20
216.7
 30
0.0
  0
ARC
  5
11C
330
1F
100
AcDbEntity
  8
0
  6
Continuous
 62
     1
100
AcDbCircle
 10
470.3
 20
216.7
 30
0.0
 40
0.4
100
AcDbArc
 50
270.0
 51
0.0
  0
POINT
  5
11D
330
1F
100
AcDbEntity
  8
0
  6
Continuous
 62
     1
100
AcDbPoint
 10
470.7
 20
216.7
 30
0.0
  0
ARC
  5
11E
330
1F
100
AcDbEntity
  8
0
  6
Continuous
 62
     1
100
AcDbCircle
 10
470.3
 20
216.7
 30
0.0
 40
0.4
100
AcDbArc
 50
270.0
 51
0.0
  0
LINE
  5
11F
330
1F
100
AcDbEntity
  8
0
  6
Continuous
 62
     1
100
AcDbLine
 10
459.7
 20
212.7
 30
0.0
 11
458.7
 21
211.7
 31
0.0
  0
LINE
  5
120
330
1F
100
AcDbEntity
  8
0
  6
Continuous
 62
     1
100
AcDbLine
 10
458.7
 20
208.7
 30
0.0
 11
458.7
 21
211.7
 31
0.0
  0
LINE
  5
121
330
1F
100
AcDbEntity
  8
0
  6
Continuous
 62
     1
100
AcDbLine
 10
436.7
 20
211.7
 30
0.0
 11
435.7
 21
212.7
 31
0.0
  0
LINE
  5
122
330
1F
100
AcDbEntity
  8
0
  6
Continuous
 62
     1
100
AcDbLine
 10
436.7
 20
211.7
 30
0.0
 11
436.7
 21
208.7
 31
0.0
  0
LINE
  5
123
330
1F
100
AcDbEntity
  8
0
  6
Continuous
 62
     1
100
AcDbLine
 10
435.7
 20
212.7
 30
0.0
 11
435.7
 21
216.3
 31
0.0
  0
ARC
  5
124
330
1F
100
AcDbEntity
  8
0
  6
Continuous
 62
     1
100
AcDbCircle
 10
425.2
 20
216.8
 30
0.0
 40
0.5
100
AcDbArc
 50
180.0
 51
270.0
  0
LINE
  5
125
330
1F
100
AcDbEntity
  8
0
  6
Continuous
 62
     1
100
AcDbLine
 10
470.3
 20
216.3
 30
0.0
 11
425.2
 21
216.3
 31
0.0
  0
CIRCLE
  5
126
330
1F
100
AcDbEntity
  8
0
  6
Continuous
 62
     1
100
AcDbCircle
 10
427.7
 20
228.3
 30
0.0
 40
9.0
  0
LINE
  5
127
330
1F
100
AcDbEntity
  8
0
  6
Continuous
 62
     1
100
AcDbLine
 10
430.7
 20
201.9
 30
0.0
 11
430.7
 21
208.7
 31
0.0
  0
LINE
  5
128
330
1F
100
AcDbEntity
  8
0
  6
Continuous
 62
     1
100
AcDbLine
 10
430.7
 20
208.7
 30
0.0
 11
464.7
 21
208.7
 31
0.0
  0
LINE
  5
129
330
1F
100
AcDbEntity
  8
0
  6
Continuous
 62
     2
100
AcDbLine
 10
451.5
 20
202.3
 30
0.0
 11
443.9
 21
202.3
 31
0.0
  0
LINE
  5
12A
330
1F
100
AcDbEntity
  8
0
  6
Continuous
 62
     2
100
AcDbLine
 10
443.9
 20
202.3
 30
0.0
 11
440.2
 21
195.8
 31
0.0
  0
LINE
  5
12B
330
1F
100
AcDbEntity
  8
0
  6
Continuous
 62
     2
100
AcDbLine
 10
440.2
 20
195.8
 30
0.0
 11
443.9
 21
189.3
 31
0.0
  0
LINE
  5
12C
330
1F
100
AcDbEntity
  8
0
  6
Continuous
 62
     2
100
AcDbLine
 10
451.5
 20
189.3
 30
0.0
 11
455.2
 21
195.8
 31
0.0
  0
LINE
  5
12D
330
1F
100
AcDbEntity
  8
0
  6
Continuous
 62
     2
100
AcDbLine
 10
443.9
 20
189.3
 30
0.0
 11
451.5
 21
189.3
 31
0.0
  0
CIRCLE
  5
12E
330
1F
100
AcDbEntity
  8
0
  6
Continuous
 62
     2
100
AcDbCircle
 10
447.7
 20
195.8
 30
0.0
 40
3.5
  0
CIRCLE
  5
12F
330
1F
100
AcDbEntity
  8
0
  6
Continuous
 62
     2
100
AcDbCircle
 10
447.7
 20
195.8
 30
0.0
 40
9.0
  0
LINE
  5
130
330
1F
100
AcDbEntity
  8
0
  6
Continuous
 62
     2
100
AcDbLine
 10
455.2
 20
195.8
 30
0.0
 11
451.5
 21
202.3
 31
0.0
  0
CIRCLE
  5
131
330
1F
100
AcDbEntity
  8
0
  6
Continuous
 62
     2
100
AcDbCircle
 10
447.7
 20
195.8
 30
0.0
 40
4.0
  0
CIRCLE
  5
132
330
1F
100
AcDbEntity
  8
0
  6
Continuous
 62
     2
100
AcDbCircle
 10
447.7
 20
195.8
 30
0.0
 40
6.5
  0
LINE
  5
133
330
1F
100
AcDbEntity
  8
0
  6
Continuous
 62
     2
100
AcDbLine
 10
443.9
 20
172.3
 30
0.0
 11
440.2
 21
165.8
 31
0.0
  0
LINE
  5
134
330
1F
100
AcDbEntity
  8
0
  6
Continuous
 62
     2
100
AcDbLine
 10
455.2
 20
165.8
 30
0.0
 11
451.5
 21
172.3
 31
0.0
  0
LINE
  5
135
330
1F
100
AcDbEntity
  8
0
  6
Continuous
 62
     2
100
AcDbLine
 10
451.5
 20
172.3
 30
0.0
 11
443.9
 21
172.3
 31
0.0
  0
LINE
  5
136
330
1F
100
AcDbEntity
  8
0
  6
Continuous
 62
     2
100
AcDbLine
 10
451.5
 20
159.3
 30
0.0
 11
455.2
 21
165.8
 31
0.0
  0
LINE
  5
137
330
1F
100
AcDbEntity
  8
0
  6
Continuous
 62
     2
100
AcDbLine
 10
440.2
 20
165.8
 30
0.0
 11
443.9
 21
159.3
 31
0.0
  0
CIRCLE
  5
138
330
1F
100
AcDbEntity
  8
0
  6
Continuous
 62
     2
100
AcDbCircle
 10
447.7
 20
165.8
 30
0.0
 40
4.0
  0
CIRCLE
  5
139
330
1F
100
AcDbEntity
  8
0
  6
Continuous
 62
     2
100
AcDbCircle
 10
447.7
 20
165.8
 30
0.0
 40
3.5
  0
LINE
  5
13A
330
1F
100
AcDbEntity
  8
0
  6
Continuous
 62
     2
100
AcDbLine
 10
443.9
 20
159.3
 30
0.0
 11
451.5
 21
159.3
 31
0.0
  0
CIRCLE
  5
13B
330
1F
100
AcDbEntity
  8
0
  6
Continuous
 62
     2
100
AcDbCircle
 10
447.7
 20
165.8
 30
0.0
 40
6.5
  0
CIRCLE
  5
13C
330
1F
100
AcDbEntity
  8
0
  6
Continuous
 62
     2
100
AcDbCircle
 10
447.7
 20
165.8
 30
0.0
 40
9.0
  0
LINE
  5
13D
330
1F
100
AcDbEntity
  8
0
  6
Continuous
 62
     1
100
AcDbLine
 10
464.7
 20
195.65
 30
0.0
 11
464.7
 21
184.7
 31
0.0
  0
CIRCLE
  5
13E
330
1F
100
AcDbEntity
  8
0
  6
Continuous
 62
     2
100
AcDbCircle
 10
447.7
 20
138.5
 30
0.0
 40
3.0
  0
CIRCLE
  5
13F
330
1F
100
AcDbEntity
  8
0
  6
Continuous
 62
     2
100
AcDbCircle
 10
470.7
 20
138.5
 30
0.0
 40
3.0
  0
CIRCLE
  5
140
330
1F
100
AcDbEntity
  8
0
  6
Continuous
 62
     2
100
AcDbCircle
 10
424.7
 20
138.5
 30
0.0
 40
3.0
  0
LINE
  5
141
330
1F
100
AcDbEntity
  8
0
  6
Continuous
 62
     2
100
AcDbLine
 10
435.7
 20
212.7
 30
0.0
 11
459.7
 21
212.7
 31
0.0
  0
LINE
  5
142
330
1F
100
AcDbEntity
  8
0
  6
Continuous
 62
     2
100
AcDbLine
 10
458.7
 20
211.7
 30
0.0
 11
436.7
 21
211.7
 31
0.0
  0
LINE
  5
143
330
1F
100
AcDbEntity
  8
0
  6
Continuous
 62
     2
100
AcDbLine
 10
436.7
 20
216.3
 30
0.0
 11
436.7
 21
211.7
 31
0.0
  0
LINE
  5
144
330
1F
100
AcDbEntity
  8
0
  6
Continuous
 62
     2
100
AcDbLine
 10
458.7
 20
211.7
 30
0.0
 11
458.7
 21
216.3
 31
0.0
  0
LINE
  5
145
330
1F
100
AcDbEntity
  8
0
  6
Continuous
 62
     2
100
AcDbLine
 10
427.7
 20
231.764101615
 30
0.0
 11
424.7
 21
230.032050808
 31
0.0
  0
LINE
  5
146
330
1F
100
AcDbEntity
  8
0
  6
Continuous
 62
     2
100
AcDbLine
 10
424.7
 20
230.032050808
 30
0.0
 11
424.7
 21
226.567949192
 31
0.0
  0
LINE
  5
147
330
1F
100
AcDbEntity
  8
0
  6
Continuous
 62
     2
100
AcDbLine
 10
424.7
 20
226.567949192
 30
0.0
 11
427.7
 21
224.835898385
 31
0.0
  0
LINE
  5
148
330
1F
100
AcDbEntity
  8
0
  6
Continuous
 62
     2
100
AcDbLine
 10
430.7
 20
230.032050808
 30
0.0
 11
427.7
 21
231.764101615
 31
0.0
  0
CIRCLE
  5
149
330
1F
100
AcDbEntity
  8
0
  6
Continuous
 62
     2
100
AcDbCircle
 10
427.7
 20
228.3
 30
0.0
 40
6.5
  0
CIRCLE
  5
14A
330
1F
100
AcDbEntity
  8
0
  6
Continuous
 62
     2
100
AcDbCircle
 10
427.7
 20
228.3
 30
0.0
 40
8.0
  0
LINE
  5
14B
330
1F
100
AcDbEntity
  8
0
  6
Continuous
 62
     2
100
AcDbLine
 10
430.7
 20
226.567949192
 30
0.0
 11
430.7
 21
230.032050808
 31
0.0
  0
LINE
  5
14C
330
1F
100
AcDbEntity
  8
0
  6
Continuous
 62
     2
100
AcDbLine
 10
427.7
 20
224.835898385
 30
0.0
 11
430.7
 21
226.567949192
 31
0.0
  0
CIRCLE
  5
14D
330
1F
100
AcDbEntity
  8
0
  6
Continuous
 62
     2
100
AcDbCircle
 10
465.7
 20
261.3
 30
0.0
 40
3.5
  0
LINE
  5
14E
330
1F
100
AcDbEntity
  8
0
  6
Continuous
 62
     2
100
AcDbLine
 10
465.7
 20
263.032050808
 30
0.0
 11
464.2
 21
262.166025404
 31
0.0
  0
LINE
  5
14F
330
1F
100
AcDbEntity
  8
0
  6
Continuous
 62
     2
100
AcDbLine
 10
464.2
 20
262.166025404
 30
0.0
 11
464.2
 21
260.433974596
 31
0.0
  0
LINE
  5
150
330
1F
100
AcDbEntity
  8
0
  6
Continuous
 62
     2
100
AcDbLine
 10
464.2
 20
260.433974596
 30
0.0
 11
465.7
 21
259.567949192
 31
0.0
  0
LINE
  5
151
330
1F
100
AcDbEntity
  8
0
  6
Continuous
 62
     2
100
AcDbLine
 10
465.7
 20
259.567949192
 30
0.0
 11
467.2
 21
260.433974596
 31
0.0
  0
LINE
  5
152
330
1F
100
AcDbEntity
  8
0
  6
Continuous
 62
     2
100
AcDbLine
 10
467.2
 20
260.433974596
 30
0.0
 11
467.2
 21
262.166025404
 31
0.0
  0
LINE
  5
153
330
1F
100
AcDbEntity
  8
0
  6
Continuous
 62
     2
100
AcDbLine
 10
467.2
 20
262.166025404
 30
0.0
 11
465.7
 21
263.032050808
 31
0.0
  0
CIRCLE
  5
154
330
1F
100
AcDbEntity
  8
0
  6
Continuous
 62
     2
100
AcDbCircle
 10
465.7
 20
261.3
 30
0.0
 40
4.0
  0
CIRCLE
  5
155
330
1F
100
AcDbEntity
  8
0
  6
Continuous
 62
     2
100
AcDbCircle
 10
429.7
 20
261.3
 30
0.0
 40
3.5
  0
LINE
  5
156
330
1F
100
AcDbEntity
  8
0
  6
Continuous
 62
     2
100
AcDbLine
 10
429.7
 20
259.567949192
 30
0.0
 11
428.2
 21
260.433974596
 31
0.0
  0
LINE
  5
157
330
1F
100
AcDbEntity
  8
0
  6
Continuous
 62
     2
100
AcDbLine
 10
428.2
 20
260.433974596
 30
0.0
 11
428.2
 21
262.166025404
 31
0.0
  0
LINE
  5
158
330
1F
100
AcDbEntity
  8
0
  6
Continuous
 62
     2
100
AcDbLine
 10
428.2
 20
262.166025404
 30
0.0
 11
429.7
 21
263.032050808
 31
0.0
  0
CIRCLE
  5
159
330
1F
100
AcDbEntity
  8
0
  6
Continuous
 62
     2
100
AcDbCircle
 10
429.7
 20
261.3
 30
0.0
 40
4.0
  0
CIRCLE
  5
15A
330
1F
100
AcDbEntity
  8
0
  6
Continuous
 62
     2
100
AcDbCircle
 10
412.7
 20
286.3
 30
0.0
 40
4.0
  0
CIRCLE
  5
15B
330
1F
100
AcDbEntity
  8
0
  6
Continuous
 62
     2
100
AcDbCircle
 10
482.7
 20
316.3
 30
0.0
 40
4.0
  0
ARC
  5
15C
330
1F
100
AcDbEntity
  8
0
  6
Continuous
 62
     1
100
AcDbCircle
 10
470.15
 20
271.25
 30
0.0
 40
0.5
100
AcDbArc
 50
180.0
 51
270.0
  0
ARC
  5
15D
330
1F
100
AcDbEntity
  8
0
  6
Continuous
 62
     1
100
AcDbCircle
 10
471.7
 20
270.15
 30
0.0
 40
1.0
100
AcDbArc
 50
90.0
 51
180.0
  0
LINE
  5
15E
330
1F
100
AcDbEntity
  8
0
  6
Continuous
 62
     1
100
AcDbLine
 10
469.65
 20
271.25
 30
0.0
 11
469.65
 21
286.9
 31
0.0
  0
LINE
  5
15F
330
1F
100
AcDbEntity
  8
0
  6
Continuous
 62
     1
100
AcDbLine
 10
465.7
 20
256.3
 30
0.0
 11
470.7
 21
256.3
 31
0.0
  0
LINE
  5
160
330
1F
100
AcDbEntity
  8
0
  6
Continuous
 62
     1
100
AcDbLine
 10
470.7
 20
253.3
 30
0.0
 11
470.7
 21
216.8
 31
0.0
  0
LINE
  5
161
330
1F
100
AcDbEntity
  8
0
  6
Continuous
 62
     1
100
AcDbLine
 10
470.7
 20
270.3
 30
0.0
 11
470.7
 21
253.3
 31
0.0
  0
LINE
  5
162
330
1F
100
AcDbEntity
  8
0
  6
Continuous
 62
     1
100
AcDbLine
 10
470.7
 20
266.3
 30
0.0
 11
465.7
 21
266.3
 31
0.0
  0
ARC
  5
163
330
1F
100
AcDbEntity
  8
0
  6
Continuous
 62
     1
100
AcDbCircle
 10
465.7
 20
261.3
 30
0.0
 40
5.0
100
AcDbArc
 50
90.0
 51
270.0
  0
LINE
  5
164
330
1F
100
AcDbEntity
  8
0
  6
Continuous
 62
     1
100
AcDbLine
 10
429.7
 20
256.3
 30
0.0
 11
424.7
 21
256.3
 31
0.0
  0
LINE
  5
165
330
1F
100
AcDbEntity
  8
0
  6
Continuous
 62
     1
100
AcDbLine
 10
424.7
 20
239.95
 30
0.0
 11
424.7
 21
253.3
 31
0.0
  0
LINE
  5
166
330
1F
100
AcDbEntity
  8
0
  6
Continuous
 62
     1
100
AcDbLine
 10
424.7
 20
240.3
 30
0.0
 11
433.2
 21
240.3
 31
0.0
  0
ARC
  5
167
330
1F
100
AcDbEntity
  8
0
  6
Continuous
 62
     1
100
AcDbCircle
 10
427.7
 20
228.3
 30
0.0
 40
12.0
100
AcDbArc
 50
90.0
 51
270.0
  0
LINE
  5
168
330
1F
100
AcDbEntity
  8
0
  6
Continuous
 62
     1
100
AcDbLine
 10
424.7
 20
253.3
 30
0.0
 11
470.7
 21
253.3
 31
0.0
  0
LINE
  5
169
330
1F
100
AcDbEntity
  8
0
  6
Continuous
 62
     1
100
AcDbLine
 10
424.7
 20
253.1
 30
0.0
 11
470.7
 21
253.1
 31
0.0
  0
ARC
  5
16A
330
1F
100
AcDbEntity
  8
0
  6
Continuous
 62
     1
100
AcDbCircle
 10
429.7
 20
261.3
 30
0.0
 40
5.0
100
AcDbArc
 50
270.0
 51
90.0
  0
LINE
  5
16B
330
1F
100
AcDbEntity
  8
0
  6
Continuous
 62
     1
100
AcDbLine
 10
424.7
 20
266.3
 30
0.0
 11
429.7
 21
266.3
 31
0.0
  0
ARC
  5
16C
330
1F
100
AcDbEntity
  8
0
  6
Continuous
 62
     1
100
AcDbCircle
 10
429.7
 20
270.75
 30
0.0
 40
0.5
100
AcDbArc
 50
270.0
 51
0.0
  0
LINE
  5
16D
330
1F
100
AcDbEntity
  8
0
  6
Continuous
 62
     1
100
AcDbLine
 10
406.405904774
 20
276.470370869
 30
0.0
 11
429.7
 21
270.228736864
 31
0.0
  0
ARC
  5
16E
330
1F
100
AcDbEntity
  8
0
  6
Continuous
 62
     1
100
AcDbCircle
 10
423.7
 20
270.85
 30
0.0
 40
1.0
100
AcDbArc
 50
0.0
 51
90.0
  0
LINE
  5
16F
330
1F
100
AcDbEntity
  8
0
  6
Continuous
 62
     1
100
AcDbLine
 10
430.2
 20
282.3
 30
0.0
 11
430.2
 21
270.75
 31
0.0
  0
LINE
  5
170
330
1F
100
AcDbEntity
  8
0
  6
Continuous
 62
     1
100
AcDbLine
 10
470.7
 20
269.3
 30
0.0
 11
424.7
 21
269.3
 31
0.0
  0
LINE
  5
171
330
1F
100
AcDbEntity
  8
0
  6
Continuous
 62
     1
100
AcDbLine
 10
470.7
 20
269.5
 30
0.0
 11
424.7
 21
269.5
 31
0.0
  0
LINE
  5
172
330
1F
100
AcDbEntity
  8
0
  6
Continuous
 62
     1
100
AcDbLine
 10
424.7
 20
253.3
 30
0.0
 11
424.7
 21
270.85
 31
0.0
  0
ARC
  5
173
330
1F
100
AcDbEntity
  8
0
  6
Continuous
 62
     1
100
AcDbCircle
 10
490.7
 20
278.3
 30
0.0
 40
2.0
100
AcDbArc
 50
270.0
 51
0.0
  0
LINE
  5
174
330
1F
100
AcDbEntity
  8
0
  6
Continuous
 62
     1
100
AcDbLine
 10
491.21763809
 20
276.368148347
 30
0.0
 11
470.15
 21
270.723091735
 31
0.0
  0
LINE
  5
175
330
1F
100
AcDbEntity
  8
0
  6
Continuous
 62
     1
100
AcDbLine
 10
492.7
 20
296.3
 30
0.0
 11
492.7
 21
278.3
 31
0.0
  0
LINE
  5
176
330
1F
100
AcDbEntity
  8
0
  6
Continuous
 62
     1
100
AcDbLine
 10
464.7
 20
290.3
 30
0.0
 11
464.7
 21
288.8
 31
0.0
  0
ARC
  5
177
330
1F
100
AcDbEntity
  8
0
  6
Continuous
 62
     1
100
AcDbCircle
 10
465.7
 20
290.3
 30
0.0
 40
1.0
100
AcDbArc
 50
90.0
 51
180.0
  0
LINE
  5
178
330
1F
100
AcDbEntity
  8
0
  6
Continuous
 62
     1
100
AcDbLine
 10
464.7
 20
288.8
 30
0.0
 11
463.2
 21
288.8
 31
0.0
  0
LINE
  5
179
330
1F
100
AcDbEntity
  8
0
  6
Continuous
 62
     1
100
AcDbLine
 10
469.7
 20
293.8
 30
0.0
 11
468.2
 21
293.8
 31
0.0
  0
LINE
  5
17A
330
1F
100
AcDbEntity
  8
0
  6
Continuous
 62
     1
100
AcDbLine
 10
467.2
 20
292.8
 30
0.0
 11
467.2
 21
291.3
 31
0.0
  0
ARC
  5
17B
330
1F
100
AcDbEntity
  8
0
  6
Continuous
 62
     1
100
AcDbCircle
 10
468.2
 20
292.8
 30
0.0
 40
1.0
100
AcDbArc
 50
90.0
 51
180.0
  0
LINE
  5
17C
330
1F
100
AcDbEntity
  8
0
  6
Continuous
 62
     1
100
AcDbLine
 10
467.2
 20
291.3
 30
0.0
 11
465.7
 21
291.3
 31
0.0
  0
LINE
  5
17D
330
1F
100
AcDbEntity
  8
0
  6
Continuous
 62
     1
100
AcDbLine
 10
469.7
 20
295.3
 30
0.0
 11
469.7
 21
293.8
 31
0.0
  0
ARC
  5
17E
330
1F
100
AcDbEntity
  8
0
  6
Continuous
 62
     1
100
AcDbCircle
 10
470.7
 20
295.3
 30
0.0
 40
1.0
100
AcDbArc
 50
90.0
 51
180.0
  0
LINE
  5
17F
330
1F
100
AcDbEntity
  8
0
  6
Continuous
 62
     1
100
AcDbLine
 10
462.549242405
 20
279.612279964
 30
0.0
 11
476.75
 21
293.813037559
 31
0.0
  0
LINE
  5
180
330
1F
100
AcDbEntity
  8
0
  6
Continuous
 62
     1
100
AcDbLine
 10
492.7
 20
296.3
 30
0.0
 11
470.7
 21
296.3
 31
0.0
  0
LINE
  5
181
330
1F
100
AcDbEntity
  8
0
  6
Continuous
 62
     1
100
AcDbLine
 10
459.7
 20
283.8
 30
0.0
 11
458.2
 21
283.8
 31
0.0
  0
LINE
  5
182
330
1F
100
AcDbEntity
  8
0
  6
Continuous
 62
     1
100
AcDbLine
 10
462.2
 20
286.3
 30
0.0
 11
460.7
 21
286.3
 31
0.0
  0
LINE
  5
183
330
1F
100
AcDbEntity
  8
0
  6
Continuous
 62
     1
100
AcDbLine
 10
459.7
 20
285.3
 30
0.0
 11
459.7
 21
283.8
 31
0.0
  0
ARC
  5
184
330
1F
100
AcDbEntity
  8
0
  6
Continuous
 62
     1
100
AcDbCircle
 10
460.7
 20
285.3
 30
0.0
 40
1.0
100
AcDbArc
 50
90.0
 51
180.0
  0
LINE
  5
185
330
1F
100
AcDbEntity
  8
0
  6
Continuous
 62
     1
100
AcDbLine
 10
462.2
 20
287.8
 30
0.0
 11
462.2
 21
286.3
 31
0.0
  0
ARC
  5
186
330
1F
100
AcDbEntity
  8
0
  6
Continuous
 62
     1
100
AcDbCircle
 10
463.2
 20
287.8
 30
0.0
 40
1.0
100
AcDbArc
 50
90.0
 51
180.0
  0
LINE
  5
187
330
1F
100
AcDbEntity
  8
0
  6
Continuous
 62
     1
100
AcDbLine
 10
435.7
 20
283.8
 30
0.0
 11
437.2
 21
283.8
 31
0.0
  0
ARC
  5
188
330
1F
100
AcDbEntity
  8
0
  6
Continuous
 62
     1
100
AcDbCircle
 10
447.7
 20
294.513203436
 30
0.0
 40
15.0
100
AcDbArc
 50
225.712541871
 51
314.424167793
  0
LINE
  5
189
330
1F
100
AcDbEntity
  8
0
  6
Continuous
 62
     1
100
AcDbLine
 10
425.7
 20
293.8
 30
0.0
 11
427.2
 21
293.8
 31
0.0
  0
LINE
  5
18A
330
1F
100
AcDbEntity
  8
0
  6
Continuous
 62
     1
100
AcDbLine
 10
428.2
 20
292.8
 30
0.0
 11
428.2
 21
291.3
 31
0.0
  0
ARC
  5
18B
330
1F
100
AcDbEntity
  8
0
  6
Continuous
 62
     1
100
AcDbCircle
 10
427.2
 20
292.8
 30
0.0
 40
1.0
100
AcDbArc
 50
0.0
 51
90.0
  0
LINE
  5
18C
330
1F
100
AcDbEntity
  8
0
  6
Continuous
 62
     1
100
AcDbLine
 10
428.2
 20
291.3
 30
0.0
 11
429.7
 21
291.3
 31
0.0
  0
LINE
  5
18D
330
1F
100
AcDbEntity
  8
0
  6
Continuous
 62
     1
100
AcDbLine
 10
430.7
 20
290.3
 30
0.0
 11
430.7
 21
288.8
 31
0.0
  0
ARC
  5
18E
330
1F
100
AcDbEntity
  8
0
  6
Continuous
 62
     1
100
AcDbCircle
 10
429.7
 20
290.3
 30
0.0
 40
1.0
100
AcDbArc
 50
0.0
 51
90.0
  0
LINE
  5
18F
330
1F
100
AcDbEntity
  8
0
  6
Continuous
 62
     1
100
AcDbLine
 10
425.7
 20
295.3
 30
0.0
 11
425.7
 21
293.8
 31
0.0
  0
ARC
  5
190
330
1F
100
AcDbEntity
  8
0
  6
Continuous
 62
     1
100
AcDbCircle
 10
424.7
 20
295.3
 30
0.0
 40
1.0
100
AcDbArc
 50
0.0
 51
90.0
  0
LINE
  5
191
330
1F
100
AcDbEntity
  8
0
  6
Continuous
 62
     1
100
AcDbLine
 10
430.7
 20
288.8
 30
0.0
 11
432.2
 21
288.8
 31
0.0
  0
LINE
  5
192
330
1F
100
AcDbEntity
  8
0
  6
Continuous
 62
     1
100
AcDbLine
 10
433.2
 20
287.8
 30
0.0
 11
433.2
 21
286.3
 31
0.0
  0
ARC
  5
193
330
1F
100
AcDbEntity
  8
0
  6
Continuous
 62
     1
100
AcDbCircle
 10
432.2
 20
287.8
 30
0.0
 40
1.0
100
AcDbArc
 50
0.0
 51
90.0
  0
LINE
  5
194
330
1F
100
AcDbEntity
  8
0
  6
Continuous
 62
     1
100
AcDbLine
 10
433.2
 20
286.3
 30
0.0
 11
434.7
 21
286.3
 31
0.0
  0
LINE
  5
195
330
1F
100
AcDbEntity
  8
0
  6
Continuous
 62
     1
100
AcDbLine
 10
435.7
 20
285.3
 30
0.0
 11
435.7
 21
283.8
 31
0.0
  0
ARC
  5
196
330
1F
100
AcDbEntity
  8
0
  6
Continuous
 62
     1
100
AcDbCircle
 10
434.7
 20
285.3
 30
0.0
 40
1.0
100
AcDbArc
 50
0.0
 51
90.0
  0
LINE
  5
197
330
1F
100
AcDbEntity
  8
0
  6
Continuous
 62
     1
100
AcDbLine
 10
418.663037559
 20
293.8
 30
0.0
 11
432.850757595
 21
279.612279964
 31
0.0
  0
LINE
  5
198
330
1F
100
AcDbEntity
  8
0
  6
Continuous
 62
     1
100
AcDbLine
 10
402.7
 20
296.3
 30
0.0
 11
402.7
 21
281.3
 31
0.0
  0
ARC
  5
199
330
1F
100
AcDbEntity
  8
0
  6
Continuous
 62
     1
100
AcDbCircle
 10
407.7
 20
281.3
 30
0.0
 40
5.0
100
AcDbArc
 50
180.0
 51
254.845931949
  0
LINE
  5
19A
330
1F
100
AcDbEntity
  8
0
  6
Continuous
 62
     1
100
AcDbLine
 10
424.7
 20
296.3
 30
0.0
 11
402.7
 21
296.3
 31
0.0
  0
ARC
  5
19B
330
1F
100
AcDbEntity
  8
0
  6
Continuous
 62
     1
100
AcDbCircle
 10
399.7
 20
318.3
 30
0.0
 40
2.0
100
AcDbArc
 50
90.0
 51
180.0
  0
LINE
  5
19C
330
1F
100
AcDbEntity
  8
0
  6
Continuous
 62
     1
100
AcDbLine
 10
397.7
 20
308.3
 30
0.0
 11
397.7
 21
318.3
 31
0.0
  0
ARC
  5
19D
330
1F
100
AcDbEntity
  8
0
  6
Continuous
 62
     1
100
AcDbCircle
 10
399.7
 20
308.3
 30
0.0
 40
2.0
100
AcDbArc
 50
180.0
 51
270.0
  0
LINE
  5
19E
330
1F
100
AcDbEntity
  8
0
  6
Continuous
 62
     1
100
AcDbLine
 10
399.7
 20
320.3
 30
0.0
 11
409.2
 21
320.3
 31
0.0
  0
LINE
  5
19F
330
1F
100
AcDbEntity
  8
0
  6
Continuous
 62
     1
100
AcDbLine
 10
435.7
 20
318.8
 30
0.0
 11
437.2
 21
318.8
 31
0.0
  0
LINE
  5
1A0
330
1F
100
AcDbEntity
  8
0
  6
Continuous
 62
     1
100
AcDbLine
 10
430.7
 20
312.3
 30
0.0
 11
430.7
 21
313.8
 31
0.0
  0
ARC
  5
1A1
330
1F
100
AcDbEntity
  8
0
  6
Continuous
 62
     1
100
AcDbCircle
 10
429.7
 20
312.3
 30
0.0
 40
1.0
100
AcDbArc
 50
270.0
 51
0.0
  0
LINE
  5
1A2
330
1F
100
AcDbEntity
  8
0
  6
Continuous
 62
     1
100
AcDbLine
 10
430.7
 20
313.8
 30
0.0
 11
432.2
 21
313.8
 31
0.0
  0
LINE
  5
1A3
330
1F
100
AcDbEntity
  8
0
  6
Continuous
 62
     1
100
AcDbLine
 10
433.2
 20
314.8
 30
0.0
 11
433.2
 21
316.3
 31
0.0
  0
ARC
  5
1A4
330
1F
100
AcDbEntity
  8
0
  6
Continuous
 62
     1
100
AcDbCircle
 10
432.2
 20
314.8
 30
0.0
 40
1.0
100
AcDbArc
 50
270.0
 51
0.0
  0
LINE
  5
1A5
330
1F
100
AcDbEntity
  8
0
  6
Continuous
 62
     1
100
AcDbLine
 10
433.2
 20
316.3
 30
0.0
 11
434.7
 21
316.3
 31
0.0
  0
LINE
  5
1A6
330
1F
100
AcDbEntity
  8
0
  6
Continuous
 62
     1
100
AcDbLine
 10
435.7
 20
317.3
 30
0.0
 11
435.7
 21
318.8
 31
0.0
  0
ARC
  5
1A7
330
1F
100
AcDbEntity
  8
0
  6
Continuous
 62
     1
100
AcDbCircle
 10
434.7
 20
317.3
 30
0.0
 40
1.0
100
AcDbArc
 50
270.0
 51
0.0
  0
LINE
  5
1A8
330
1F
100
AcDbEntity
  8
0
  6
Continuous
 62
     1
100
AcDbLine
 10
425.7
 20
308.8
 30
0.0
 11
427.2
 21
308.8
 31
0.0
  0
LINE
  5
1A9
330
1F
100
AcDbEntity
  8
0
  6
Continuous
 62
     1
100
AcDbLine
 10
428.2
 20
309.8
 30
0.0
 11
428.2
 21
311.3
 31
0.0
  0
ARC
  5
1AA
330
1F
100
AcDbEntity
  8
0
  6
Continuous
 62
     1
100
AcDbCircle
 10
427.2
 20
309.8
 30
0.0
 40
1.0
100
AcDbArc
 50
270.0
 51
0.0
  0
LINE
  5
1AB
330
1F
100
AcDbEntity
  8
0
  6
Continuous
 62
     1
100
AcDbLine
 10
428.2
 20
311.3
 30
0.0
 11
429.7
 21
311.3
 31
0.0
  0
LINE
  5
1AC
330
1F
100
AcDbEntity
  8
0
  6
Continuous
 62
     1
100
AcDbLine
 10
425.7
 20
307.3
 30
0.0
 11
425.7
 21
308.8
 31
0.0
  0
ARC
  5
1AD
330
1F
100
AcDbEntity
  8
0
  6
Continuous
 62
     1
100
AcDbCircle
 10
424.7
 20
307.3
 30
0.0
 40
1.0
100
AcDbArc
 50
270.0
 51
0.0
  0
LINE
  5
1AE
330
1F
100
AcDbEntity
  8
0
  6
Continuous
 62
     1
100
AcDbLine
 10
432.850757595
 20
322.987720036
 30
0.0
 11
418.65
 21
308.786962441
 31
0.0
  0
LINE
  5
1AF
330
1F
100
AcDbEntity
  8
0
  6
Continuous
 62
     1
100
AcDbLine
 10
399.7
 20
306.3
 30
0.0
 11
424.7
 21
306.3
 31
0.0
  0
LINE
  5
1B0
330
1F
100
AcDbEntity
  8
0
  6
Continuous
 62
     1
100
AcDbLine
 10
459.7
 20
318.8
 30
0.0
 11
458.2
 21
318.8
 31
0.0
  0
LINE
  5
1B1
330
1F
100
AcDbEntity
  8
0
  6
Continuous
 62
     1
100
AcDbLine
 10
469.7
 20
308.8
 30
0.0
 11
468.2
 21
308.8
 31
0.0
  0
LINE
  5
1B2
330
1F
100
AcDbEntity
  8
0
  6
Continuous
 62
     1
100
AcDbLine
 10
467.2
 20
309.8
 30
0.0
 11
467.2
 21
311.3
 31
0.0
  0
ARC
  5
1B3
330
1F
100
AcDbEntity
  8
0
  6
Continuous
 62
     1
100
AcDbCircle
 10
468.2
 20
309.8
 30
0.0
 40
1.0
100
AcDbArc
 50
180.0
 51
270.0
  0
LINE
  5
1B4
330
1F
100
AcDbEntity
  8
0
  6
Continuous
 62
     1
100
AcDbLine
 10
467.2
 20
311.3
 30
0.0
 11
465.7
 21
311.3
 31
0.0
  0
LINE
  5
1B5
330
1F
100
AcDbEntity
  8
0
  6
Continuous
 62
     1
100
AcDbLine
 10
464.7
 20
312.3
 30
0.0
 11
464.7
 21
313.8
 31
0.0
  0
ARC
  5
1B6
330
1F
100
AcDbEntity
  8
0
  6
Continuous
 62
     1
100
AcDbCircle
 10
465.7
 20
312.3
 30
0.0
 40
1.0
100
AcDbArc
 50
180.0
 51
270.0
  0
LINE
  5
1B7
330
1F
100
AcDbEntity
  8
0
  6
Continuous
 62
     1
100
AcDbLine
 10
464.7
 20
313.8
 30
0.0
 11
463.2
 21
313.8
 31
0.0
  0
LINE
  5
1B8
330
1F
100
AcDbEntity
  8
0
  6
Continuous
 62
     1
100
AcDbLine
 10
462.2
 20
314.8
 30
0.0
 11
462.2
 21
316.3
 31
0.0
  0
ARC
  5
1B9
330
1F
100
AcDbEntity
  8
0
  6
Continuous
 62
     1
100
AcDbCircle
 10
463.2
 20
314.8
 30
0.0
 40
1.0
100
AcDbArc
 50
180.0
 51
270.0
  0
LINE
  5
1BA
330
1F
100
AcDbEntity
  8
0
  6
Continuous
 62
     1
100
AcDbLine
 10
462.2
 20
316.3
 30
0.0
 11
460.7
 21
316.3
 31
0.0
  0
LINE
  5
1BB
330
1F
100
AcDbEntity
  8
0
  6
Continuous
 62
     1
100
AcDbLine
 10
459.7
 20
317.3
 30
0.0
 11
459.7
 21
318.8
 31
0.0
  0
ARC
  5
1BC
330
1F
100
AcDbEntity
  8
0
  6
Continuous
 62
     1
100
AcDbCircle
 10
460.7
 20
317.3
 30
0.0
 40
1.0
100
AcDbArc
 50
180.0
 51
270.0
  0
LINE
  5
1BD
330
1F
100
AcDbEntity
  8
0
  6
Continuous
 62
     1
100
AcDbLine
 10
470.7
 20
306.3
 30
0.0
 11
482.7
 21
306.3
 31
0.0
  0
LINE
  5
1BE
330
1F
100
AcDbEntity
  8
0
  6
Continuous
 62
     1
100
AcDbLine
 10
469.7
 20
307.3
 30
0.0
 11
469.7
 21
308.8
 31
0.0
  0
ARC
  5
1BF
330
1F
100
AcDbEntity
  8
0
  6
Continuous
 62
     1
100
AcDbCircle
 10
470.7
 20
307.3
 30
0.0
 40
1.0
100
AcDbArc
 50
180.0
 51
270.0
  0
LINE
  5
1C0
330
1F
100
AcDbEntity
  8
0
  6
Continuous
 62
     1
100
AcDbLine
 10
476.736962441
 20
308.8
 30
0.0
 11
462.549242405
 21
322.987720036
 31
0.0
  0
ARC
  5
1C1
330
1F
100
AcDbEntity
  8
0
  6
Continuous
 62
     1
100
AcDbCircle
 10
475.7
 20
307.8
 30
0.0
 40
1.5
100
AcDbArc
 50
0.0
 51
45.0
  0
LINE
  5
1C2
330
1F
100
AcDbEntity
  8
0
  6
Continuous
 62
     1
100
AcDbLine
 10
477.2
 20
306.3
 30
0.0
 11
477.2
 21
307.8
 31
0.0
  0
ARC
  5
1C3
330
1F
100
AcDbEntity
  8
0
  6
Continuous
 62
     1
100
AcDbCircle
 10
447.7
 20
308.086796564
 30
0.0
 40
15.0
100
AcDbArc
 50
45.712541871
 51
134.424167793
  0
ARC
  5
1C4
330
1F
100
AcDbEntity
  8
0
  6
Continuous
 62
     1
100
AcDbCircle
 10
476.1
 20
336.3
 30
0.0
 40
10.0
100
AcDbArc
 50
225.0
 51
270.0
  0
LINE
  5
1C5
330
1F
100
AcDbEntity
  8
0
  6
Continuous
 62
     1
100
AcDbLine
 10
468.9
 20
329.3
 30
0.0
 11
469.0
 21
329.2
 31
0.0
  0
LINE
  5
1C6
330
1F
100
AcDbEntity
  8
0
  6
Continuous
 62
     1
100
AcDbLine
 10
482.7
 20
326.3
 30
0.0
 11
476.225
 21
326.3
 31
0.0
  0
ARC
  5
1C7
330
1F
100
AcDbEntity
  8
0
  6
Continuous
 62
     1
100
AcDbCircle
 10
447.7
 20
308.138477631
 30
0.0
 40
21.0
100
AcDbArc
 50
45.0
 51
135.0
  0
ARC
  5
1C8
330
1F
100
AcDbEntity
  8
0
  6
Continuous
 62
     1
100
AcDbCircle
 10
482.7
 20
316.3
 30
0.0
 40
10.0
100
AcDbArc
 50
270.0
 51
90.0
  0
ARC
  5
1C9
330
1F
100
AcDbEntity
  8
0
  6
Continuous
 62
     1
100
AcDbCircle
 10
409.2
 20
340.3
 30
0.0
 40
20.0
100
AcDbArc
 50
270.0
 51
315.0
  0
LINE
  5
1CA
330
1F
100
AcDbEntity
  8
0
  6
Continuous
 62
     1
100
AcDbLine
 10
426.5
 20
329.3
 30
0.0
 11
423.2
 21
326.0
 31
0.0
  0
ARC
  5
1CB
330
1F
100
AcDbEntity
  8
0
  6
Continuous
 62
     1
100
AcDbCircle
 10
447.7
 20
308.1
 30
0.0
 40
30.0
100
AcDbArc
 50
45.0
 51
135.13481335
  0
LINE
  5
1CC
330
1F
100
AcDbEntity
  8
0
  6
Continuous
 62
     2
100
AcDbLine
 10
431.2
 20
262.166025404
 30
0.0
 11
431.2
 21
260.433974596
 31
0.0
  0
LINE
  5
1CD
330
1F
100
AcDbEntity
  8
0
  6
Continuous
 62
     2
100
AcDbLine
 10
429.7
 20
263.032050808
 30
0.0
 11
431.2
 21
262.166025404
 31
0.0
  0
LINE
  5
1CE
330
1F
100
AcDbEntity
  8
0
  6
Continuous
 62
     2
100
AcDbLine
 10
431.2
 20
260.433974596
 30
0.0
 11
429.7
 21
259.567949192
 31
0.0
  0
LINE
  5
1D0
330
1F
100
AcDbEntity
  8
0
  6
LTYPE5
 62
     2
100
AcDbLine
 10
413.834723752
 20
249.544559559
 30
0.0
 11
414.645883327
 21
248.386103628
 31
0.0
  0
LINE
  5
1D1
330
1F
100
AcDbEntity
  8
0
  6
LTYPE5
 62
     2
100
AcDbLine
 10
413.834723752
 20
249.544559559
 30
0.0
 11
399.062607456
 21
252.149282224
 31
0.0
  0
ARC
  5
1D2
330
1F
100
AcDbEntity
  8
0
  6
LTYPE5
 62
     2
100
AcDbCircle
 10
408.979014361
 20
240.722467241
 30
0.0
 40
9.53125
100
AcDbArc
 50
53.51896017
 51
106.48103983
  0
LINE
  5
1D3
330
1F
100
AcDbEntity
  8
0
  6
LTYPE5
 62
     2
100
AcDbLine
 10
399.062607456
 20
252.149282224
 30
0.0
 11
397.904151526
 21
251.338122649
 31
0.0
  0
ARC
  5
1D4
330
1F
100
AcDbEntity
  8
0
  6
LTYPE5
 62
     2
100
AcDbCircle
 10
400.60814846
 20
242.198476751
 30
0.0
 40
9.53125
100
AcDbArc
 50
53.51896017
 51
106.48103983
  0
LINE
  5
1D5
330
1F
100
AcDbEntity
  8
0
  6
LTYPE5
 62
     2
100
AcDbLine
 10
411.520216129
 20
230.659564074
 30
0.0
 11
414.645883327
 21
248.386103628
 31
0.0
  0
LINE
  5
1D6
330
1F
100
AcDbEntity
  8
0
  6
LTYPE5
 62
     2
100
AcDbLine
 10
406.937463122
 20
276.654111304
 30
0.0
 11
402.509434592
 21
251.541513602
 31
0.0
  0
LINE
  5
1D7
330
1F
100
AcDbEntity
  8
0
  6
LTYPE5
 62
     2
100
AcDbLine
 10
410.387896616
 20
250.152328181
 30
0.0
 11
414.451263973
 21
273.196829601
 31
0.0
  0
LINE
  5
1D8
330
1F
100
AcDbEntity
  8
0
  6
LTYPE5
 62
     2
100
AcDbLine
 10
396.779044729
 20
219.042857753
 30
0.0
 11
397.590204304
 21
217.884401822
 31
0.0
  0
LINE
  5
1D9
330
1F
100
AcDbEntity
  8
0
  6
LTYPE5
 62
     2
100
AcDbLine
 10
397.590204304
 20
217.884401822
 30
0.0
 11
403.499050822
 21
216.842512756
 31
0.0
  0
LINE
  5
1DA
330
1F
100
AcDbEntity
  8
0
  6
LTYPE5
 62
     2
100
AcDbLine
 10
403.499050822
 20
216.842512756
 30
0.0
 11
404.657506753
 21
217.653672331
 31
0.0
  0
LINE
  5
1DB
330
1F
100
AcDbEntity
  8
0
  6
LTYPE5
 62
     2
100
AcDbLine
 10
410.361760198
 20
229.848404499
 30
0.0
 11
395.589643903
 21
232.453127164
 31
0.0
  0
LINE
  5
1DC
330
1F
100
AcDbEntity
  8
0
  6
LTYPE5
 62
     2
100
AcDbLine
 10
395.589643903
 20
232.453127164
 30
0.0
 11
394.778484328
 21
233.611583094
 31
0.0
  0
ARC
  5
1DD
330
1F
100
AcDbEntity
  8
0
  6
LTYPE5
 62
     2
100
AcDbCircle
 10
408.816219194
 20
239.799209972
 30
0.0
 40
9.53125
100
AcDbArc
 50
233.51896017
 51
286.48103983
  0
ARC
  5
1DE
330
1F
100
AcDbEntity
  8
0
  6
LTYPE5
 62
     2
100
AcDbCircle
 10
400.445353294
 20
241.275219482
 30
0.0
 40
9.53125
100
AcDbArc
 50
233.51896017
 51
286.48103983
  0
LINE
  5
1DF
330
1F
100
AcDbEntity
  8
0
  6
LTYPE5
 62
     2
100
AcDbLine
 10
399.036471039
 20
231.845358542
 30
0.0
 11
396.779044729
 21
219.042857753
 31
0.0
  0
LINE
  5
1E0
330
1F
100
AcDbEntity
  8
0
  6
LTYPE5
 62
     2
100
AcDbLine
 10
404.657506753
 20
217.653672331
 30
0.0
 11
406.914933063
 21
230.456173121
 31
0.0
  0
LINE
  5
1E1
330
1F
100
AcDbEntity
  8
0
  6
LTYPE5
 62
     2
100
AcDbLine
 10
394.778484328
 20
233.611583094
 30
0.0
 11
397.904151526
 21
251.338122649
 31
0.0
  0
LINE
  5
1E2
330
1F
100
AcDbEntity
  8
0
  6
LTYPE5
 62
     2
100
AcDbLine
 10
403.149350228
 20
232.135573584
 30
0.0
 11
406.275017426
 21
249.862113139
 31
0.0
  0
LINE
  5
1E3
330
1F
100
AcDbEntity
  8
0
  6
Continuous
 62
     2
100
AcDbLine
 10
405.2
 20
336.3
 30
0.0
 11
404.2
 21
335.3
 31
0.0
  0
LINE
  5
1E4
330
1F
100
AcDbEntity
  8
0
  6
Continuous
 62
     2
100
AcDbLine
 10
405.2
 20
336.3
 30
0.0
 11
420.2
 21
336.3
 31
0.0
  0
LINE
  5
1E5
330
1F
100
AcDbEntity
  8
0
  6
Continuous
 62
     2
100
AcDbLine
 10
420.2
 20
336.3
 30
0.0
 11
421.2
 21
335.3
 31
0.0
  0
ARC
  5
1E6
330
1F
100
AcDbEntity
  8
0
  6
Continuous
 62
     2
100
AcDbCircle
 10
408.45
 20
326.76875
 30
0.0
 40
9.53125
100
AcDbArc
 50
63.51896017
 51
116.48103983
  0
ARC
  5
1E7
330
1F
100
AcDbEntity
  8
0
  6
Continuous
 62
     2
100
AcDbCircle
 10
416.95
 20
326.76875
 30
0.0
 40
9.53125
100
AcDbArc
 50
63.51896017
 51
116.48103983
  0
LINE
  5
1E8
330
1F
100
AcDbEntity
  8
0
  6
Continuous
 62
     2
100
AcDbLine
 10
404.2
 20
335.3
 30
0.0
 11
404.2
 21
320.3
 31
0.0
  0
LINE
  5
1E9
330
1F
100
AcDbEntity
  8
0
  6
Continuous
 62
     2
100
AcDbLine
 10
421.2
 20
335.3
 30
0.0
 11
421.2
 21
324.5
 31
0.0
  0
LINE
  5
1EA
330
1F
100
AcDbEntity
  8
0
  6
Continuous
 62
     2
100
AcDbLine
 10
412.725
 20
335.25
 30
0.0
 11
412.725
 21
320.75
 31
0.0
  0
LINE
  5
1EB
330
1F
100
AcDbEntity
  8
0
  6
Continuous
 62
     2
100
AcDbLine
 10
416.7
 20
365.3
 30
0.0
 11
415.7
 21
366.3
 31
0.0
  0
LINE
  5
1EC
330
1F
100
AcDbEntity
  8
0
  6
Continuous
 62
     2
100
AcDbLine
 10
415.7
 20
366.3
 30
0.0
 11
409.7
 21
366.3
 31
0.0
  0
LINE
  5
1ED
330
1F
100
AcDbEntity
  8
0
  6
Continuous
 62
     2
100
AcDbLine
 10
409.7
 20
366.3
 30
0.0
 11
408.7
 21
365.3
 31
0.0
  0
LINE
  5
1EE
330
1F
100
AcDbEntity
  8
0
  6
Continuous
 62
     2
100
AcDbLine
 10
412.7
 20
336.3
 30
0.0
 11
419.2
 21
336.3
 31
0.0
  0
LINE
  5
1EF
330
1F
100
AcDbEntity
  8
0
  6
Continuous
 62
     2
100
AcDbLine
 10
419.2
 20
336.3
 30
0.0
 11
420.2
 21
337.3
 31
0.0
  0
LINE
  5
1F0
330
1F
100
AcDbEntity
  8
0
  6
Continuous
 62
     2
100
AcDbLine
 10
420.2
 20
337.3
 30
0.0
 11
420.2
 21
341.8
 31
0.0
  0
LINE
  5
1F1
330
1F
100
AcDbEntity
  8
0
  6
Continuous
 62
     2
100
AcDbLine
 10
420.2
 20
341.8
 30
0.0
 11
419.2
 21
342.8
 31
0.0
  0
LINE
  5
1F2
330
1F
100
AcDbEntity
  8
0
  6
Continuous
 62
     2
100
AcDbLine
 10
419.2
 20
342.8
 30
0.0
 11
406.2
 21
342.8
 31
0.0
  0
LINE
  5
1F3
330
1F
100
AcDbEntity
  8
0
  6
Continuous
 62
     2
100
AcDbLine
 10
406.2
 20
342.8
 30
0.0
 11
405.2
 21
341.8
 31
0.0
  0
LINE
  5
1F4
330
1F
100
AcDbEntity
  8
0
  6
Continuous
 62
     2
100
AcDbLine
 10
405.2
 20
341.8
 30
0.0
 11
405.2
 21
337.3
 31
0.0
  0
LINE
  5
1F5
330
1F
100
AcDbEntity
  8
0
  6
Continuous
 62
     2
100
AcDbLine
 10
405.2
 20
337.3
 30
0.0
 11
406.2
 21
336.3
 31
0.0
  0
LINE
  5
1F6
330
1F
100
AcDbEntity
  8
0
  6
Continuous
 62
     2
100
AcDbLine
 10
408.95
 20
341.8
 30
0.0
 11
408.95
 21
337.3
 31
0.0
  0
ARC
  5
1F7
330
1F
100
AcDbEntity
  8
0
  6
Continuous
 62
     2
100
AcDbCircle
 10
407.075
 20
340.5421875
 30
0.0
 40
2.2578125
100
AcDbArc
 50
33.855026128
 51
146.144973871
  0
ARC
  5
1F8
330
1F
100
AcDbEntity
  8
0
  6
Continuous
 62
     2
100
AcDbCircle
 10
407.075
 20
338.5578125
 30
0.0
 40
2.2578125
100
AcDbArc
 50
213.855026129
 51
326.144973872
  0
LINE
  5
1F9
330
1F
100
AcDbEntity
  8
0
  6
Continuous
 62
     2
100
AcDbLine
 10
416.45
 20
341.8
 30
0.0
 11
416.45
 21
337.3
 31
0.0
  0
ARC
  5
1FA
330
1F
100
AcDbEntity
  8
0
  6
Continuous
 62
     2
100
AcDbCircle
 10
418.325
 20
340.5421875
 30
0.0
 40
2.2578125
100
AcDbArc
 50
33.855026129
 51
146.144973872
  0
ARC
  5
1FB
330
1F
100
AcDbEntity
  8
0
  6
Continuous
 62
     2
100
AcDbCircle
 10
418.325
 20
338.5578125
 30
0.0
 40
2.2578125
100
AcDbArc
 50
213.855026128
 51
326.144973871
  0
ARC
  5
1FC
330
1F
100
AcDbEntity
  8
0
  6
Continuous
 62
     2
100
AcDbCircle
 10
412.7
 20
343.83125
 30
0.0
 40
7.53125
100
AcDbArc
 50
240.137165644
 51
299.862834356
  0
ARC
  5
1FD
330
1F
100
AcDbEntity
  8
0
  6
Continuous
 62
     2
100
AcDbCircle
 10
412.7
 20
335.26875
 30
0.0
 40
7.53125
100
AcDbArc
 50
60.137165644
 51
119.862834356
  0
LINE
  5
1FE
330
1F
100
AcDbEntity
  8
0
  6
Continuous
 62
     2
100
AcDbLine
 10
416.7
 20
342.8
 30
0.0
 11
416.7
 21
365.3
 31
0.0
  0
LINE
  5
1FF
330
1F
100
AcDbEntity
  8
0
  6
Continuous
 62
     2
100
AcDbLine
 10
408.7
 20
365.3
 30
0.0
 11
408.7
 21
342.8
 31
0.0
  0
LINE
  5
200
330
1F
100
AcDbEntity
  8
0
  6
Continuous
 62
     2
100
AcDbLine
 10
478.7
 20
247.3
 30
0.0
 11
479.7
 21
246.3
 31
0.0
  0
LINE
  5
201
330
1F
100
AcDbEntity
  8
0
  6
Continuous
 62
     2
100
AcDbLine
 10
479.7
 20
246.3
 30
0.0
 11
485.7
 21
246.3
 31
0.0
  0
LINE
  5
202
330
1F
100
AcDbEntity
  8
0
  6
Continuous
 62
     2
100
AcDbLine
 10
485.7
 20
246.3
 30
0.0
 11
486.7
 21
247.3
 31
0.0
  0
LINE
  5
203
330
1F
100
AcDbEntity
  8
0
  6
Continuous
 62
     2
100
AcDbLine
 10
486.7
 20
247.3
 30
0.0
 11
486.7
 21
275.2
 31
0.0
  0
LINE
  5
204
330
1F
100
AcDbEntity
  8
0
  6
Continuous
 62
     2
100
AcDbLine
 10
478.7
 20
272.9
 30
0.0
 11
478.7
 21
247.3
 31
0.0
  0
LINE
  5
205
330
1F
100
AcDbEntity
  8
0
  6
Continuous
 62
     2
100
AcDbLine
 10
486.7
 20
296.3
 30
0.0
 11
486.7
 21
307.3
 31
0.0
  0
LINE
  5
206
330
1F
100
AcDbEntity
  8
0
  6
Continuous
 62
     2
100
AcDbLine
 10
478.7
 20
306.3
 30
0.0
 11
478.7
 21
296.3
 31
0.0
  0
LINE
  5
207
330
1F
100
AcDbEntity
  8
0
  6
Continuous
 62
     2
100
AcDbLine
 10
408.7
 20
306.3
 30
0.0
 11
408.7
 21
296.3
 31
0.0
  0
LINE
  5
208
330
1F
100
AcDbEntity
  8
0
  6
Continuous
 62
     2
100
AcDbLine
 10
416.7
 20
296.3
 30
0.0
 11
416.7
 21
306.3
 31
0.0
  0
LINE
  5
209
330
1F
100
AcDbEntity
  8
0
  6
Continuous
 62
     2
100
AcDbLine
 10
200.7
 20
321.3
 30
0.0
 11
230.7
 21
321.3
 31
0.0
  0
LINE
  5
20A
330
1F
100
AcDbEntity
  8
0
  6
Continuous
 62
     2
100
AcDbLine
 10
230.7
 20
281.3
 30
0.0
 11
200.7
 21
281.3
 31
0.0
  0
LINE
  5
20B
330
1F
100
AcDbEntity
  8
0
  6
Continuous
 62
     2
100
AcDbLine
 10
230.7
 20
281.3
 30
0.0
 11
230.04375
 21
283.8
 31
0.0
  0
LINE
  5
20C
330
1F
100
AcDbEntity
  8
0
  6
Continuous
 62
     2
100
AcDbLine
 10
230.04375
 20
283.8
 30
0.0
 11
229.45
 21
286.3
 31
0.0
  0
LINE
  5
20D
330
1F
100
AcDbEntity
  8
0
  6
Continuous
 62
     2
100
AcDbLine
 10
229.45
 20
286.3
 30
0.0
 11
228.98125
 21
288.8
 31
0.0
  0
LINE
  5
20E
330
1F
100
AcDbEntity
  8
0
  6
Continuous
 62
     2
100
AcDbLine
 10
228.98125
 20
288.8
 30
0.0
 11
228.7
 21
291.3
 31
0.0
  0
LINE
  5
20F
330
1F
100
AcDbEntity
  8
0
  6
Continuous
 62
     2
100
AcDbLine
 10
228.7
 20
291.3
 30
0.0
 11
229.1375
 21
293.8
 31
0.0
  0
LINE
  5
210
330
1F
100
AcDbEntity
  8
0
  6
Continuous
 62
     2
100
AcDbLine
 10
229.1375
 20
293.8
 30
0.0
 11
229.7
 21
296.3
 31
0.0
  0
LINE
  5
211
330
1F
100
AcDbEntity
  8
0
  6
Continuous
 62
     2
100
AcDbLine
 10
229.7
 20
296.3
 30
0.0
 11
230.2625
 21
298.8
 31
0.0
  0
LINE
  5
212
330
1F
100
AcDbEntity
  8
0
  6
Continuous
 62
     2
100
AcDbLine
 10
230.2625
 20
298.8
 30
0.0
 11
230.7
 21
301.3
 31
0.0
  0
LINE
  5
213
330
1F
100
AcDbEntity
  8
0
  6
Continuous
 62
     2
100
AcDbLine
 10
230.7
 20
301.3
 30
0.0
 11
230.2625
 21
303.8
 31
0.0
  0
LINE
  5
214
330
1F
100
AcDbEntity
  8
0
  6
Continuous
 62
     2
100
AcDbLine
 10
230.2625
 20
303.8
 30
0.0
 11
229.7
 21
306.3
 31
0.0
  0
LINE
  5
215
330
1F
100
AcDbEntity
  8
0
  6
Continuous
 62
     2
100
AcDbLine
 10
229.7
 20
306.3
 30
0.0
 11
229.1375
 21
308.8
 31
0.0
  0
LINE
  5
216
330
1F
100
AcDbEntity
  8
0
  6
Continuous
 62
     2
100
AcDbLine
 10
229.1375
 20
308.8
 30
0.0
 11
228.7
 21
311.3
 31
0.0
  0
LINE
  5
217
330
1F
100
AcDbEntity
  8
0
  6
Continuous
 62
     2
100
AcDbLine
 10
228.7
 20
311.3
 30
0.0
 11
228.98125
 21
313.8
 31
0.0
  0
LINE
  5
218
330
1F
100
AcDbEntity
  8
0
  6
Continuous
 62
     2
100
AcDbLine
 10
228.98125
 20
313.8
 30
0.0
 11
229.45
 21
316.3
 31
0.0
  0
LINE
  5
219
330
1F
100
AcDbEntity
  8
0
  6
Continuous
 62
     2
100
AcDbLine
 10
229.45
 20
316.3
 30
0.0
 11
230.04375
 21
318.8
 31
0.0
  0
LINE
  5
21A
330
1F
100
AcDbEntity
  8
0
  6
Continuous
 62
     2
100
AcDbLine
 10
230.04375
 20
318.8
 30
0.0
 11
230.7
 21
321.3
 31
0.0
  0
LINE
  5
21B
330
1F
100
AcDbEntity
  8
0
  6
Continuous
 62
     2
100
AcDbLine
 10
130.7
 20
281.3
 30
0.0
 11
130.04375
 21
283.8
 31
0.0
  0
LINE
  5
21C
330
1F
100
AcDbEntity
  8
0
  6
Continuous
 62
     2
100
AcDbLine
 10
130.04375
 20
283.8
 30
0.0
 11
129.45
 21
286.3
 31
0.0
  0
LINE
  5
21D
330
1F
100
AcDbEntity
  8
0
  6
Continuous
 62
     2
100
AcDbLine
 10
129.7
 20
296.3
 30
0.0
 11
130.2625
 21
298.8
 31
0.0
  0
LINE
  5
21E
330
1F
100
AcDbEntity
  8
0
  6
Continuous
 62
     2
100
AcDbLine
 10
130.2625
 20
298.8
 30
0.0
 11
130.7
 21
301.3
 31
0.0
  0
LINE
  5
21F
330
1F
100
AcDbEntity
  8
0
  6
Continuous
 62
     2
100
AcDbLine
 10
130.7
 20
301.3
 30
0.0
 11
130.2625
 21
303.8
 31
0.0
  0
LINE
  5
220
330
1F
100
AcDbEntity
  8
0
  6
Continuous
 62
     2
100
AcDbLine
 10
130.2625
 20
303.8
 30
0.0
 11
129.7
 21
306.3
 31
0.0
  0
LINE
  5
221
330
1F
100
AcDbEntity
  8
0
  6
Continuous
 62
     2
100
AcDbLine
 10
129.7
 20
306.3
 30
0.0
 11
129.1375
 21
308.8
 31
0.0
  0
LINE
  5
222
330
1F
100
AcDbEntity
  8
0
  6
Continuous
 62
     2
100
AcDbLine
 10
129.1375
 20
308.8
 30
0.0
 11
128.7
 21
311.3
 31
0.0
  0
LINE
  5
223
330
1F
100
AcDbEntity
  8
0
  6
Continuous
 62
     2
100
AcDbLine
 10
128.7
 20
311.3
 30
0.0
 11
128.98125
 21
313.8
 31
0.0
  0
LINE
  5
224
330
1F
100
AcDbEntity
  8
0
  6
Continuous
 62
     2
100
AcDbLine
 10
128.98125
 20
313.8
 30
0.0
 11
129.45
 21
316.3
 31
0.0
  0
LINE
  5
225
330
1F
100
AcDbEntity
  8
0
  6
Continuous
 62
     2
100
AcDbLine
 10
129.45
 20
316.3
 30
0.0
 11
130.04375
 21
318.8
 31
0.0
  0
LINE
  5
226
330
1F
100
AcDbEntity
  8
0
  6
Continuous
 62
     2
100
AcDbLine
 10
130.04375
 20
318.8
 30
0.0
 11
130.7
 21
321.3
 31
0.0
  0
LINE
  5
227
330
1F
100
AcDbEntity
  8
0
  6
Continuous
 62
     2
100
AcDbLine
 10
130.2
 20
321.3
 30
0.0
 11
154.7
 21
321.3
 31
0.0
  0
LINE
  5
228
330
1F
100
AcDbEntity
  8
0
  6
Continuous
 62
     2
100
AcDbLine
 10
154.7
 20
281.3
 30
0.0
 11
130.2
 21
281.3
 31
0.0
  0
LINE
  5
229
330
1F
100
AcDbEntity
  8
0
  6
Continuous
 62
     2
100
AcDbLine
 10
129.2275
 20
294.2
 30
0.0
 11
129.7
 21
296.3
 31
0.0
  0
LINE
  5
22A
330
1F
100
AcDbEntity
  8
0
  6
Continuous
 62
     2
100
AcDbLine
 10
129.45
 20
286.3
 30
0.0
 11
129.16875
 21
287.8
 31
0.0
  0
LINE
  5
22B
330
1F
100
AcDbEntity
  8
0
  6
Continuous
 62
     2
100
AcDbLine
 10
167.9
 20
335.3
 30
0.0
 11
168.9
 21
336.3
 31
0.0
  0
LINE
  5
22C
330
1F
100
AcDbEntity
  8
0
  6
Continuous
 62
     2
100
AcDbLine
 10
168.9
 20
336.3
 30
0.0
 11
177.7
 21
336.3
 31
0.0
  0
ARC
  5
22D
330
1F
100
AcDbEntity
  8
0
  6
Continuous
 62
     2
100
AcDbCircle
 10
170.35
 20
332.8
 30
0.0
 40
3.500357125
100
AcDbArc
 50
45.578725566
 51
134.421274434
  0
LINE
  5
22E
330
1F
100
AcDbEntity
  8
0
  6
Continuous
 62
     2
100
AcDbLine
 10
187.5
 20
335.3
 30
0.0
 11
186.5
 21
336.3
 31
0.0
  0
LINE
  5
22F
330
1F
100
AcDbEntity
  8
0
  6
Continuous
 62
     2
100
AcDbLine
 10
186.5
 20
336.3
 30
0.0
 11
177.7
 21
336.3
 31
0.0
  0
ARC
  5
230
330
1F
100
AcDbEntity
  8
0
  6
Continuous
 62
     2
100
AcDbCircle
 10
185.05
 20
332.8
 30
0.0
 40
3.500357125
100
AcDbArc
 50
45.578725566
 51
134.421274434
  0
ARC
  5
231
330
1F
100
AcDbEntity
  8
0
  6
Continuous
 62
     2
100
AcDbCircle
 10
177.7
 20
323.795
 30
0.0
 40
12.505
100
AcDbArc
 50
66.930758693
 51
113.069241307
  0
LINE
  5
232
330
1F
100
AcDbEntity
  8
0
  6
Continuous
 62
     2
100
AcDbLine
 10
182.6
 20
335.3
 30
0.0
 11
182.6
 21
319.4
 31
0.0
  0
LINE
  5
233
330
1F
100
AcDbEntity
  8
0
  6
Continuous
 62
     2
100
AcDbLine
 10
172.8
 20
335.3
 30
0.0
 11
172.8
 21
319.4
 31
0.0
  0
LINE
  5
234
330
1F
100
AcDbEntity
  8
0
  6
Continuous
 62
     2
100
AcDbLine
 10
177.7
 20
336.3
 30
0.0
 11
184.2
 21
336.3
 31
0.0
  0
LINE
  5
235
330
1F
100
AcDbEntity
  8
0
  6
Continuous
 62
     2
100
AcDbLine
 10
184.2
 20
336.3
 30
0.0
 11
185.2
 21
337.3
 31
0.0
  0
LINE
  5
236
330
1F
100
AcDbEntity
  8
0
  6
Continuous
 62
     2
100
AcDbLine
 10
185.2
 20
337.3
 30
0.0
 11
185.2
 21
341.8
 31
0.0
  0
LINE
  5
237
330
1F
100
AcDbEntity
  8
0
  6
Continuous
 62
     2
100
AcDbLine
 10
185.2
 20
341.8
 30
0.0
 11
184.2
 21
342.8
 31
0.0
  0
LINE
  5
238
330
1F
100
AcDbEntity
  8
0
  6
Continuous
 62
     2
100
AcDbLine
 10
184.2
 20
342.8
 30
0.0
 11
171.2
 21
342.8
 31
0.0
  0
LINE
  5
239
330
1F
100
AcDbEntity
  8
0
  6
Continuous
 62
     2
100
AcDbLine
 10
171.2
 20
342.8
 30
0.0
 11
170.2
 21
341.8
 31
0.0
  0
LINE
  5
23A
330
1F
100
AcDbEntity
  8
0
  6
Continuous
 62
     2
100
AcDbLine
 10
170.2
 20
341.8
 30
0.0
 11
170.2
 21
337.3
 31
0.0
  0
LINE
  5
23B
330
1F
100
AcDbEntity
  8
0
  6
Continuous
 62
     2
100
AcDbLine
 10
170.2
 20
337.3
 30
0.0
 11
171.2
 21
336.3
 31
0.0
  0
LINE
  5
23C
330
1F
100
AcDbEntity
  8
0
  6
Continuous
 62
     2
100
AcDbLine
 10
173.95
 20
341.8
 30
0.0
 11
173.95
 21
337.3
 31
0.0
  0
ARC
  5
23D
330
1F
100
AcDbEntity
  8
0
  6
Continuous
 62
     2
100
AcDbCircle
 10
172.075
 20
340.5421875
 30
0.0
 40
2.2578125
100
AcDbArc
 50
33.855026128
 51
146.144973871
  0
ARC
  5
23E
330
1F
100
AcDbEntity
  8
0
  6
Continuous
 62
     2
100
AcDbCircle
 10
172.075
 20
338.5578125
 30
0.0
 40
2.2578125
100
AcDbArc
 50
213.855026129
 51
326.144973872
  0
LINE
  5
23F
330
1F
100
AcDbEntity
  8
0
  6
Continuous
 62
     2
100
AcDbLine
 10
181.45
 20
341.8
 30
0.0
 11
181.45
 21
337.3
 31
0.0
  0
ARC
  5
240
330
1F
100
AcDbEntity
  8
0
  6
Continuous
 62
     2
100
AcDbCircle
 10
183.325
 20
340.5421875
 30
0.0
 40
2.2578125
100
AcDbArc
 50
33.855026129
 51
146.144973872
  0
ARC
  5
241
330
1F
100
AcDbEntity
  8
0
  6
Continuous
 62
     2
100
AcDbCircle
 10
183.325
 20
338.5578125
 30
0.0
 40
2.2578125
100
AcDbArc
 50
213.855026128
 51
326.144973871
  0
ARC
  5
242
330
1F
100
AcDbEntity
  8
0
  6
Continuous
 62
     2
100
AcDbCircle
 10
177.7
 20
343.83125
 30
0.0
 40
7.53125
100
AcDbArc
 50
240.137165644
 51
299.862834356
  0
ARC
  5
243
330
1F
100
AcDbEntity
  8
0
  6
Continuous
 62
     2
100
AcDbCircle
 10
177.7
 20
335.26875
 30
0.0
 40
7.53125
100
AcDbArc
 50
60.137165644
 51
119.862834356
  0
LINE
  5
244
330
1F
100
AcDbEntity
  8
0
  6
Continuous
 62
     2
100
AcDbLine
 10
177.7
 20
336.3
 30
0.0
 11
171.2
 21
336.3
 31
0.0
  0
LINE
  5
245
330
1F
100
AcDbEntity
  8
0
  6
Continuous
 62
     2
100
AcDbLine
 10
181.7
 20
365.3
 30
0.0
 11
180.7
 21
366.3
 31
0.0
  0
LINE
  5
246
330
1F
100
AcDbEntity
  8
0
  6
Continuous
 62
     2
100
AcDbLine
 10
180.7
 20
366.3
 30
0.0
 11
174.7
 21
366.3
 31
0.0
  0
LINE
  5
247
330
1F
100
AcDbEntity
  8
0
  6
Continuous
 62
     2
100
AcDbLine
 10
174.7
 20
366.3
 30
0.0
 11
173.7
 21
365.3
 31
0.0
  0
LINE
  5
248
330
1F
100
AcDbEntity
  8
0
  6
Continuous
 62
     2
100
AcDbLine
 10
173.7
 20
365.3
 30
0.0
 11
173.7
 21
342.8
 31
0.0
  0
LINE
  5
249
330
1F
100
AcDbEntity
  8
0
  6
Continuous
 62
     2
100
AcDbLine
 10
181.7
 20
342.8
 30
0.0
 11
181.7
 21
365.3
 31
0.0
  0
LINE
  5
24A
330
1F
100
AcDbEntity
  8
0
  6
Continuous
 62
     2
100
AcDbLine
 10
173.2
 20
316.3
 30
0.0
 11
182.2
 21
316.3
 31
0.0
  0
LINE
  5
24B
330
1F
100
AcDbEntity
  8
0
  6
Continuous
 62
     2
100
AcDbLine
 10
173.7
 20
316.3
 30
0.0
 11
173.7
 21
279.3
 31
0.0
  0
LINE
  5
24C
330
1F
100
AcDbEntity
  8
0
  6
Continuous
 62
     2
100
AcDbLine
 10
181.7
 20
279.3
 30
0.0
 11
181.7
 21
316.3
 31
0.0
  0
ARC
  5
24D
330
1F
100
AcDbEntity
  8
0
  6
Continuous
 62
     2
100
AcDbCircle
 10
177.7
 20
328.805
 30
0.0
 40
12.505
100
AcDbArc
 50
248.805505574
 51
291.194494426
  0
ARC
  5
24E
330
1F
100
AcDbEntity
  8
0
  6
Continuous
 62
     2
100
AcDbCircle
 10
177.7
 20
286.8
 30
0.0
 40
8.5
100
AcDbArc
 50
241.927513064
 51
298.072486936
  0
ARC
  5
24F
330
1F
100
AcDbEntity
  8
0
  6
Continuous
 62
     2
100
AcDbCircle
 10
177.7
 20
285.8
 30
0.0
 40
8.5
100
AcDbArc
 50
61.927513064
 51
118.072486936
  0
LINE
  5
250
330
1F
100
AcDbEntity
  8
0
  6
Continuous
 62
     2
100
AcDbLine
 10
192.15
 20
266.3
 30
0.0
 11
187.7
 21
266.3
 31
0.0
  0
LINE
  5
251
330
1F
100
AcDbEntity
  8
0
  6
Continuous
 62
     2
100
AcDbLine
 10
187.7
 20
266.3
 30
0.0
 11
187.7
 21
261.3
 31
0.0
  0
LINE
  5
252
330
1F
100
AcDbEntity
  8
0
  6
Continuous
 62
     2
100
AcDbLine
 10
192.15
 20
266.3
 30
0.0
 11
187.7
 21
266.3
 31
0.0
  0
LINE
  5
253
330
1F
100
AcDbEntity
  8
0
  6
Continuous
 62
     2
100
AcDbLine
 10
187.7
 20
266.3
 30
0.0
 11
187.7
 21
261.3
 31
0.0
  0
LINE
  5
254
330
1F
100
AcDbEntity
  8
0
  6
Continuous
 62
     2
100
AcDbLine
 10
187.7
 20
265.3
 30
0.0
 11
188.2
 21
265.3
 31
0.0
  0
LINE
  5
255
330
1F
100
AcDbEntity
  8
0
  6
Continuous
 62
     2
100
AcDbLine
 10
191.7
 20
264.8
 30
0.0
 11
188.2
 21
264.8
 31
0.0
  0
ARC
  5
256
330
1F
100
AcDbEntity
  8
0
  6
Continuous
 62
     2
100
AcDbCircle
 10
191.7
 20
264.3
 30
0.0
 40
0.5
100
AcDbArc
 50
0.0
 51
90.0
  0
LINE
  5
257
330
1F
100
AcDbEntity
  8
0
  6
Continuous
 62
     2
100
AcDbLine
 10
192.2
 20
258.3
 30
0.0
 11
192.2
 21
264.3
 31
0.0
  0
ARC
  5
258
330
1F
100
AcDbEntity
  8
0
  6
Continuous
 62
     2
100
AcDbCircle
 10
191.969075575
 20
261.98159652
 30
0.0
 40
4.357006022
100
AcDbArc
 50
40.921400298
 51
64.66029153
  0
ARC
  5
259
330
1F
100
AcDbEntity
  8
0
  6
Continuous
 62
     2
100
AcDbCircle
 10
191.969075575
 20
261.98159652
 30
0.0
 40
4.357006022
100
AcDbArc
 50
40.921400298
 51
64.66029153
  0
ARC
  5
25A
330
1F
100
AcDbEntity
  8
0
  6
Continuous
 62
     2
100
AcDbCircle
 10
192.147584372
 20
260.225618765
 30
0.0
 40
3.925619508
100
AcDbArc
 50
270.035256933
 51
295.438547095
  0
ARC
  5
25B
330
1F
100
AcDbEntity
  8
0
  6
Continuous
 62
     2
100
AcDbCircle
 10
191.969075575
 20
260.61840348
 30
0.0
 40
4.357006022
100
AcDbArc
 50
295.339708471
 51
319.078599702
  0
ARC
  5
25C
330
1F
100
AcDbEntity
  8
0
  6
Continuous
 62
     2
100
AcDbCircle
 10
191.471329686
 20
261.084414503
 30
0.0
 40
5.038422742
100
AcDbArc
 50
318.781942878
 51
340.307157322
  0
ARC
  5
25D
330
1F
100
AcDbEntity
  8
0
  6
Continuous
 62
     2
100
AcDbCircle
 10
190.976283834
 20
261.289617189
 30
0.0
 40
5.573725825
100
AcDbArc
 50
340.03596415
 51
0.106669356
  0
ARC
  5
25E
330
1F
100
AcDbEntity
  8
0
  6
Continuous
 62
     2
100
AcDbCircle
 10
192.147584372
 20
260.225618765
 30
0.0
 40
3.925619508
100
AcDbArc
 50
270.035256933
 51
295.438547095
  0
ARC
  5
25F
330
1F
100
AcDbEntity
  8
0
  6
Continuous
 62
     2
100
AcDbCircle
 10
191.969075575
 20
260.61840348
 30
0.0
 40
4.357006022
100
AcDbArc
 50
295.339708471
 51
319.078599702
  0
ARC
  5
260
330
1F
100
AcDbEntity
  8
0
  6
Continuous
 62
     2
100
AcDbCircle
 10
191.471329686
 20
261.084414503
 30
0.0
 40
5.038422742
100
AcDbArc
 50
318.781942878
 51
340.307157322
  0
ARC
  5
261
330
1F
100
AcDbEntity
  8
0
  6
Continuous
 62
     2
100
AcDbCircle
 10
190.976283834
 20
261.289617189
 30
0.0
 40
5.573725825
100
AcDbArc
 50
340.03596415
 51
0.106669356
  0
ARC
  5
262
330
1F
100
AcDbEntity
  8
0
  6
Continuous
 62
     2
100
AcDbCircle
 10
192.147584372
 20
262.374381235
 30
0.0
 40
3.925619508
100
AcDbArc
 50
64.561452905
 51
89.964743067
  0
ARC
  5
263
330
1F
100
AcDbEntity
  8
0
  6
Continuous
 62
     2
100
AcDbCircle
 10
192.147584372
 20
262.374381235
 30
0.0
 40
3.925619508
100
AcDbArc
 50
64.561452905
 51
89.964743067
  0
ARC
  5
264
330
1F
100
AcDbEntity
  8
0
  6
Continuous
 62
     2
100
AcDbCircle
 10
191.471329686
 20
261.515585497
 30
0.0
 40
5.038422742
100
AcDbArc
 50
19.692842678
 51
41.218057122
  0
ARC
  5
265
330
1F
100
AcDbEntity
  8
0
  6
Continuous
 62
     2
100
AcDbCircle
 10
190.976283834
 20
261.310382811
 30
0.0
 40
5.573725825
100
AcDbArc
 50
359.893330645
 51
19.96403585
  0
ARC
  5
266
330
1F
100
AcDbEntity
  8
0
  6
Continuous
 62
     2
100
AcDbCircle
 10
191.471329686
 20
261.515585497
 30
0.0
 40
5.038422742
100
AcDbArc
 50
19.692842678
 51
41.218057122
  0
ARC
  5
267
330
1F
100
AcDbEntity
  8
0
  6
Continuous
 62
     2
100
AcDbCircle
 10
190.976283834
 20
261.310382811
 30
0.0
 40
5.573725825
100
AcDbArc
 50
359.893330645
 51
19.96403585
  0
LINE
  5
268
330
1F
100
AcDbEntity
  8
0
  6
Continuous
 62
     2
100
AcDbLine
 10
187.7
 20
259.3
 30
0.0
 11
187.7
 21
258.3
 31
0.0
  0
LINE
  5
269
330
1F
100
AcDbEntity
  8
0
  6
Continuous
 62
     2
100
AcDbLine
 10
192.15
 20
256.3
 30
0.0
 11
187.7
 21
256.3
 31
0.0
  0
LINE
  5
26A
330
1F
100
AcDbEntity
  8
0
  6
Continuous
 62
     2
100
AcDbLine
 10
192.15
 20
256.3
 30
0.0
 11
187.7
 21
256.3
 31
0.0
  0
LINE
  5
26B
330
1F
100
AcDbEntity
  8
0
  6
Continuous
 62
     2
100
AcDbLine
 10
188.2
 20
257.3
 30
0.0
 11
187.7
 21
257.3
 31
0.0
  0
LINE
  5
26C
330
1F
100
AcDbEntity
  8
0
  6
Continuous
 62
     2
100
AcDbLine
 10
188.2
 20
257.8
 30
0.0
 11
191.7
 21
257.8
 31
0.0
  0
ARC
  5
26D
330
1F
100
AcDbEntity
  8
0
  6
Continuous
 62
     2
100
AcDbCircle
 10
191.7
 20
258.3
 30
0.0
 40
0.5
100
AcDbArc
 50
270.0
 51
0.0
  0
LINE
  5
26E
330
1F
100
AcDbEntity
  8
0
  6
Continuous
 62
     2
100
AcDbLine
 10
187.7
 20
256.3
 30
0.0
 11
187.7
 21
261.3
 31
0.0
  0
LINE
  5
26F
330
1F
100
AcDbEntity
  8
0
  6
Continuous
 62
     2
100
AcDbLine
 10
187.7
 20
256.3
 30
0.0
 11
187.7
 21
261.3
 31
0.0
  0
LINE
  5
270
330
1F
100
AcDbEntity
  8
0
  6
Continuous
 62
     2
100
AcDbLine
 10
188.2
 20
265.3
 30
0.0
 11
188.2
 21
257.3
 31
0.0
  0
LINE
  5
271
330
1F
100
AcDbEntity
  8
0
  6
Continuous
 62
     2
100
AcDbLine
 10
199.7
 20
204.7
 30
0.0
 11
200.7
 21
204.7
 31
0.0
  0
LINE
  5
272
330
1F
100
AcDbEntity
  8
0
  6
Continuous
 62
     2
100
AcDbLine
 10
200.7
 20
204.7
 30
0.0
 11
200.7
 21
186.7
 31
0.0
  0
LINE
  5
273
330
1F
100
AcDbEntity
  8
0
  6
Continuous
 62
     2
100
AcDbLine
 10
200.7
 20
186.7
 30
0.0
 11
199.7
 21
186.7
 31
0.0
  0
LINE
  5
274
330
1F
100
AcDbEntity
  8
0
  6
Continuous
 62
     2
100
AcDbLine
 10
199.7
 20
174.7
 30
0.0
 11
200.7
 21
174.7
 31
0.0
  0
LINE
  5
275
330
1F
100
AcDbEntity
  8
0
  6
Continuous
 62
     2
100
AcDbLine
 10
200.7
 20
174.7
 30
0.0
 11
200.7
 21
156.7
 31
0.0
  0
LINE
  5
276
330
1F
100
AcDbEntity
  8
0
  6
Continuous
 62
     2
100
AcDbLine
 10
200.7
 20
156.7
 30
0.0
 11
199.7
 21
156.7
 31
0.0
  0
LINE
  5
277
330
1F
100
AcDbEntity
  8
0
  6
Continuous
 62
     2
100
AcDbLine
 10
200.7
 20
203.2
 30
0.0
 11
205.7
 21
203.2
 31
0.0
  0
LINE
  5
278
330
1F
100
AcDbEntity
  8
0
  6
Continuous
 62
     2
100
AcDbLine
 10
205.7
 20
203.2
 30
0.0
 11
206.2
 21
202.7
 31
0.0
  0
LINE
  5
279
330
1F
100
AcDbEntity
  8
0
  6
Continuous
 62
     2
100
AcDbLine
 10
206.2
 20
202.7
 30
0.0
 11
206.2
 21
188.7
 31
0.0
  0
LINE
  5
27A
330
1F
100
AcDbEntity
  8
0
  6
Continuous
 62
     2
100
AcDbLine
 10
206.2
 20
188.7
 30
0.0
 11
205.7
 21
188.2
 31
0.0
  0
LINE
  5
27B
330
1F
100
AcDbEntity
  8
0
  6
Continuous
 62
     2
100
AcDbLine
 10
205.7
 20
188.2
 30
0.0
 11
200.7
 21
188.2
 31
0.0
  0
LINE
  5
27C
330
1F
100
AcDbEntity
  8
0
  6
Continuous
 62
     2
100
AcDbLine
 10
200.7
 20
173.2
 30
0.0
 11
205.7
 21
173.2
 31
0.0
  0
LINE
  5
27D
330
1F
100
AcDbEntity
  8
0
  6
Continuous
 62
     2
100
AcDbLine
 10
205.7
 20
173.2
 30
0.0
 11
206.2
 21
172.7
 31
0.0
  0
LINE
  5
27E
330
1F
100
AcDbEntity
  8
0
  6
Continuous
 62
     2
100
AcDbLine
 10
206.2
 20
172.7
 30
0.0
 11
206.2
 21
158.7
 31
0.0
  0
LINE
  5
27F
330
1F
100
AcDbEntity
  8
0
  6
Continuous
 62
     2
100
AcDbLine
 10
206.2
 20
158.7
 30
0.0
 11
205.7
 21
158.2
 31
0.0
  0
LINE
  5
280
330
1F
100
AcDbEntity
  8
0
  6
Continuous
 62
     2
100
AcDbLine
 10
205.7
 20
158.2
 30
0.0
 11
200.7
 21
158.2
 31
0.0
  0
LINE
  5
281
330
1F
100
AcDbEntity
  8
0
  6
Continuous
 62
     2
100
AcDbLine
 10
200.7
 20
161.2
 30
0.0
 11
205.7
 21
161.2
 31
0.0
  0
LINE
  5
282
330
1F
100
AcDbEntity
  8
0
  6
Continuous
 62
     2
100
AcDbLine
 10
205.7
 20
161.2
 30
0.0
 11
206.2
 21
160.2
 31
0.0
  0
LINE
  5
283
330
1F
100
AcDbEntity
  8
0
  6
Continuous
 62
     2
100
AcDbLine
 10
206.2
 20
162.2
 30
0.0
 11
205.7
 21
161.2
 31
0.0
  0
LINE
  5
284
330
1F
100
AcDbEntity
  8
0
  6
Continuous
 62
     2
100
AcDbLine
 10
200.7
 20
170.2
 30
0.0
 11
205.7
 21
170.2
 31
0.0
  0
LINE
  5
285
330
1F
100
AcDbEntity
  8
0
  6
Continuous
 62
     2
100
AcDbLine
 10
205.7
 20
170.2
 30
0.0
 11
206.2
 21
171.2
 31
0.0
  0
LINE
  5
286
330
1F
100
AcDbEntity
  8
0
  6
Continuous
 62
     2
100
AcDbLine
 10
206.2
 20
169.2
 30
0.0
 11
205.7
 21
170.2
 31
0.0
  0
LINE
  5
287
330
1F
100
AcDbEntity
  8
0
  6
Continuous
 62
     2
100
AcDbLine
 10
200.7
 20
191.2
 30
0.0
 11
205.7
 21
191.2
 31
0.0
  0
LINE
  5
288
330
1F
100
AcDbEntity
  8
0
  6
Continuous
 62
     2
100
AcDbLine
 10
205.7
 20
191.2
 30
0.0
 11
206.2
 21
190.2
 31
0.0
  0
LINE
  5
289
330
1F
100
AcDbEntity
  8
0
  6
Continuous
 62
     2
100
AcDbLine
 10
206.2
 20
192.2
 30
0.0
 11
205.7
 21
191.2
 31
0.0
  0
LINE
  5
28A
330
1F
100
AcDbEntity
  8
0
  6
Continuous
 62
     2
100
AcDbLine
 10
200.7
 20
200.2
 30
0.0
 11
205.7
 21
200.2
 31
0.0
  0
LINE
  5
28B
330
1F
100
AcDbEntity
  8
0
  6
Continuous
 62
     2
100
AcDbLine
 10
205.7
 20
200.2
 30
0.0
 11
206.2
 21
201.2
 31
0.0
  0
LINE
  5
28C
330
1F
100
AcDbEntity
  8
0
  6
Continuous
 62
     2
100
AcDbLine
 10
206.2
 20
199.2
 30
0.0
 11
205.7
 21
200.2
 31
0.0
  0
LINE
  5
28D
330
1F
100
AcDbEntity
  8
0
  6
Continuous
 62
     2
100
AcDbLine
 10
155.7
 20
156.7
 30
0.0
 11
154.7
 21
156.7
 31
0.0
  0
LINE
  5
28E
330
1F
100
AcDbEntity
  8
0
  6
Continuous
 62
     2
100
AcDbLine
 10
154.7
 20
156.7
 30
0.0
 11
154.7
 21
174.7
 31
0.0
  0
LINE
  5
28F
330
1F
100
AcDbEntity
  8
0
  6
Continuous
 62
     2
100
AcDbLine
 10
154.7
 20
174.7
 30
0.0
 11
155.7
 21
174.7
 31
0.0
  0
LINE
  5
290
330
1F
100
AcDbEntity
  8
0
  6
Continuous
 62
     2
100
AcDbLine
 10
155.7
 20
186.7
 30
0.0
 11
154.7
 21
186.7
 31
0.0
  0
LINE
  5
291
330
1F
100
AcDbEntity
  8
0
  6
Continuous
 62
     2
100
AcDbLine
 10
154.7
 20
186.7
 30
0.0
 11
154.7
 21
204.7
 31
0.0
  0
LINE
  5
292
330
1F
100
AcDbEntity
  8
0
  6
Continuous
 62
     2
100
AcDbLine
 10
154.7
 20
204.7
 30
0.0
 11
155.7
 21
204.7
 31
0.0
  0
LINE
  5
293
330
1F
100
AcDbEntity
  8
0
  6
Continuous
 62
     2
100
AcDbLine
 10
154.7
 20
203.2
 30
0.0
 11
149.7
 21
203.2
 31
0.0
  0
LINE
  5
294
330
1F
100
AcDbEntity
  8
0
  6
Continuous
 62
     2
100
AcDbLine
 10
149.7
 20
203.2
 30
0.0
 11
149.2
 21
202.7
 31
0.0
  0
LINE
  5
295
330
1F
100
AcDbEntity
  8
0
  6
Continuous
 62
     2
100
AcDbLine
 10
149.2
 20
188.7
 30
0.0
 11
149.7
 21
188.2
 31
0.0
  0
LINE
  5
296
330
1F
100
AcDbEntity
  8
0
  6
Continuous
 62
     2
100
AcDbLine
 10
149.7
 20
188.2
 30
0.0
 11
154.7
 21
188.2
 31
0.0
  0
LINE
  5
297
330
1F
100
AcDbEntity
  8
0
  6
Continuous
 62
     2
100
AcDbLine
 10
149.2
 20
202.7
 30
0.0
 11
147.2
 21
202.2
 31
0.0
  0
LINE
  5
298
330
1F
100
AcDbEntity
  8
0
  6
Continuous
 62
     2
100
AcDbLine
 10
147.2
 20
202.2
 30
0.0
 11
147.2
 21
189.2
 31
0.0
  0
LINE
  5
299
330
1F
100
AcDbEntity
  8
0
  6
Continuous
 62
     2
100
AcDbLine
 10
147.2
 20
189.2
 30
0.0
 11
149.2
 21
188.7
 31
0.0
  0
LINE
  5
29A
330
1F
100
AcDbEntity
  8
0
  6
Continuous
 62
     2
100
AcDbLine
 10
154.7
 20
173.2
 30
0.0
 11
149.7
 21
173.2
 31
0.0
  0
LINE
  5
29B
330
1F
100
AcDbEntity
  8
0
  6
Continuous
 62
     2
100
AcDbLine
 10
149.7
 20
173.2
 30
0.0
 11
149.2
 21
172.7
 31
0.0
  0
LINE
  5
29C
330
1F
100
AcDbEntity
  8
0
  6
Continuous
 62
     2
100
AcDbLine
 10
149.2
 20
158.7
 30
0.0
 11
149.7
 21
158.2
 31
0.0
  0
LINE
  5
29D
330
1F
100
AcDbEntity
  8
0
  6
Continuous
 62
     2
100
AcDbLine
 10
149.7
 20
158.2
 30
0.0
 11
154.7
 21
158.2
 31
0.0
  0
LINE
  5
29E
330
1F
100
AcDbEntity
  8
0
  6
Continuous
 62
     2
100
AcDbLine
 10
149.2
 20
172.7
 30
0.0
 11
147.2
 21
172.2
 31
0.0
  0
LINE
  5
29F
330
1F
100
AcDbEntity
  8
0
  6
Continuous
 62
     2
100
AcDbLine
 10
147.2
 20
172.2
 30
0.0
 11
147.2
 21
159.2
 31
0.0
  0
LINE
  5
2A0
330
1F
100
AcDbEntity
  8
0
  6
Continuous
 62
     2
100
AcDbLine
 10
147.2
 20
159.2
 30
0.0
 11
149.2
 21
158.7
 31
0.0
  0
LINE
  5
2A1
330
1F
100
AcDbEntity
  8
0
  6
Continuous
 62
     2
100
AcDbLine
 10
141.2
 20
199.7
 30
0.0
 11
147.2
 21
199.7
 31
0.0
  0
LINE
  5
2A2
330
1F
100
AcDbEntity
  8
0
  6
Continuous
 62
     2
100
AcDbLine
 10
141.2
 20
199.7
 30
0.0
 11
140.7
 21
199.2
 31
0.0
  0
LINE
  5
2A3
330
1F
100
AcDbEntity
  8
0
  6
Continuous
 62
     2
100
AcDbLine
 10
140.7
 20
199.2
 30
0.0
 11
140.7
 21
192.2
 31
0.0
  0
LINE
  5
2A4
330
1F
100
AcDbEntity
  8
0
  6
Continuous
 62
     2
100
AcDbLine
 10
140.7
 20
192.2
 30
0.0
 11
141.2
 21
191.7
 31
0.0
  0
LINE
  5
2A5
330
1F
100
AcDbEntity
  8
0
  6
Continuous
 62
     2
100
AcDbLine
 10
141.2
 20
191.7
 30
0.0
 11
147.2
 21
191.7
 31
0.0
  0
LINE
  5
2A6
330
1F
100
AcDbEntity
  8
0
  6
Continuous
 62
     2
100
AcDbLine
 10
141.2
 20
169.7
 30
0.0
 11
147.2
 21
169.7
 31
0.0
  0
LINE
  5
2A7
330
1F
100
AcDbEntity
  8
0
  6
Continuous
 62
     2
100
AcDbLine
 10
141.2
 20
169.7
 30
0.0
 11
140.7
 21
169.2
 31
0.0
  0
LINE
  5
2A8
330
1F
100
AcDbEntity
  8
0
  6
Continuous
 62
     2
100
AcDbLine
 10
140.7
 20
169.2
 30
0.0
 11
140.7
 21
162.2
 31
0.0
  0
LINE
  5
2A9
330
1F
100
AcDbEntity
  8
0
  6
Continuous
 62
     2
100
AcDbLine
 10
140.7
 20
162.2
 30
0.0
 11
141.2
 21
161.7
 31
0.0
  0
LINE
  5
2AA
330
1F
100
AcDbEntity
  8
0
  6
Continuous
 62
     2
100
AcDbLine
 10
141.2
 20
161.7
 30
0.0
 11
147.2
 21
161.7
 31
0.0
  0
LINE
  5
2AB
330
1F
100
AcDbEntity
  8
0
  6
Continuous
 62
     2
100
AcDbLine
 10
140.7
 20
199.2
 30
0.0
 11
147.2
 21
199.2
 31
0.0
  0
LINE
  5
2AC
330
1F
100
AcDbEntity
  8
0
  6
Continuous
 62
     2
100
AcDbLine
 10
141.2
 20
199.7
 30
0.0
 11
141.2
 21
191.7
 31
0.0
  0
LINE
  5
2AD
330
1F
100
AcDbEntity
  8
0
  6
Continuous
 62
     2
100
AcDbLine
 10
140.7
 20
192.2
 30
0.0
 11
147.2
 21
192.2
 31
0.0
  0
LINE
  5
2AE
330
1F
100
AcDbEntity
  8
0
  6
Continuous
 62
     2
100
AcDbLine
 10
147.2
 20
169.2
 30
0.0
 11
140.7
 21
169.2
 31
0.0
  0
LINE
  5
2AF
330
1F
100
AcDbEntity
  8
0
  6
Continuous
 62
     2
100
AcDbLine
 10
141.2
 20
169.7
 30
0.0
 11
141.2
 21
161.7
 31
0.0
  0
LINE
  5
2B0
330
1F
100
AcDbEntity
  8
0
  6
Continuous
 62
     2
100
AcDbLine
 10
140.7
 20
162.2
 30
0.0
 11
147.2
 21
162.2
 31
0.0
  0
LINE
  5
2B1
330
1F
100
AcDbEntity
  8
0
  6
Continuous
 62
     2
100
AcDbLine
 10
149.2
 20
172.7
 30
0.0
 11
149.2
 21
158.7
 31
0.0
  0
LINE
  5
2B2
330
1F
100
AcDbEntity
  8
0
  6
Continuous
 62
     2
100
AcDbLine
 10
154.7
 20
161.2
 30
0.0
 11
149.7
 21
161.2
 31
0.0
  0
LINE
  5
2B3
330
1F
100
AcDbEntity
  8
0
  6
Continuous
 62
     2
100
AcDbLine
 10
149.7
 20
161.2
 30
0.0
 11
149.2
 21
160.2
 31
0.0
  0
LINE
  5
2B4
330
1F
100
AcDbEntity
  8
0
  6
Continuous
 62
     2
100
AcDbLine
 10
149.2
 20
162.2
 30
0.0
 11
149.7
 21
161.2
 31
0.0
  0
LINE
  5
2B5
330
1F
100
AcDbEntity
  8
0
  6
Continuous
 62
     2
100
AcDbLine
 10
154.7
 20
170.2
 30
0.0
 11
149.7
 21
170.2
 31
0.0
  0
LINE
  5
2B6
330
1F
100
AcDbEntity
  8
0
  6
Continuous
 62
     2
100
AcDbLine
 10
149.7
 20
170.2
 30
0.0
 11
149.2
 21
169.2
 31
0.0
  0
LINE
  5
2B7
330
1F
100
AcDbEntity
  8
0
  6
Continuous
 62
     2
100
AcDbLine
 10
149.2
 20
171.2
 30
0.0
 11
149.7
 21
170.2
 31
0.0
  0
LINE
  5
2B8
330
1F
100
AcDbEntity
  8
0
  6
Continuous
 62
     2
100
AcDbLine
 10
149.2
 20
202.7
 30
0.0
 11
149.2
 21
188.7
 31
0.0
  0
LINE
  5
2B9
330
1F
100
AcDbEntity
  8
0
  6
Continuous
 62
     2
100
AcDbLine
 10
154.7
 20
191.2
 30
0.0
 11
149.7
 21
191.2
 31
0.0
  0
LINE
  5
2BA
330
1F
100
AcDbEntity
  8
0
  6
Continuous
 62
     2
100
AcDbLine
 10
149.7
 20
191.2
 30
0.0
 11
149.2
 21
190.2
 31
0.0
  0
LINE
  5
2BB
330
1F
100
AcDbEntity
  8
0
  6
Continuous
 62
     2
100
AcDbLine
 10
149.2
 20
192.2
 30
0.0
 11
149.7
 21
191.2
 31
0.0
  0
LINE
  5
2BC
330
1F
100
AcDbEntity
  8
0
  6
Continuous
 62
     2
100
AcDbLine
 10
154.7
 20
200.2
 30
0.0
 11
149.7
 21
200.2
 31
0.0
  0
LINE
  5
2BD
330
1F
100
AcDbEntity
  8
0
  6
Continuous
 62
     2
100
AcDbLine
 10
149.7
 20
200.2
 30
0.0
 11
149.2
 21
199.2
 31
0.0
  0
LINE
  5
2BE
330
1F
100
AcDbEntity
  8
0
  6
Continuous
 62
     2
100
AcDbLine
 10
149.2
 20
201.2
 30
0.0
 11
149.7
 21
200.2
 31
0.0
  0
LINE
  5
2BF
330
1F
100
AcDbEntity
  8
0
  6
Continuous
 62
     2
100
AcDbLine
 10
166.7
 20
216.3
 30
0.0
 11
166.7
 21
211.7
 31
0.0
  0
LINE
  5
2C0
330
1F
100
AcDbEntity
  8
0
  6
Continuous
 62
     2
100
AcDbLine
 10
165.7
 20
212.7
 30
0.0
 11
189.7
 21
212.7
 31
0.0
  0
LINE
  5
2C1
330
1F
100
AcDbEntity
  8
0
  6
Continuous
 62
     2
100
AcDbLine
 10
188.7
 20
211.7
 30
0.0
 11
166.7
 21
211.7
 31
0.0
  0
LINE
  5
2C2
330
1F
100
AcDbEntity
  8
0
  6
Continuous
 62
     2
100
AcDbLine
 10
188.7
 20
211.7
 30
0.0
 11
188.7
 21
216.3
 31
0.0
  0
LINE
  5
2C3
330
1F
100
AcDbEntity
  8
0
  6
Continuous
 62
     2
100
AcDbLine
 10
157.7
 20
134.5
 30
0.0
 11
159.2
 21
134.5
 31
0.0
  0
LINE
  5
2C4
330
1F
100
AcDbEntity
  8
0
  6
Continuous
 62
     2
100
AcDbLine
 10
159.2
 20
134.5
 30
0.0
 11
159.2
 21
142.5
 31
0.0
  0
LINE
  5
2C5
330
1F
100
AcDbEntity
  8
0
  6
Continuous
 62
     2
100
AcDbLine
 10
159.2
 20
142.5
 30
0.0
 11
157.7
 21
142.5
 31
0.0
  0
LINE
  5
2C6
330
1F
100
AcDbEntity
  8
0
  6
Continuous
 62
     2
100
AcDbLine
 10
152.5
 20
135.5
 30
0.0
 11
152.0
 21
135.5
 31
0.0
  0
LINE
  5
2C7
330
1F
100
AcDbEntity
  8
0
  6
Continuous
 62
     2
100
AcDbLine
 10
152.0
 20
135.5
 30
0.0
 11
151.5
 21
138.5
 31
0.0
  0
LINE
  5
2C8
330
1F
100
AcDbEntity
  8
0
  6
Continuous
 62
     2
100
AcDbLine
 10
151.5
 20
138.5
 30
0.0
 11
152.0
 21
141.5
 31
0.0
  0
LINE
  5
2C9
330
1F
100
AcDbEntity
  8
0
  6
Continuous
 62
     2
100
AcDbLine
 10
152.0
 20
141.5
 30
0.0
 11
152.5
 21
141.5
 31
0.0
  0
LINE
  5
2CA
330
1F
100
AcDbEntity
  8
0
  6
Continuous
 62
     2
100
AcDbLine
 10
152.5
 20
138.5
 30
0.0
 11
155.7
 21
138.5
 31
0.0
  0
LINE
  5
2CB
330
1F
100
AcDbEntity
  8
0
  6
Continuous
 62
     2
100
AcDbLine
 10
197.7
 20
134.5
 30
0.0
 11
196.2
 21
134.5
 31
0.0
  0
LINE
  5
2CC
330
1F
100
AcDbEntity
  8
0
  6
Continuous
 62
     2
100
AcDbLine
 10
196.2
 20
134.5
 30
0.0
 11
196.2
 21
142.5
 31
0.0
  0
LINE
  5
2CD
330
1F
100
AcDbEntity
  8
0
  6
Continuous
 62
     2
100
AcDbLine
 10
196.2
 20
142.5
 30
0.0
 11
197.7
 21
142.5
 31
0.0
  0
LINE
  5
2CE
330
1F
100
AcDbEntity
  8
0
  6
Continuous
 62
     2
100
AcDbLine
 10
202.9
 20
135.5
 30
0.0
 11
203.4
 21
135.5
 31
0.0
  0
LINE
  5
2CF
330
1F
100
AcDbEntity
  8
0
  6
Continuous
 62
     2
100
AcDbLine
 10
203.4
 20
135.5
 30
0.0
 11
203.9
 21
138.5
 31
0.0
  0
LINE
  5
2D0
330
1F
100
AcDbEntity
  8
0
  6
Continuous
 62
     2
100
AcDbLine
 10
203.9
 20
138.5
 30
0.0
 11
203.4
 21
141.5
 31
0.0
  0
LINE
  5
2D1
330
1F
100
AcDbEntity
  8
0
  6
Continuous
 62
     2
100
AcDbLine
 10
203.4
 20
141.5
 30
0.0
 11
202.9
 21
141.5
 31
0.0
  0
LINE
  5
2D2
330
1F
100
AcDbEntity
  8
0
  6
Continuous
 62
     2
100
AcDbLine
 10
199.7
 20
138.5
 30
0.0
 11
202.9
 21
138.5
 31
0.0
  0
LINE
  5
2D3
330
1F
100
AcDbEntity
  8
0
  6
Continuous
 62
     2
100
AcDbLine
 10
194.7
 20
152.7
 30
0.0
 11
160.7
 21
152.7
 31
0.0
  0
LINE
  5
2D4
330
1F
100
AcDbEntity
  8
0
  6
Continuous
 62
     1
100
AcDbLine
 10
155.7
 20
148.5
 30
0.0
 11
152.5
 21
148.5
 31
0.0
  0
LINE
  5
2D5
330
1F
100
AcDbEntity
  8
0
  6
Continuous
 62
     1
100
AcDbLine
 10
177.7
 20
128.5
 30
0.0
 11
155.7
 21
128.5
 31
0.0
  0
LINE
  5
2D6
330
1F
100
AcDbEntity
  8
0
  6
Continuous
 62
     1
100
AcDbLine
 10
155.7
 20
129.5
 30
0.0
 11
157.7
 21
129.5
 31
0.0
  0
LINE
  5
2D7
330
1F
100
AcDbEntity
  8
0
  6
Continuous
 62
     1
100
AcDbLine
 10
155.7
 20
125.3
 30
0.0
 11
177.7
 21
125.3
 31
0.0
  0
ARC
  5
2D8
330
1F
100
AcDbEntity
  8
0
  6
Continuous
 62
     1
100
AcDbCircle
 10
155.7
 20
128.5
 30
0.0
 40
3.2
100
AcDbArc
 50
180.0
 51
270.0
  0
LINE
  5
2D9
330
1F
100
AcDbEntity
  8
0
  6
Continuous
 62
     1
100
AcDbLine
 10
155.7
 20
128.5
 30
0.0
 11
155.7
 21
150.5
 31
0.0
  0
LINE
  5
2DA
330
1F
100
AcDbEntity
  8
0
  6
Continuous
 62
     1
100
AcDbLine
 10
152.5
 20
148.5
 30
0.0
 11
152.5
 21
128.5
 31
0.0
  0
LINE
  5
2DB
330
1F
100
AcDbEntity
  8
0
  6
Continuous
 62
     1
100
AcDbLine
 10
177.7
 20
128.5
 30
0.0
 11
199.7
 21
128.5
 31
0.0
  0
LINE
  5
2DC
330
1F
100
AcDbEntity
  8
0
  6
Continuous
 62
     1
100
AcDbLine
 10
197.7
 20
129.5
 30
0.0
 11
199.7
 21
129.5
 31
0.0
  0
LINE
  5
2DD
330
1F
100
AcDbEntity
  8
0
  6
Continuous
 62
     1
100
AcDbLine
 10
199.7
 20
125.3
 30
0.0
 11
177.7
 21
125.3
 31
0.0
  0
ARC
  5
2DE
330
1F
100
AcDbEntity
  8
0
  6
Continuous
 62
     1
100
AcDbCircle
 10
199.7
 20
128.5
 30
0.0
 40
3.2
100
AcDbArc
 50
270.0
 51
0.0
  0
LINE
  5
2DF
330
1F
100
AcDbEntity
  8
0
  6
Continuous
 62
     1
100
AcDbLine
 10
199.7
 20
205.7
 30
0.0
 11
199.7
 21
135.5
 31
0.0
  0
POINT
  5
2E0
330
1F
100
AcDbEntity
  8
0
  6
Continuous
 62
     1
100
AcDbPoint
 10
201.7
 20
148.5
 30
0.0
  0
LINE
  5
2E1
330
1F
100
AcDbEntity
  8
0
  6
Continuous
 62
     1
100
AcDbLine
 10
199.7
 20
148.5
 30
0.0
 11
202.9
 21
148.5
 31
0.0
  0
LINE
  5
2E2
330
1F
100
AcDbEntity
  8
0
  6
Continuous
 62
     1
100
AcDbLine
 10
199.7
 20
128.5
 30
0.0
 11
199.7
 21
150.5
 31
0.0
  0
LINE
  5
2E3
330
1F
100
AcDbEntity
  8
0
  6
Continuous
 62
     1
100
AcDbLine
 10
202.9
 20
148.5
 30
0.0
 11
202.9
 21
128.5
 31
0.0
  0
LINE
  5
2E4
330
1F
100
AcDbEntity
  8
0
  6
Continuous
 62
     1
100
AcDbLine
 10
194.7
 20
152.7
 30
0.0
 11
193.7
 21
151.7
 31
0.0
  0
LINE
  5
2E5
330
1F
100
AcDbEntity
  8
0
  6
Continuous
 62
     1
100
AcDbLine
 10
193.7
 20
151.7
 30
0.0
 11
161.7
 21
151.7
 31
0.0
  0
LINE
  5
2E6
330
1F
100
AcDbEntity
  8
0
  6
Continuous
 62
     1
100
AcDbLine
 10
197.7
 20
152.7
 30
0.0
 11
194.7
 21
152.7
 31
0.0
  0
LINE
  5
2E7
330
1F
100
AcDbEntity
  8
0
  6
Continuous
 62
     1
100
AcDbLine
 10
160.7
 20
152.7
 30
0.0
 11
157.7
 21
152.7
 31
0.0
  0
LINE
  5
2E8
330
1F
100
AcDbEntity
  8
0
  6
Continuous
 62
     1
100
AcDbLine
 10
160.7
 20
182.7
 30
0.0
 11
160.7
 21
178.7
 31
0.0
  0
LINE
  5
2E9
330
1F
100
AcDbEntity
  8
0
  6
Continuous
 62
     1
100
AcDbLine
 10
157.7
 20
178.7
 30
0.0
 11
160.7
 21
178.7
 31
0.0
  0
LINE
  5
2EA
330
1F
100
AcDbEntity
  8
0
  6
Continuous
 62
     1
100
AcDbLine
 10
160.7
 20
182.7
 30
0.0
 11
157.7
 21
182.7
 31
0.0
  0
ARC
  5
2EB
330
1F
100
AcDbEntity
  8
0
  6
Continuous
 62
     1
100
AcDbCircle
 10
154.1
 20
165.7
 30
0.0
 40
14.6
100
AcDbArc
 50
296.8
 51
63.2
  0
LINE
  5
2EC
330
1F
100
AcDbEntity
  8
0
  6
Continuous
 62
     1
100
AcDbLine
 10
194.7
 20
182.7
 30
0.0
 11
194.7
 21
178.7
 31
0.0
  0
LINE
  5
2ED
330
1F
100
AcDbEntity
  8
0
  6
Continuous
 62
     1
100
AcDbLine
 10
197.7
 20
182.7
 30
0.0
 11
194.7
 21
182.7
 31
0.0
  0
LINE
  5
2EE
330
1F
100
AcDbEntity
  8
0
  6
Continuous
 62
     1
100
AcDbLine
 10
194.7
 20
178.7
 30
0.0
 11
197.7
 21
178.7
 31
0.0
  0
ARC
  5
2EF
330
1F
100
AcDbEntity
  8
0
  6
Continuous
 62
     1
100
AcDbCircle
 10
201.3
 20
195.7
 30
0.0
 40
14.6
100
AcDbArc
 50
116.8
 51
243.2
  0
ARC
  5
2F0
330
1F
100
AcDbEntity
  8
0
  6
Continuous
 62
     1
100
AcDbCircle
 10
201.3
 20
165.7
 30
0.0
 40
14.6
100
AcDbArc
 50
116.8
 51
243.2
  0
LINE
  5
2F1
330
1F
100
AcDbEntity
  8
0
  6
Continuous
 62
     1
100
AcDbLine
 10
157.7
 20
205.7
 30
0.0
 11
155.7
 21
205.7
 31
0.0
  0
LINE
  5
2F2
330
1F
100
AcDbEntity
  8
0
  6
Continuous
 62
     1
100
AcDbLine
 10
160.7
 20
208.7
 30
0.0
 11
194.7
 21
208.7
 31
0.0
  0
LINE
  5
2F3
330
1F
100
AcDbEntity
  8
0
  6
Continuous
 62
     1
100
AcDbLine
 10
157.7
 20
205.7
 30
0.0
 11
157.7
 21
208.7
 31
0.0
  0
LINE
  5
2F4
330
1F
100
AcDbEntity
  8
0
  6
Continuous
 62
     1
100
AcDbLine
 10
157.7
 20
208.7
 30
0.0
 11
160.7
 21
208.7
 31
0.0
  0
LINE
  5
2F5
330
1F
100
AcDbEntity
  8
0
  6
Continuous
 62
     1
100
AcDbLine
 10
155.7
 20
205.7
 30
0.0
 11
155.7
 21
135.5
 31
0.0
  0
LINE
  5
2F6
330
1F
100
AcDbEntity
  8
0
  6
Continuous
 62
     1
100
AcDbLine
 10
157.7
 20
129.5
 30
0.0
 11
157.7
 21
205.7
 31
0.0
  0
ARC
  5
2F7
330
1F
100
AcDbEntity
  8
0
  6
Continuous
 62
     1
100
AcDbCircle
 10
154.1
 20
195.7
 30
0.0
 40
14.6
100
AcDbArc
 50
296.8
 51
63.2
  0
LINE
  5
2F8
330
1F
100
AcDbEntity
  8
0
  6
Continuous
 62
     1
100
AcDbLine
 10
194.7
 20
208.7
 30
0.0
 11
197.7
 21
208.7
 31
0.0
  0
LINE
  5
2F9
330
1F
100
AcDbEntity
  8
0
  6
Continuous
 62
     1
100
AcDbLine
 10
197.7
 20
205.7
 30
0.0
 11
199.7
 21
205.7
 31
0.0
  0
LINE
  5
2FA
330
1F
100
AcDbEntity
  8
0
  6
Continuous
 62
     1
100
AcDbLine
 10
197.7
 20
129.5
 30
0.0
 11
197.7
 21
205.7
 31
0.0
  0
LINE
  5
2FB
330
1F
100
AcDbEntity
  8
0
  6
Continuous
 62
     1
100
AcDbLine
 10
197.7
 20
208.7
 30
0.0
 11
197.7
 21
205.7
 31
0.0
  0
LINE
  5
2FC
330
1F
100
AcDbEntity
  8
0
  6
Continuous
 62
     1
100
AcDbLine
 10
166.7
 20
211.7
 30
0.0
 11
166.7
 21
208.7
 31
0.0
  0
LINE
  5
2FD
330
1F
100
AcDbEntity
  8
0
  6
Continuous
 62
     1
100
AcDbLine
 10
165.7
 20
212.7
 30
0.0
 11
165.7
 21
216.3
 31
0.0
  0
LINE
  5
2FE
330
1F
100
AcDbEntity
  8
0
  6
Continuous
 62
     1
100
AcDbLine
 10
166.7
 20
211.7
 30
0.0
 11
165.7
 21
212.7
 31
0.0
  0
LINE
  5
2FF
330
1F
100
AcDbEntity
  8
0
  6
Continuous
 62
     1
100
AcDbLine
 10
189.7
 20
216.3
 30
0.0
 11
189.7
 21
212.7
 31
0.0
  0
LINE
  5
300
330
1F
100
AcDbEntity
  8
0
  6
Continuous
 62
     1
100
AcDbLine
 10
189.7
 20
212.7
 30
0.0
 11
188.7
 21
211.7
 31
0.0
  0
LINE
  5
301
330
1F
100
AcDbEntity
  8
0
  6
Continuous
 62
     1
100
AcDbLine
 10
188.7
 20
208.7
 30
0.0
 11
188.7
 21
211.7
 31
0.0
  0
ARC
  5
302
330
1F
100
AcDbEntity
  8
0
  6
Continuous
 62
     1
100
AcDbCircle
 10
200.2
 20
216.8
 30
0.0
 40
0.5
100
AcDbArc
 50
270.0
 51
0.0
  0
ARC
  5
303
330
1F
100
AcDbEntity
  8
0
  6
Continuous
 62
     1
100
AcDbCircle
 10
194.7
 20
217.3
 30
0.0
 40
1.0
100
AcDbArc
 50
270.0
 51
0.0
  0
LINE
  5
304
330
1F
100
AcDbEntity
  8
0
  6
Continuous
 62
     1
100
AcDbLine
 10
177.7
 20
269.5
 30
0.0
 11
177.7
 21
216.3
 31
0.0
  0
LINE
  5
305
330
1F
100
AcDbEntity
  8
0
  6
Continuous
 62
     1
100
AcDbLine
 10
179.7
 20
253.1
 30
0.0
 11
179.7
 21
216.3
 31
0.0
  0
LINE
  5
306
330
1F
100
AcDbEntity
  8
0
  6
Continuous
 62
     1
100
AcDbLine
 10
179.7
 20
216.3
 30
0.0
 11
200.2
 21
216.3
 31
0.0
  0
ARC
  5
307
330
1F
100
AcDbEntity
  8
0
  6
Continuous
 62
     1
100
AcDbCircle
 10
155.2
 20
216.8
 30
0.0
 40
0.5
100
AcDbArc
 50
180.0
 51
270.0
  0
ARC
  5
308
330
1F
100
AcDbEntity
  8
0
  6
Continuous
 62
     1
100
AcDbCircle
 10
160.7
 20
217.3
 30
0.0
 40
1.0
100
AcDbArc
 50
180.0
 51
270.0
  0
LINE
  5
309
330
1F
100
AcDbEntity
  8
0
  6
Continuous
 62
     1
100
AcDbLine
 10
177.7
 20
216.3
 30
0.0
 11
155.2
 21
216.3
 31
0.0
  0
LINE
  5
30A
330
1F
100
AcDbEntity
  8
0
  6
Continuous
 62
     1
100
AcDbLine
 10
177.7
 20
240.3
 30
0.0
 11
160.7
 21
240.3
 31
0.0
  0
ARC
  5
30B
330
1F
100
AcDbEntity
  8
0
  6
Continuous
 62
     1
100
AcDbCircle
 10
160.7
 20
239.3
 30
0.0
 40
1.0
100
AcDbArc
 50
90.0
 51
180.0
  0
LINE
  5
30C
330
1F
100
AcDbEntity
  8
0
  6
Continuous
 62
     1
100
AcDbLine
 10
159.7
 20
239.3
 30
0.0
 11
159.7
 21
217.3
 31
0.0
  0
LINE
  5
30D
330
1F
100
AcDbEntity
  8
0
  6
Continuous
 62
     1
100
AcDbLine
 10
194.7
 20
240.3
 30
0.0
 11
179.7
 21
240.3
 31
0.0
  0
ARC
  5
30E
330
1F
100
AcDbEntity
  8
0
  6
Continuous
 62
     1
100
AcDbCircle
 10
194.7
 20
239.3
 30
0.0
 40
1.0
100
AcDbArc
 50
0.0
 51
90.0
  0
LINE
  5
30F
330
1F
100
AcDbEntity
  8
0
  6
Continuous
 62
     1
100
AcDbLine
 10
200.7
 20
216.8
 30
0.0
 11
200.7
 21
242.0
 31
0.0
  0
LINE
  5
310
330
1F
100
AcDbEntity
  8
0
  6
Continuous
 62
     1
100
AcDbLine
 10
195.7
 20
217.3
 30
0.0
 11
195.7
 21
239.3
 31
0.0
  0
ARC
  5
311
330
1F
100
AcDbEntity
  8
0
  6
Continuous
 62
     1
100
AcDbCircle
 10
200.2
 20
252.6
 30
0.0
 40
0.5
100
AcDbArc
 50
0.0
 51
90.0
  0
ARC
  5
312
330
1F
100
AcDbEntity
  8
0
  6
Continuous
 62
     1
100
AcDbCircle
 10
200.2
 20
253.8
 30
0.0
 40
0.5
100
AcDbArc
 50
270.0
 51
0.0
  0
LINE
  5
313
330
1F
100
AcDbEntity
  8
0
  6
Continuous
 62
     1
100
AcDbLine
 10
200.2
 20
253.3
 30
0.0
 11
178.2
 21
253.3
 31
0.0
  0
LINE
  5
314
330
1F
100
AcDbEntity
  8
0
  6
Continuous
 62
     1
100
AcDbLine
 10
200.2
 20
253.3
 30
0.0
 11
178.2
 21
253.3
 31
0.0
  0
LINE
  5
315
330
1F
100
AcDbEntity
  8
0
  6
Continuous
 62
     1
100
AcDbLine
 10
200.2
 20
253.1
 30
0.0
 11
179.7
 21
253.1
 31
0.0
  0
LINE
  5
316
330
1F
100
AcDbEntity
  8
0
  6
Continuous
 62
     1
100
AcDbLine
 10
200.7
 20
241.8
 30
0.0
 11
200.7
 21
252.6
 31
0.0
  0
ARC
  5
317
330
1F
100
AcDbEntity
  8
0
  6
Continuous
 62
     1
100
AcDbCircle
 10
200.2
 20
268.8
 30
0.0
 40
0.5
100
AcDbArc
 50
0.0
 51
90.0
  0
LINE
  5
318
330
1F
100
AcDbEntity
  8
0
  6
Continuous
 62
     1
100
AcDbLine
 10
200.7
 20
270.0
 30
0.0
 11
200.7
 21
296.3
 31
0.0
  0
ARC
  5
319
330
1F
100
AcDbEntity
  8
0
  6
Continuous
 62
     1
100
AcDbCircle
 10
200.2
 20
270.0
 30
0.0
 40
0.5
100
AcDbArc
 50
270.0
 51
0.0
  0
LINE
  5
31A
330
1F
100
AcDbEntity
  8
0
  6
Continuous
 62
     1
100
AcDbLine
 10
178.2
 20
269.3
 30
0.0
 11
200.2
 21
269.3
 31
0.0
  0
LINE
  5
31B
330
1F
100
AcDbEntity
  8
0
  6
Continuous
 62
     1
100
AcDbLine
 10
178.2
 20
269.3
 30
0.0
 11
200.2
 21
269.3
 31
0.0
  0
LINE
  5
31C
330
1F
100
AcDbEntity
  8
0
  6
Continuous
 62
     1
100
AcDbLine
 10
177.7
 20
269.5
 30
0.0
 11
200.2
 21
269.5
 31
0.0
  0
LINE
  5
31D
330
1F
100
AcDbEntity
  8
0
  6
Continuous
 62
     1
100
AcDbLine
 10
200.7
 20
253.8
 30
0.0
 11
200.7
 21
268.8
 31
0.0
  0
LINE
  5
31E
330
1F
100
AcDbEntity
  8
0
  6
Continuous
 62
     1
100
AcDbLine
 10
162.7
 20
294.3
 30
0.0
 11
154.7
 21
294.3
 31
0.0
  0
LINE
  5
31F
330
1F
100
AcDbEntity
  8
0
  6
Continuous
 62
     1
100
AcDbLine
 10
154.7
 20
296.3
 30
0.0
 11
173.7
 21
296.3
 31
0.0
  0
LINE
  5
320
330
1F
100
AcDbEntity
  8
0
  6
Continuous
 62
     1
100
AcDbLine
 10
162.7
 20
272.3
 30
0.0
 11
162.7
 21
296.3
 31
0.0
  0
LINE
  5
321
330
1F
100
AcDbEntity
  8
0
  6
Continuous
 62
     1
100
AcDbLine
 10
154.7
 20
216.8
 30
0.0
 11
154.7
 21
296.3
 31
0.0
  0
LINE
  5
322
330
1F
100
AcDbEntity
  8
0
  6
Continuous
 62
     1
100
AcDbLine
 10
171.2
 20
270.3
 30
0.0
 11
164.7
 21
270.3
 31
0.0
  0
ARC
  5
323
330
1F
100
AcDbEntity
  8
0
  6
Continuous
 62
     1
100
AcDbCircle
 10
164.7
 20
272.3
 30
0.0
 40
2.0
100
AcDbArc
 50
180.0
 51
270.0
  0
ARC
  5
324
330
1F
100
AcDbEntity
  8
0
  6
Continuous
 62
     1
100
AcDbCircle
 10
184.2
 20
272.3
 30
0.0
 40
2.0
100
AcDbArc
 50
180.0
 51
270.0
  0
LINE
  5
325
330
1F
100
AcDbEntity
  8
0
  6
Continuous
 62
     1
100
AcDbLine
 10
173.2
 20
296.3
 30
0.0
 11
173.2
 21
272.3
 31
0.0
  0
LINE
  5
326
330
1F
100
AcDbEntity
  8
0
  6
Continuous
 62
     1
100
AcDbLine
 10
182.2
 20
296.3
 30
0.0
 11
182.2
 21
272.3
 31
0.0
  0
ARC
  5
327
330
1F
100
AcDbEntity
  8
0
  6
Continuous
 62
     1
100
AcDbCircle
 10
171.2
 20
272.3
 30
0.0
 40
2.0
100
AcDbArc
 50
270.0
 51
0.0
  0
ARC
  5
328
330
1F
100
AcDbEntity
  8
0
  6
Continuous
 62
     1
100
AcDbCircle
 10
190.7
 20
272.3
 30
0.0
 40
2.0
100
AcDbArc
 50
270.0
 51
0.0
  0
LINE
  5
329
330
1F
100
AcDbEntity
  8
0
  6
Continuous
 62
     1
100
AcDbLine
 10
184.2
 20
270.3
 30
0.0
 11
190.7
 21
270.3
 31
0.0
  0
LINE
  5
32A
330
1F
100
AcDbEntity
  8
0
  6
Continuous
 62
     1
100
AcDbLine
 10
192.7
 20
272.3
 30
0.0
 11
192.7
 21
296.3
 31
0.0
  0
LINE
  5
32B
330
1F
100
AcDbEntity
  8
0
  6
Continuous
 62
     1
100
AcDbLine
 10
200.7
 20
294.3
 30
0.0
 11
192.7
 21
294.3
 31
0.0
  0
LINE
  5
32C
330
1F
100
AcDbEntity
  8
0
  6
Continuous
 62
     1
100
AcDbLine
 10
200.7
 20
296.3
 30
0.0
 11
181.7
 21
296.3
 31
0.0
  0
LINE
  5
32D
330
1F
100
AcDbEntity
  8
0
  6
Continuous
 62
     1
100
AcDbLine
 10
173.2
 20
306.3
 30
0.0
 11
173.2
 21
318.3
 31
0.0
  0
LINE
  5
32E
330
1F
100
AcDbEntity
  8
0
  6
Continuous
 62
     1
100
AcDbLine
 10
154.7
 20
306.3
 30
0.0
 11
173.7
 21
306.3
 31
0.0
  0
LINE
  5
32F
330
1F
100
AcDbEntity
  8
0
  6
Continuous
 62
     1
100
AcDbLine
 10
200.7
 20
306.3
 30
0.0
 11
181.7
 21
306.3
 31
0.0
  0
ARC
  5
330
330
1F
100
AcDbEntity
  8
0
  6
Continuous
 62
     1
100
AcDbCircle
 10
184.2
 20
318.3
 30
0.0
 40
2.0
100
AcDbArc
 50
90.0
 51
180.0
  0
LINE
  5
331
330
1F
100
AcDbEntity
  8
0
  6
Continuous
 62
     1
100
AcDbLine
 10
182.2
 20
306.3
 30
0.0
 11
182.2
 21
318.3
 31
0.0
  0
LINE
  5
332
330
1F
100
AcDbEntity
  8
0
  6
Continuous
 62
     1
100
AcDbLine
 10
184.2
 20
320.3
 30
0.0
 11
190.7
 21
320.3
 31
0.0
  0
ARC
  5
333
330
1F
100
AcDbEntity
  8
0
  6
Continuous
 62
     1
100
AcDbCircle
 10
190.7
 20
318.3
 30
0.0
 40
2.0
100
AcDbArc
 50
0.0
 51
90.0
  0
LINE
  5
334
330
1F
100
AcDbEntity
  8
0
  6
Continuous
 62
     1
100
AcDbLine
 10
187.7
 20
336.1
 30
0.0
 11
187.7
 21
320.3
 31
0.0
  0
LINE
  5
335
330
1F
100
AcDbEntity
  8
0
  6
Continuous
 62
     1
100
AcDbLine
 10
187.5
 20
320.3
 30
0.0
 11
187.5
 21
335.3
 31
0.0
  0
ARC
  5
336
330
1F
100
AcDbEntity
  8
0
  6
Continuous
 62
     1
100
AcDbCircle
 10
193.7
 20
330.1
 30
0.0
 40
1.0
100
AcDbArc
 50
180.0
 51
270.0
  0
LINE
  5
337
330
1F
100
AcDbEntity
  8
0
  6
Continuous
 62
     1
100
AcDbLine
 10
193.7
 20
329.1
 30
0.0
 11
198.7
 21
329.1
 31
0.0
  0
ARC
  5
338
330
1F
100
AcDbEntity
  8
0
  6
Continuous
 62
     1
100
AcDbCircle
 10
198.7
 20
327.1
 30
0.0
 40
2.0
100
AcDbArc
 50
0.0
 51
90.0
  0
ARC
  5
339
330
1F
100
AcDbEntity
  8
0
  6
Continuous
 62
     1
100
AcDbCircle
 10
189.7
 20
336.1
 30
0.0
 40
2.0
100
AcDbArc
 50
90.0
 51
180.0
  0
LINE
  5
33A
330
1F
100
AcDbEntity
  8
0
  6
Continuous
 62
     1
100
AcDbLine
 10
190.7
 20
338.1
 30
0.0
 11
189.7
 21
338.1
 31
0.0
  0
ARC
  5
33B
330
1F
100
AcDbEntity
  8
0
  6
Continuous
 62
     1
100
AcDbCircle
 10
190.7
 20
336.1
 30
0.0
 40
2.0
100
AcDbArc
 50
0.0
 51
90.0
  0
LINE
  5
33C
330
1F
100
AcDbEntity
  8
0
  6
Continuous
 62
     1
100
AcDbLine
 10
192.7
 20
324.3
 30
0.0
 11
192.7
 21
336.1
 31
0.0
  0
LINE
  5
33D
330
1F
100
AcDbEntity
  8
0
  6
Continuous
 62
     1
100
AcDbLine
 10
200.7
 20
327.1
 30
0.0
 11
200.7
 21
306.3
 31
0.0
  0
LINE
  5
33E
330
1F
100
AcDbEntity
  8
0
  6
Continuous
 62
     1
100
AcDbLine
 10
192.7
 20
324.3
 30
0.0
 11
192.7
 21
306.3
 31
0.0
  0
LINE
  5
33F
330
1F
100
AcDbEntity
  8
0
  6
Continuous
 62
     1
100
AcDbLine
 10
171.2
 20
320.3
 30
0.0
 11
164.7
 21
320.3
 31
0.0
  0
ARC
  5
340
330
1F
100
AcDbEntity
  8
0
  6
Continuous
 62
     1
100
AcDbCircle
 10
164.7
 20
318.3
 30
0.0
 40
2.0
100
AcDbArc
 50
90.0
 51
180.0
  0
ARC
  5
341
330
1F
100
AcDbEntity
  8
0
  6
Continuous
 62
     1
100
AcDbCircle
 10
171.2
 20
318.3
 30
0.0
 40
2.0
100
AcDbArc
 50
0.0
 51
90.0
  0
LINE
  5
342
330
1F
100
AcDbEntity
  8
0
  6
Continuous
 62
     1
100
AcDbLine
 10
167.7
 20
336.1
 30
0.0
 11
167.7
 21
320.3
 31
0.0
  0
LINE
  5
343
330
1F
100
AcDbEntity
  8
0
  6
Continuous
 62
     1
100
AcDbLine
 10
167.9
 20
320.3
 30
0.0
 11
167.9
 21
335.3
 31
0.0
  0
ARC
  5
344
330
1F
100
AcDbEntity
  8
0
  6
Continuous
 62
     1
100
AcDbCircle
 10
161.7
 20
330.1
 30
0.0
 40
1.0
100
AcDbArc
 50
270.0
 51
0.0
  0
LINE
  5
345
330
1F
100
AcDbEntity
  8
0
  6
Continuous
 62
     1
100
AcDbLine
 10
161.7
 20
329.1
 30
0.0
 11
156.7
 21
329.1
 31
0.0
  0
ARC
  5
346
330
1F
100
AcDbEntity
  8
0
  6
Continuous
 62
     1
100
AcDbCircle
 10
156.7
 20
327.1
 30
0.0
 40
2.0
100
AcDbArc
 50
90.0
 51
180.0
  0
ARC
  5
347
330
1F
100
AcDbEntity
  8
0
  6
Continuous
 62
     1
100
AcDbCircle
 10
165.7
 20
336.1
 30
0.0
 40
2.0
100
AcDbArc
 50
0.0
 51
90.0
  0
LINE
  5
348
330
1F
100
AcDbEntity
  8
0
  6
Continuous
 62
     1
100
AcDbLine
 10
164.7
 20
338.1
 30
0.0
 11
165.7
 21
338.1
 31
0.0
  0
ARC
  5
349
330
1F
100
AcDbEntity
  8
0
  6
Continuous
 62
     1
100
AcDbCircle
 10
164.7
 20
336.1
 30
0.0
 40
2.0
100
AcDbArc
 50
90.0
 51
180.0
  0
LINE
  5
34A
330
1F
100
AcDbEntity
  8
0
  6
Continuous
 62
     1
100
AcDbLine
 10
162.7
 20
323.0
 30
0.0
 11
162.7
 21
336.1
 31
0.0
  0
LINE
  5
34B
330
1F
100
AcDbEntity
  8
0
  6
Continuous
 62
     1
100
AcDbLine
 10
154.7
 20
327.1
 30
0.0
 11
154.7
 21
306.3
 31
0.0
  0
LINE
  5
34C
330
1F
100
AcDbEntity
  8
0
  6
Continuous
 62
     1
100
AcDbLine
 10
162.7
 20
324.3
 30
0.0
 11
162.7
 21
306.3
 31
0.0
  0
LINE
  5
34D
330
1F
100
AcDbEntity
  8
0
  6
LTYPE4
 62
     2
100
AcDbLine
 10
192.7
 20
301.3
 30
0.0
 11
165.45
 21
301.3
 31
0.0
  0
LINE
  5
34E
330
1F
100
AcDbEntity
  8
1
  6
Continuous
 62
     2
100
AcDbLine
 10
5.0
 20
415.0
 30
0.0
 11
5.0
 21
5.0
 31
0.0
  0
LINE
  5
34F
330
1F
100
AcDbEntity
  8
1
  6
Continuous
 62
     2
100
AcDbLine
 10
5.0
 20
5.0
 30
0.0
 11
589.0
 21
5.0
 31
0.0
  0
LINE
  5
350
330
1F
100
AcDbEntity
  8
1
  6
Continuous
 62
     2
100
AcDbLine
 10
589.0
 20
415.0
 30
0.0
 11
5.0
 21
415.0
 31
0.0
  0
LINE
  5
351
330
1F
100
AcDbEntity
  8
1
  6
Continuous
 62
     2
100
AcDbLine
 10
589.0
 20
5.0
 30
0.0
 11
589.0
 21
415.0
 31
0.0
  0
LINE
  5
352
330
1F
100
AcDbEntity
  8
1
  6
Continuous
 62
     2
100
AcDbLine
 10
5.0
 20
17.0
 30
0.0
 11
145.0
 21
17.0
 31
0.0
  0
LINE
  5
353
330
1F
100
AcDbEntity
  8
1
  6
Continuous
 62
     2
100
AcDbLine
 10
145.0
 20
29.0
 30
0.0
 11
5.0
 21
29.0
 31
0.0
  0
LINE
  5
354
330
1F
100
AcDbEntity
  8
1
  6
Continuous
 62
     2
100
AcDbLine
 10
5.0
 20
41.0
 30
0.0
 11
145.0
 21
41.0
 31
0.0
  0
LINE
  5
355
330
1F
100
AcDbEntity
  8
1
  6
Continuous
 62
     2
100
AcDbLine
 10
145.0
 20
53.0
 30
0.0
 11
5.0
 21
53.0
 31
0.0
  0
LINE
  5
356
330
1F
100
AcDbEntity
  8
1
  6
Continuous
 62
     2
100
AcDbLine
 10
5.0
 20
65.0
 30
0.0
 11
145.0
 21
65.0
 31
0.0
  0
LINE
  5
357
330
1F
100
AcDbEntity
  8
1
  6
Continuous
 62
     2
100
AcDbLine
 10
145.0
 20
77.0
 30
0.0
 11
5.0
 21
77.0
 31
0.0
  0
TEXT
  5
358
330
1F
100
AcDbEntity
  8
1
  6
Continuous
 62
     2
100
AcDbText
 10
10.0
 20
44.0
 30
0.0
 40
6.0
  1
黒色半艶消し焼付け塗装
 41
0.9
  7
KANJI0
 72
     5
 11
75.394
 21
44.0
 31
0.0
100
AcDbText
  0
TEXT
  5
35A
330
1F
100
AcDbEntity
  8
1
  6
Continuous
 62
     2
100
AcDbText
 10
10.0
 20
56.0
 30
0.0
 40
6.0
  1
バトンクランプハンガー
 41
0.9
  7
KANJI0
 72
     5
 11
75.394
 21
56.0
 31
0.0
100
AcDbText
  0
TEXT
  5
35B
330
1F
100
AcDbEntity
  8
1
  6
Continuous
 62
     2
100
AcDbText
 10
10.0
 20
32.0
 30
0.0
 40
6.0
  1
自重  2.3kg
 41
0.9
  7
KANJI0
 72
     5
 11
63.3952
 21
32.0
 31
0.0
100
AcDbText
  0
TEXT
  5
35C
330
1F
100
AcDbEntity
  8
1
  6
Continuous
 62
     2
100
AcDbText
 10
10.0
 20
20.0
 30
0.0
 40
6.0
  1
耐荷重  20kg(程度迄)
 41
0.9
  7
KANJI0
 72
     5
 11
93.3922
 21
20.0
 31
0.0
100
AcDbText
  0
TEXT
  5
35D
330
1F
100
AcDbEntity
  8
1
  6
Continuous
 62
     2
100
AcDbText
 10
10.0
 20
8.0
 30
0.0
 40
6.0
  1
用紙 A4  尺度  1/2
 41
0.9
  7
KANJI0
 72
     5
 11
93.3922
 21
8.0
 31
0.0
100
AcDbText
  0
LINE
  5
35E
330
1F
100
AcDbEntity
  8
1
  6
Continuous
 62
     2
100
AcDbLine
 10
145.0
 20
77.0
 30
0.0
 11
145.0
 21
5.0
 31
0.0
  0
TEXT
  5
35F
330
1F
100
AcDbEntity
  8
1
  6
Continuous
 62
     2
100
AcDbText
 10
10.0
 20
67.0
 30
0.0
 40
8.0
  1
BCH-140B
 41
0.9
  7
KANJI1
 72
     5
 11
73.1944
 21
67.0
 31
0.0
100
AcDbText
  0
ARC
  5
361
330
1F
100
AcDbEntity
  8
2
  6
Continuous
 62
     2
100
AcDbCircle
 10
57.7
 20
247.8
 30
0.0
 40
5.0
100
AcDbArc
 50
180.0
 51
270.0
  0
LINE
  5
362
330
1F
100
AcDbEntity
  8
2
  6
Continuous
 62
     2
100
AcDbLine
 10
57.7
 20
242.8
 30
0.0
 11
107.7
 21
242.8
 31
0.0
  0
ARC
  5
363
330
1F
100
AcDbEntity
  8
2
  6
Continuous
 62
     2
100
AcDbCircle
 10
107.7
 20
247.8
 30
0.0
 40
5.0
100
AcDbArc
 50
270.0
 51
0.0
  0
LINE
  5
364
330
1F
100
AcDbEntity
  8
2
  6
Continuous
 62
     2
100
AcDbLine
 10
112.7
 20
247.8
 30
0.0
 11
112.7
 21
272.8
 31
0.0
  0
LINE
  5
365
330
1F
100
AcDbEntity
  8
2
  6
Continuous
 62
     2
100
AcDbLine
 10
107.7
 20
277.8
 30
0.0
 11
57.7
 21
277.8
 31
0.0
  0
ARC
  5
366
330
1F
100
AcDbEntity
  8
2
  6
Continuous
 62
     2
100
AcDbCircle
 10
57.7
 20
272.8
 30
0.0
 40
5.0
100
AcDbArc
 50
90.0
 51
180.0
  0
LINE
  5
367
330
1F
100
AcDbEntity
  8
2
  6
Continuous
 62
     2
100
AcDbLine
 10
52.7
 20
272.8
 30
0.0
 11
52.7
 21
247.8
 31
0.0
  0
LINE
  5
368
330
1F
100
AcDbEntity
  8
2
  6
Continuous
 62
     2
100
AcDbLine
 10
107.7
 20
277.8
 30
0.0
 11
170.7
 21
325.8
 31
0.0
  0
LINE
  5
369
330
1F
100
AcDbEntity
  8
2
  6
Continuous
 62
     2
100
AcDbLine
 10
170.7
 20
325.8
 30
0.0
 11
112.7
 21
272.8
 31
0.0
  0
ARC
  5
36A
330
1F
100
AcDbEntity
  8
2
  6
Continuous
 62
     2
100
AcDbCircle
 10
57.7
 20
341.3
 30
0.0
 40
5.0
100
AcDbArc
 50
180.0
 51
270.0
  0
ARC
  5
36B
330
1F
100
AcDbEntity
  8
2
  6
Continuous
 62
     2
100
AcDbCircle
 10
107.7
 20
361.3
 30
0.0
 40
5.0
100
AcDbArc
 50
0.0
 51
90.0
  0
LINE
  5
36C
330
1F
100
AcDbEntity
  8
2
  6
Continuous
 62
     2
100
AcDbLine
 10
107.7
 20
366.3
 30
0.0
 11
57.7
 21
366.3
 31
0.0
  0
ARC
  5
36D
330
1F
100
AcDbEntity
  8
2
  6
Continuous
 62
     2
100
AcDbCircle
 10
57.7
 20
361.3
 30
0.0
 40
5.0
100
AcDbArc
 50
90.0
 51
180.0
  0
LINE
  5
36E
330
1F
100
AcDbEntity
  8
2
  6
Continuous
 62
     2
100
AcDbLine
 10
52.7
 20
361.3
 30
0.0
 11
52.7
 21
341.3
 31
0.0
  0
LINE
  5
36F
330
1F
100
AcDbEntity
  8
2
  6
Continuous
 62
     2
100
AcDbLine
 10
112.7
 20
357.3
 30
0.0
 11
170.2
 21
340.8
 31
0.0
  0
LINE
  5
370
330
1F
100
AcDbEntity
  8
2
  6
Continuous
 62
     2
100
AcDbLine
 10
170.2
 20
340.8
 30
0.0
 11
112.7
 21
352.8
 31
0.0
  0
LINE
  5
371
330
1F
100
AcDbEntity
  8
2
  6
Continuous
 62
     2
100
AcDbLine
 10
112.7
 20
357.3
 30
0.0
 11
112.7
 21
361.3
 31
0.0
  0
LINE
  5
372
330
1F
100
AcDbEntity
  8
2
  6
Continuous
 62
     2
100
AcDbLine
 10
112.7
 20
341.3
 30
0.0
 11
112.7
 21
352.8
 31
0.0
  0
LINE
  5
373
330
1F
100
AcDbEntity
  8
2
  6
Continuous
 62
     2
100
AcDbLine
 10
57.7
 20
336.3
 30
0.0
 11
107.7
 21
336.3
 31
0.0
  0
ARC
  5
374
330
1F
100
AcDbEntity
  8
2
  6
Continuous
 62
     2
100
AcDbCircle
 10
107.7
 20
341.3
 30
0.0
 40
5.0
100
AcDbArc
 50
270.0
 51
0.0
  0
CIRCLE
  5
375
330
1F
100
AcDbEntity
  8
2
  6
Continuous
 62
     2
100
AcDbCircle
 10
82.7
 20
351.3
 30
0.0
 40
3.6
  0
CIRCLE
  5
376
330
1F
100
AcDbEntity
  8
2
  6
Continuous
 62
     2
100
AcDbCircle
 10
82.7
 20
351.3
 30
0.0
 40
4.0
  0
LINE
  5
377
330
1F
100
AcDbEntity
  8
2
  6
Continuous
 62
     2
100
AcDbLine
 10
90.205553499
 20
351.3
 30
0.0
 11
86.45277675
 21
357.8
 31
0.0
  0
LINE
  5
378
330
1F
100
AcDbEntity
  8
2
  6
Continuous
 62
     2
100
AcDbLine
 10
86.45277675
 20
357.8
 30
0.0
 11
78.94722325
 21
357.8
 31
0.0
  0
LINE
  5
379
330
1F
100
AcDbEntity
  8
2
  6
Continuous
 62
     2
100
AcDbLine
 10
78.94722325
 20
357.8
 30
0.0
 11
75.194446501
 21
351.3
 31
0.0
  0
LINE
  5
37A
330
1F
100
AcDbEntity
  8
2
  6
Continuous
 62
     2
100
AcDbLine
 10
75.194446501
 20
351.3
 30
0.0
 11
78.94722325
 21
344.8
 31
0.0
  0
LINE
  5
37B
330
1F
100
AcDbEntity
  8
2
  6
Continuous
 62
     2
100
AcDbLine
 10
78.94722325
 20
344.8
 30
0.0
 11
86.45277675
 21
344.8
 31
0.0
  0
LINE
  5
37C
330
1F
100
AcDbEntity
  8
2
  6
Continuous
 62
     2
100
AcDbLine
 10
86.45277675
 20
344.8
 30
0.0
 11
90.205553499
 21
351.3
 31
0.0
  0
CIRCLE
  5
37D
330
1F
100
AcDbEntity
  8
2
  6
Continuous
 62
     2
100
AcDbCircle
 10
82.7
 20
351.3
 30
0.0
 40
6.5
  0
LINE
  5
37E
330
1F
100
AcDbEntity
  8
2
  6
Continuous
 62
     2
100
AcDbLine
 10
92.514954576
 20
260.3
 30
0.0
 11
87.607477288
 21
268.8
 31
0.0
  0
LINE
  5
37F
330
1F
100
AcDbEntity
  8
2
  6
Continuous
 62
     2
100
AcDbLine
 10
87.607477288
 20
268.8
 30
0.0
 11
77.792522712
 21
268.8
 31
0.0
  0
LINE
  5
380
330
1F
100
AcDbEntity
  8
2
  6
Continuous
 62
     2
100
AcDbLine
 10
77.792522712
 20
268.8
 30
0.0
 11
72.885045424
 21
260.3
 31
0.0
  0
LINE
  5
381
330
1F
100
AcDbEntity
  8
2
  6
Continuous
 62
     2
100
AcDbLine
 10
72.885045424
 20
260.3
 30
0.0
 11
77.792522712
 21
251.8
 31
0.0
  0
LINE
  5
382
330
1F
100
AcDbEntity
  8
2
  6
Continuous
 62
     2
100
AcDbLine
 10
77.792522712
 20
251.8
 30
0.0
 11
87.607477288
 21
251.8
 31
0.0
  0
LINE
  5
383
330
1F
100
AcDbEntity
  8
2
  6
Continuous
 62
     2
100
AcDbLine
 10
87.607477288
 20
251.8
 30
0.0
 11
92.514954576
 21
260.3
 31
0.0
  0
CIRCLE
  5
384
330
1F
100
AcDbEntity
  8
2
  6
Continuous
 62
     2
100
AcDbCircle
 10
82.7
 20
260.3
 30
0.0
 40
3.6
  0
CIRCLE
  5
385
330
1F
100
AcDbEntity
  8
2
  6
Continuous
 62
     2
100
AcDbCircle
 10
82.7
 20
260.3
 30
0.0
 40
4.0
  0
CIRCLE
  5
386
330
1F
100
AcDbEntity
  8
2
  6
Continuous
 62
     2
100
AcDbCircle
 10
82.7
 20
260.3
 30
0.0
 40
8.5
  0
LINE
  5
387
330
1F
100
AcDbEntity
  8
2
  6
LTYPE4
 62
     2
100
AcDbLine
 10
72.55
 20
351.3
 30
0.0
 11
92.85
 21
351.3
 31
0.0
  0
LINE
  5
388
330
1F
100
AcDbEntity
  8
2
  6
LTYPE4
 62
     2
100
AcDbLine
 10
82.7
 20
360.45
 30
0.0
 11
82.7
 21
342.15
 31
0.0
  0
LINE
  5
389
330
1F
100
AcDbEntity
  8
2
  6
LTYPE4
 62
     2
100
AcDbLine
 10
70.5
 20
260.3
 30
0.0
 11
94.9
 21
260.3
 31
0.0
  0
LINE
  5
38A
330
1F
100
AcDbEntity
  8
2
  6
LTYPE4
 62
     2
100
AcDbLine
 10
82.7
 20
271.65
 30
0.0
 11
82.7
 21
248.95
 31
0.0
  0
CIRCLE
  5
38B
330
1F
100
AcDbEntity
  8
3
  6
Continuous
 62
     2
100
AcDbCircle
 10
447.7
 20
301.3
 30
0.0
 40
19.5
  0
CIRCLE
  5
38C
330
1F
100
AcDbEntity
  8
3
  6
Continuous
 62
     2
100
AcDbCircle
 10
447.7
 20
301.3
 30
0.0
 40
20.0
  0
LINE
  5
38D
330
1F
100
AcDbEntity
  8
3
  6
Continuous
 62
     2
100
AcDbLine
 10
155.2
 20
296.3
 30
0.0
 11
165.2
 21
306.3
 31
0.0
  0
LINE
  5
38E
330
1F
100
AcDbEntity
  8
3
  6
Continuous
 62
     2
100
AcDbLine
 10
170.2
 20
306.3
 30
0.0
 11
160.2
 21
296.3
 31
0.0
  0
LINE
  5
38F
330
1F
100
AcDbEntity
  8
3
  6
Continuous
 62
     2
100
AcDbLine
 10
165.2
 20
296.3
 30
0.0
 11
173.7
 21
304.8
 31
0.0
  0
LINE
  5
390
330
1F
100
AcDbEntity
  8
3
  6
Continuous
 62
     2
100
AcDbLine
 10
173.7
 20
299.8
 30
0.0
 11
170.2
 21
296.3
 31
0.0
  0
LINE
  5
391
330
1F
100
AcDbEntity
  8
3
  6
Continuous
 62
     2
100
AcDbLine
 10
181.7
 20
302.8
 30
0.0
 11
185.2
 21
306.3
 31
0.0
  0
LINE
  5
392
330
1F
100
AcDbEntity
  8
3
  6
Continuous
 62
     2
100
AcDbLine
 10
190.2
 20
306.3
 30
0.0
 11
181.7
 21
297.8
 31
0.0
  0
LINE
  5
393
330
1F
100
AcDbEntity
  8
3
  6
Continuous
 62
     2
100
AcDbLine
 10
185.2
 20
296.3
 30
0.0
 11
195.2
 21
306.3
 31
0.0
  0
LINE
  5
394
330
1F
100
AcDbEntity
  8
3
  6
Continuous
 62
     2
100
AcDbLine
 10
200.2
 20
306.3
 30
0.0
 11
190.2
 21
296.3
 31
0.0
  0
LINE
  5
395
330
1F
100
AcDbEntity
  8
3
  6
Continuous
 62
     2
100
AcDbLine
 10
195.2
 20
296.3
 30
0.0
 11
220.2
 21
321.3
 31
0.0
  0
LINE
  5
396
330
1F
100
AcDbEntity
  8
3
  6
Continuous
 62
     2
100
AcDbLine
 10
225.2
 20
321.3
 30
0.0
 11
200.2
 21
296.3
 31
0.0
  0
LINE
  5
397
330
1F
100
AcDbEntity
  8
3
  6
Continuous
 62
     2
100
AcDbLine
 10
200.7
 20
291.8
 30
0.0
 11
230.2
 21
321.3
 31
0.0
  0
LINE
  5
398
330
1F
100
AcDbEntity
  8
3
  6
Continuous
 62
     2
100
AcDbLine
 10
205.2
 20
321.3
 30
0.0
 11
200.7
 21
316.8
 31
0.0
  0
LINE
  5
399
330
1F
100
AcDbEntity
  8
3
  6
Continuous
 62
     2
100
AcDbLine
 10
200.7
 20
311.8
 30
0.0
 11
210.2
 21
321.3
 31
0.0
  0
LINE
  5
39A
330
1F
100
AcDbEntity
  8
3
  6
Continuous
 62
     2
100
AcDbLine
 10
215.2
 20
321.3
 30
0.0
 11
200.7
 21
306.8
 31
0.0
  0
LINE
  5
39B
330
1F
100
AcDbEntity
  8
3
  6
Continuous
 62
     2
100
AcDbLine
 10
228.7
 20
314.8
 30
0.0
 11
200.7
 21
286.8
 31
0.0
  0
LINE
  5
39C
330
1F
100
AcDbEntity
  8
3
  6
Continuous
 62
     2
100
AcDbLine
 10
200.7
 20
281.8
 30
0.0
 11
228.7
 21
309.8
 31
0.0
  0
LINE
  5
39D
330
1F
100
AcDbEntity
  8
3
  6
Continuous
 62
     2
100
AcDbLine
 10
229.7
 20
305.8
 30
0.0
 11
205.2
 21
281.3
 31
0.0
  0
LINE
  5
39E
330
1F
100
AcDbEntity
  8
3
  6
Continuous
 62
     2
100
AcDbLine
 10
210.2
 20
281.3
 30
0.0
 11
230.2
 21
301.3
 31
0.0
  0
LINE
  5
39F
330
1F
100
AcDbEntity
  8
3
  6
Continuous
 62
     2
100
AcDbLine
 10
229.2
 20
295.3
 30
0.0
 11
215.2
 21
281.3
 31
0.0
  0
LINE
  5
3A0
330
1F
100
AcDbEntity
  8
3
  6
Continuous
 62
     2
100
AcDbLine
 10
220.2
 20
281.3
 30
0.0
 11
228.7
 21
289.8
 31
0.0
  0
LINE
  5
3A1
330
1F
100
AcDbEntity
  8
3
  6
Continuous
 62
     2
100
AcDbLine
 10
229.2
 20
285.3
 30
0.0
 11
225.2
 21
281.3
 31
0.0
  0
LINE
  5
3A2
330
1F
100
AcDbEntity
  8
6
  6
Continuous
 62
     2
100
AcDbLine
 10
397.7
 20
320.3
 30
0.0
 11
397.7
 21
382.3
 31
0.0
  0
LINE
  5
3A3
330
1F
100
AcDbEntity
  8
6
  6
Continuous
 62
     2
100
AcDbLine
 10
397.7
 20
378.3
 30
0.0
 11
402.529629131
 21
377.005904774
 31
0.0
  0
LINE
  5
3A4
330
1F
100
AcDbEntity
  8
6
  6
Continuous
 62
     2
100
AcDbLine
 10
397.7
 20
378.3
 30
0.0
 11
402.529629131
 21
379.594095226
 31
0.0
  0
LINE
  5
3A5
330
1F
100
AcDbEntity
  8
6
  6
Continuous
 62
     2
100
AcDbLine
 10
397.7
 20
378.3
 30
0.0
 11
447.7
 21
378.3
 31
0.0
  0
LINE
  5
3A6
330
1F
100
AcDbEntity
  8
6
  6
Continuous
 62
     2
100
AcDbLine
 10
447.7
 20
378.3
 30
0.0
 11
442.870370869
 21
379.594095226
 31
0.0
  0
LINE
  5
3A7
330
1F
100
AcDbEntity
  8
6
  6
Continuous
 62
     2
100
AcDbLine
 10
447.7
 20
378.3
 30
0.0
 11
442.870370869
 21
377.005904774
 31
0.0
  0
TEXT
  5
3A8
330
1F
100
AcDbEntity
  8
6
  6
Continuous
 62
     2
100
AcDbText
 10
418.8
 20
380.3
 30
0.0
 40
6.0
  1
50
 41
0.6
  7
KANJI2
 72
     5
 11
426.6012
 21
380.3
 31
0.0
100
AcDbText
  0
LINE
  5
3AA
330
1F
100
AcDbEntity
  8
6
  6
Continuous
 62
     2
100
AcDbLine
 10
447.7
 20
378.3
 30
0.0
 11
452.529629131
 21
377.005904774
 31
0.0
  0
LINE
  5
3AB
330
1F
100
AcDbEntity
  8
6
  6
Continuous
 62
     2
100
AcDbLine
 10
447.7
 20
378.3
 30
0.0
 11
452.529629131
 21
379.594095226
 31
0.0
  0
LINE
  5
3AC
330
1F
100
AcDbEntity
  8
6
  6
Continuous
 62
     2
100
AcDbLine
 10
447.7
 20
378.3
 30
0.0
 11
492.7
 21
378.3
 31
0.0
  0
LINE
  5
3AD
330
1F
100
AcDbEntity
  8
6
  6
Continuous
 62
     2
100
AcDbLine
 10
492.7
 20
378.3
 30
0.0
 11
487.870370869
 21
379.594095226
 31
0.0
  0
LINE
  5
3AE
330
1F
100
AcDbEntity
  8
6
  6
Continuous
 62
     2
100
AcDbLine
 10
492.7
 20
378.3
 30
0.0
 11
487.870370869
 21
377.005904774
 31
0.0
  0
LINE
  5
3AF
330
1F
100
AcDbEntity
  8
6
  6
Continuous
 62
     2
100
AcDbLine
 10
492.7
 20
318.3
 30
0.0
 11
492.7
 21
382.3
 31
0.0
  0
TEXT
  5
3B0
330
1F
100
AcDbEntity
  8
6
  6
Continuous
 62
     2
100
AcDbText
 10
466.3
 20
380.3
 30
0.0
 40
6.0
  1
45
 41
0.6
  7
KANJI2
 72
     5
 11
474.1012
 21
380.3
 31
0.0
100
AcDbText
  0
LINE
  5
3B1
330
1F
100
AcDbEntity
  8
6
  6
Continuous
 62
     2
100
AcDbLine
 10
397.7
 20
380.3
 30
0.0
 11
397.7
 21
397.3
 31
0.0
  0
LINE
  5
3B2
330
1F
100
AcDbEntity
  8
6
  6
Continuous
 62
     2
100
AcDbLine
 10
397.7
 20
393.3
 30
0.0
 11
402.529629131
 21
392.005904774
 31
0.0
  0
LINE
  5
3B3
330
1F
100
AcDbEntity
  8
6
  6
Continuous
 62
     2
100
AcDbLine
 10
397.7
 20
393.3
 30
0.0
 11
402.529629131
 21
394.594095226
 31
0.0
  0
LINE
  5
3B4
330
1F
100
AcDbEntity
  8
6
  6
Continuous
 62
     2
100
AcDbLine
 10
397.7
 20
393.3
 30
0.0
 11
492.7
 21
393.3
 31
0.0
  0
LINE
  5
3B5
330
1F
100
AcDbEntity
  8
6
  6
Continuous
 62
     2
100
AcDbLine
 10
492.7
 20
393.3
 30
0.0
 11
487.870370869
 21
394.594095226
 31
0.0
  0
LINE
  5
3B6
330
1F
100
AcDbEntity
  8
6
  6
Continuous
 62
     2
100
AcDbLine
 10
492.7
 20
393.3
 30
0.0
 11
487.870370869
 21
392.005904774
 31
0.0
  0
LINE
  5
3B7
330
1F
100
AcDbEntity
  8
6
  6
Continuous
 62
     2
100
AcDbLine
 10
492.7
 20
380.3
 30
0.0
 11
492.7
 21
397.3
 31
0.0
  0
TEXT
  5
3B8
330
1F
100
AcDbEntity
  8
6
  6
Continuous
 62
     2
100
AcDbText
 10
441.3
 20
395.3
 30
0.0
 40
6.0
  1
95
 41
0.6
  7
KANJI2
 72
     5
 11
449.1012
 21
395.3
 31
0.0
100
AcDbText
  0
LINE
  5
3B9
330
1F
100
AcDbEntity
  8
6
  6
Continuous
 62
     2
100
AcDbLine
 10
447.7
 20
310.910872821
 30
0.0
 11
447.7
 21
382.3
 31
0.0
  0
LINE
  5
3BA
330
1F
100
AcDbEntity
  8
6
  6
Continuous
 62
     2
100
AcDbLine
 10
370.7
 20
54.8
 30
0.0
 11
336.7
 21
54.8
 31
0.0
  0
LINE
  5
3BB
330
1F
100
AcDbEntity
  8
6
  6
Continuous
 62
     2
100
AcDbLine
 10
340.7
 20
54.8
 30
0.0
 11
341.994095226
 21
59.629629131
 31
0.0
  0
LINE
  5
3BC
330
1F
100
AcDbEntity
  8
6
  6
Continuous
 62
     2
100
AcDbLine
 10
340.7
 20
54.8
 30
0.0
 11
339.405904774
 21
59.629629131
 31
0.0
  0
LINE
  5
3BD
330
1F
100
AcDbEntity
  8
6
  6
Continuous
 62
     2
100
AcDbLine
 10
340.7
 20
62.3
 30
0.0
 11
340.7
 21
54.8
 31
0.0
  0
LINE
  5
3BE
330
1F
100
AcDbEntity
  8
6
  6
Continuous
 62
     2
100
AcDbLine
 10
340.7
 20
54.8
 30
0.0
 11
340.7
 21
45.8
 31
0.0
  0
LINE
  5
3BF
330
1F
100
AcDbEntity
  8
6
  6
Continuous
 62
     2
100
AcDbLine
 10
340.7
 20
45.8
 30
0.0
 11
340.7
 21
38.3
 31
0.0
  0
LINE
  5
3C0
330
1F
100
AcDbEntity
  8
6
  6
Continuous
 62
     2
100
AcDbLine
 10
340.7
 20
45.8
 30
0.0
 11
339.405904774
 21
40.970370869
 31
0.0
  0
LINE
  5
3C1
330
1F
100
AcDbEntity
  8
6
  6
Continuous
 62
     2
100
AcDbLine
 10
340.7
 20
45.8
 30
0.0
 11
341.994095226
 21
40.970370869
 31
0.0
  0
LINE
  5
3C2
330
1F
100
AcDbEntity
  8
6
  6
Continuous
 62
     2
100
AcDbLine
 10
370.7
 20
45.8
 30
0.0
 11
336.7
 21
45.8
 31
0.0
  0
TEXT
  5
3C3
330
1F
100
AcDbEntity
  8
6
  6
Continuous
 62
     2
100
AcDbText
 10
338.7
 20
48.5
 30
0.0
 40
6.0
  1
9
 50
90.0
 41
0.6
  7
KANJI2
100
AcDbText
  0
LINE
  5
3C4
330
1F
100
AcDbEntity
  8
6
  6
Continuous
 62
     2
100
AcDbLine
 10
350.7
 20
75.5
 30
0.0
 11
321.7
 21
75.5
 31
0.0
  0
LINE
  5
3C5
330
1F
100
AcDbEntity
  8
6
  6
Continuous
 62
     2
100
AcDbLine
 10
325.7
 20
75.5
 30
0.0
 11
324.405904774
 21
70.670370869
 31
0.0
  0
LINE
  5
3C6
330
1F
100
AcDbEntity
  8
6
  6
Continuous
 62
     2
100
AcDbLine
 10
325.7
 20
75.5
 30
0.0
 11
326.994095226
 21
70.670370869
 31
0.0
  0
LINE
  5
3C7
330
1F
100
AcDbEntity
  8
6
  6
Continuous
 62
     2
100
AcDbLine
 10
325.7
 20
75.5
 30
0.0
 11
325.7
 21
25.1
 31
0.0
  0
LINE
  5
3C8
330
1F
100
AcDbEntity
  8
6
  6
Continuous
 62
     2
100
AcDbLine
 10
325.7
 20
25.1
 30
0.0
 11
326.994095226
 21
29.929629131
 31
0.0
  0
LINE
  5
3C9
330
1F
100
AcDbEntity
  8
6
  6
Continuous
 62
     2
100
AcDbLine
 10
325.7
 20
25.1
 30
0.0
 11
324.405904774
 21
29.929629131
 31
0.0
  0
LINE
  5
3CA
330
1F
100
AcDbEntity
  8
6
  6
Continuous
 62
     2
100
AcDbLine
 10
350.7
 20
25.1
 30
0.0
 11
321.7
 21
25.1
 31
0.0
  0
TEXT
  5
3CB
330
1F
100
AcDbEntity
  8
6
  6
Continuous
 62
     2
100
AcDbText
 10
323.7
 20
44.06
 30
0.0
 40
6.0
  1
51
 50
90.0
 41
0.6
  7
KANJI2
 72
     5
 11
323.7
 21
51.8612
 31
0.0
100
AcDbText
  0
TEXT
  5
3CC
330
1F
100
AcDbEntity
  8
6
  6
Continuous
 62
     2
100
AcDbText
 10
320.1
 20
52.46
 30
0.0
 40
3.6
  1
%%p2
 50
90.0
 41
0.6
  7
KANJI3
 72
     5
 11
320.1
 21
57.14072
 31
0.0
100
AcDbText
  0
LINE
  5
3CE
330
1F
100
AcDbEntity
  8
6
  6
Continuous
 62
     2
100
AcDbLine
 10
522.7
 20
42.3
 30
0.0
 11
522.7
 21
101.5
 31
0.0
  0
LINE
  5
3CF
330
1F
100
AcDbEntity
  8
6
  6
Continuous
 62
     2
100
AcDbLine
 10
522.7
 20
97.5
 30
0.0
 11
517.870370869
 21
98.794095226
 31
0.0
  0
LINE
  5
3D0
330
1F
100
AcDbEntity
  8
6
  6
Continuous
 62
     2
100
AcDbLine
 10
522.7
 20
97.5
 30
0.0
 11
517.870370869
 21
96.205904774
 31
0.0
  0
LINE
  5
3D1
330
1F
100
AcDbEntity
  8
6
  6
Continuous
 62
     2
100
AcDbLine
 10
522.7
 20
97.5
 30
0.0
 11
372.7
 21
97.5
 31
0.0
  0
LINE
  5
3D2
330
1F
100
AcDbEntity
  8
6
  6
Continuous
 62
     2
100
AcDbLine
 10
372.7
 20
97.5
 30
0.0
 11
377.529629131
 21
96.205904774
 31
0.0
  0
LINE
  5
3D3
330
1F
100
AcDbEntity
  8
6
  6
Continuous
 62
     2
100
AcDbLine
 10
372.7
 20
97.5
 30
0.0
 11
377.529629131
 21
98.794095226
 31
0.0
  0
LINE
  5
3D4
330
1F
100
AcDbEntity
  8
6
  6
Continuous
 62
     2
100
AcDbLine
 10
372.7
 20
42.3
 30
0.0
 11
372.7
 21
101.5
 31
0.0
  0
TEXT
  5
3D5
330
1F
100
AcDbEntity
  8
6
  6
Continuous
 62
     2
100
AcDbText
 10
441.7
 20
99.5
 30
0.0
 40
6.0
  1
150
 41
0.6
  7
KANJI2
 72
     5
 11
453.7024
 21
99.5
 31
0.0
100
AcDbText
  0
LINE
  5
3D6
330
1F
100
AcDbEntity
  8
6
  6
Continuous
 62
     2
100
AcDbLine
 10
352.7
 20
77.5
 30
0.0
 11
352.7
 21
113.5
 31
0.0
  0
LINE
  5
3D7
330
1F
100
AcDbEntity
  8
6
  6
Continuous
 62
     2
100
AcDbLine
 10
352.7
 20
109.5
 30
0.0
 11
357.529629131
 21
108.205904774
 31
0.0
  0
LINE
  5
3D8
330
1F
100
AcDbEntity
  8
6
  6
Continuous
 62
     2
100
AcDbLine
 10
352.7
 20
109.5
 30
0.0
 11
357.529629131
 21
110.794095226
 31
0.0
  0
LINE
  5
3D9
330
1F
100
AcDbEntity
  8
6
  6
Continuous
 62
     2
100
AcDbLine
 10
352.7
 20
109.5
 30
0.0
 11
542.7
 21
109.5
 31
0.0
  0
LINE
  5
3DA
330
1F
100
AcDbEntity
  8
6
  6
Continuous
 62
     2
100
AcDbLine
 10
542.7
 20
109.5
 30
0.0
 11
537.870370869
 21
110.794095226
 31
0.0
  0
LINE
  5
3DB
330
1F
100
AcDbEntity
  8
6
  6
Continuous
 62
     2
100
AcDbLine
 10
542.7
 20
109.5
 30
0.0
 11
537.870370869
 21
108.205904774
 31
0.0
  0
LINE
  5
3DC
330
1F
100
AcDbEntity
  8
6
  6
Continuous
 62
     2
100
AcDbLine
 10
542.7
 20
77.5
 30
0.0
 11
542.7
 21
113.5
 31
0.0
  0
TEXT
  5
3DD
330
1F
100
AcDbEntity
  8
6
  6
Continuous
 62
     2
100
AcDbText
 10
439.36
 20
111.5
 30
0.0
 40
6.0
  1
190
 41
0.6
  7
KANJI2
 72
     5
 11
451.3624
 21
111.5
 31
0.0
100
AcDbText
  0
TEXT
  5
3DE
330
1F
100
AcDbEntity
  8
6
  6
Continuous
 62
     2
100
AcDbText
 10
451.96
 20
115.1
 30
0.0
 40
3.6
  1
%%p1
 41
0.6
  7
KANJI3
 72
     5
 11
456.64072
 21
115.1
 31
0.0
100
AcDbText
  0
LINE
  5
3DF
330
1F
100
AcDbEntity
  8
6
  6
Continuous
 62
     2
100
AcDbLine
 10
170.7
 20
99.3
 30
0.0
 11
172.7
 21
97.3
 31
0.0
  0
LINE
  5
3E0
330
1F
100
AcDbEntity
  8
6
  6
Continuous
 62
     2
100
AcDbLine
 10
172.7
 20
97.3
 30
0.0
 11
169.7
 21
96.3
 31
0.0
  0
LINE
  5
3E1
330
1F
100
AcDbEntity
  8
6
  6
Continuous
 62
     2
100
AcDbLine
 10
182.7
 20
97.3
 30
0.0
 11
184.7
 21
99.3
 31
0.0
  0
LINE
  5
3E2
330
1F
100
AcDbEntity
  8
6
  6
Continuous
 62
     2
100
AcDbLine
 10
182.7
 20
97.3
 30
0.0
 11
185.7
 21
96.3
 31
0.0
  0
ARC
  5
3E3
330
1F
100
AcDbEntity
  8
6
  6
Continuous
 62
     2
100
AcDbCircle
 10
178.926659083
 20
119.115177819
 30
0.0
 40
22.208952207
100
AcDbArc
 50
279.900056831
 51
293.677495283
  0
ARC
  5
3E4
330
1F
100
AcDbEntity
  8
6
  6
Continuous
 62
     2
100
AcDbCircle
 10
183.105644408
 20
109.406635103
 30
0.0
 40
11.639660432
100
AcDbArc
 50
294.030118606
 51
315.067626494
  0
ARC
  5
3E5
330
1F
100
AcDbEntity
  8
6
  6
Continuous
 62
     2
100
AcDbCircle
 10
187.727345221
 20
104.631111197
 30
0.0
 40
4.996313148
100
AcDbArc
 50
316.405011536
 51
353.749503104
  0
ARC
  5
3E6
330
1F
100
AcDbEntity
  8
6
  6
Continuous
 62
     2
100
AcDbCircle
 10
188.534749052
 20
104.289796496
 30
0.0
 40
4.16414271
100
AcDbArc
 50
357.210415025
 51
41.004569535
  0
ARC
  5
3E7
330
1F
100
AcDbEntity
  8
6
  6
Continuous
 62
     2
100
AcDbCircle
 10
184.703670127
 20
101.379919377
 30
0.0
 40
8.970147801
100
AcDbArc
 50
38.974971355
 51
65.271401283
  0
ARC
  5
3E8
330
1F
100
AcDbEntity
  8
6
  6
Continuous
 62
     2
100
AcDbCircle
 10
179.940803675
 20
92.650978711
 30
0.0
 40
18.903086481
100
AcDbArc
 50
63.226192093
 51
79.028506466
  0
ARC
  5
3E9
330
1F
100
AcDbEntity
  8
6
  6
Continuous
 62
     2
100
AcDbCircle
 10
177.808470134
 20
83.757930412
 30
0.0
 40
28.042279375
100
AcDbArc
 50
78.209508485
 51
90.221625935
  0
ARC
  5
3EA
330
1F
100
AcDbEntity
  8
6
  6
Continuous
 62
     2
100
AcDbCircle
 10
177.678088532
 20
82.903467161
 30
0.0
 40
28.896541146
100
AcDbArc
 50
89.956554151
 51
101.612311429
  0
ARC
  5
3EB
330
1F
100
AcDbEntity
  8
6
  6
Continuous
 62
     2
100
AcDbCircle
 10
176.049164129
 20
90.925136015
 30
0.0
 40
20.71118485
100
AcDbArc
 50
101.665109338
 51
116.080192103
  0
ARC
  5
3EC
330
1F
100
AcDbEntity
  8
6
  6
Continuous
 62
     2
100
AcDbCircle
 10
171.560890775
 20
100.268414334
 30
0.0
 40
10.346350347
100
AcDbArc
 50
116.502714556
 51
139.250912807
  0
ARC
  5
3ED
330
1F
100
AcDbEntity
  8
6
  6
Continuous
 62
     2
100
AcDbCircle
 10
167.248030929
 20
104.157190985
 30
0.0
 40
4.542528425
100
AcDbArc
 50
140.901352472
 51
180.883662969
  0
ARC
  5
3EE
330
1F
100
AcDbEntity
  8
6
  6
Continuous
 62
     2
100
AcDbCircle
 10
167.178454688
 20
104.401472676
 30
0.0
 40
4.483444735
100
AcDbArc
 50
184.020346782
 51
225.825138579
  0
ARC
  5
3EF
330
1F
100
AcDbEntity
  8
6
  6
Continuous
 62
     2
100
AcDbCircle
 10
171.426551124
 20
108.146276229
 30
0.0
 40
10.138999542
100
AcDbArc
 50
223.353536982
 51
247.548717918
  0
ARC
  5
3F0
330
1F
100
AcDbEntity
  8
6
  6
Continuous
 62
     2
100
AcDbCircle
 10
175.960806391
 20
117.416378924
 30
0.0
 40
20.44843735
100
AcDbArc
 50
245.726158095
 51
260.696289791
  0
TEXT
  5
3F1
330
1F
100
AcDbEntity
  8
6
  6
Continuous
 62
     2
100
AcDbText
 10
197.35
 20
99.85
 30
0.0
 40
6.0
  1
360゜
 41
0.6
  7
KANJI2
 72
     5
 11
213.5536
 21
99.85
 31
0.0
100
AcDbText
  0
LINE
  5
3F2
330
1F
100
AcDbEntity
  8
6
  6
Continuous
 62
     2
100
AcDbLine
 10
232.7
 20
321.3
 30
0.0
 11
249.7
 21
321.3
 31
0.0
  0
LINE
  5
3F3
330
1F
100
AcDbEntity
  8
6
  6
Continuous
 62
     2
100
AcDbLine
 10
245.7
 20
321.3
 30
0.0
 11
244.405904774
 21
316.470370869
 31
0.0
  0
LINE
  5
3F4
330
1F
100
AcDbEntity
  8
6
  6
Continuous
 62
     2
100
AcDbLine
 10
245.7
 20
321.3
 30
0.0
 11
246.994095226
 21
316.470370869
 31
0.0
  0
LINE
  5
3F5
330
1F
100
AcDbEntity
  8
6
  6
Continuous
 62
     2
100
AcDbLine
 10
245.7
 20
321.3
 30
0.0
 11
245.7
 21
281.3
 31
0.0
  0
LINE
  5
3F6
330
1F
100
AcDbEntity
  8
6
  6
Continuous
 62
     2
100
AcDbLine
 10
245.7
 20
281.3
 30
0.0
 11
246.994095226
 21
286.129629131
 31
0.0
  0
LINE
  5
3F7
330
1F
100
AcDbEntity
  8
6
  6
Continuous
 62
     2
100
AcDbLine
 10
245.7
 20
281.3
 30
0.0
 11
244.405904774
 21
286.129629131
 31
0.0
  0
LINE
  5
3F8
330
1F
100
AcDbEntity
  8
6
  6
Continuous
 62
     2
100
AcDbLine
 10
232.7
 20
281.3
 30
0.0
 11
249.7
 21
281.3
 31
0.0
  0
TEXT
  5
3F9
330
1F
100
AcDbEntity
  8
6
  6
Continuous
 62
     2
100
AcDbText
 10
243.7
 20
291.1
 30
0.0
 40
6.0
  1
(%%c40)
 50
90.0
 41
0.6
  7
KANJI2
 72
     5
 11
243.7
 21
311.5048
 31
0.0
100
AcDbText
  0
LINE
  5
3FA
330
1F
100
AcDbEntity
  8
6
  6
Continuous
 62
     2
100
AcDbLine
 10
194.7
 20
301.3
 30
0.0
 11
237.35
 21
301.3
 31
0.0
  0
LINE
  5
3FB
330
1F
100
AcDbEntity
  8
6
  6
Continuous
 62
     2
100
AcDbLine
 10
201.7
 20
125.3
 30
0.0
 11
264.7
 21
125.3
 31
0.0
  0
LINE
  5
3FC
330
1F
100
AcDbEntity
  8
6
  6
Continuous
 62
     2
100
AcDbLine
 10
260.7
 20
125.3
 30
0.0
 11
261.994095226
 21
130.129629131
 31
0.0
  0
LINE
  5
3FD
330
1F
100
AcDbEntity
  8
6
  6
Continuous
 62
     2
100
AcDbLine
 10
260.7
 20
125.3
 30
0.0
 11
259.405904774
 21
130.129629131
 31
0.0
  0
LINE
  5
3FE
330
1F
100
AcDbEntity
  8
6
  6
Continuous
 62
     2
100
AcDbLine
 10
260.7
 20
125.3
 30
0.0
 11
260.7
 21
165.7
 31
0.0
  0
LINE
  5
3FF
330
1F
100
AcDbEntity
  8
6
  6
Continuous
 62
     2
100
AcDbLine
 10
260.7
 20
165.7
 30
0.0
 11
259.405904774
 21
160.870370869
 31
0.0
  0
LINE
  5
400
330
1F
100
AcDbEntity
  8
6
  6
Continuous
 62
     2
100
AcDbLine
 10
260.7
 20
165.7
 30
0.0
 11
261.994095226
 21
160.870370869
 31
0.0
  0
LINE
  5
401
330
1F
100
AcDbEntity
  8
6
  6
Continuous
 62
     2
100
AcDbLine
 10
208.2
 20
165.7
 30
0.0
 11
264.7
 21
165.7
 31
0.0
  0
TEXT
  5
402
330
1F
100
AcDbEntity
  8
6
  6
Continuous
 62
     2
100
AcDbText
 10
258.7
 20
141.6
 30
0.0
 40
6.0
  1
40
 50
90.0
 41
0.6
  7
KANJI2
 72
     5
 11
258.7
 21
149.4012
 31
0.0
100
AcDbText
  0
LINE
  5
403
330
1F
100
AcDbEntity
  8
6
  6
Continuous
 62
     2
100
AcDbLine
 10
247.7
 20
301.3
 30
0.0
 11
264.7
 21
301.3
 31
0.0
  0
LINE
  5
404
330
1F
100
AcDbEntity
  8
6
  6
Continuous
 62
     2
100
AcDbLine
 10
260.7
 20
301.3
 30
0.0
 11
261.994095226
 21
306.129629131
 31
0.0
  0
LINE
  5
405
330
1F
100
AcDbEntity
  8
6
  6
Continuous
 62
     2
100
AcDbLine
 10
260.7
 20
301.3
 30
0.0
 11
259.405904774
 21
306.129629131
 31
0.0
  0
LINE
  5
406
330
1F
100
AcDbEntity
  8
6
  6
Continuous
 62
     2
100
AcDbLine
 10
260.7
 20
301.3
 30
0.0
 11
260.7
 21
338.1
 31
0.0
  0
LINE
  5
407
330
1F
100
AcDbEntity
  8
6
  6
Continuous
 62
     2
100
AcDbLine
 10
260.7
 20
338.1
 30
0.0
 11
259.405904774
 21
333.270370869
 31
0.0
  0
LINE
  5
408
330
1F
100
AcDbEntity
  8
6
  6
Continuous
 62
     2
100
AcDbLine
 10
260.7
 20
338.1
 30
0.0
 11
261.994095226
 21
333.270370869
 31
0.0
  0
LINE
  5
409
330
1F
100
AcDbEntity
  8
6
  6
Continuous
 62
     2
100
AcDbLine
 10
192.7
 20
338.1
 30
0.0
 11
264.7
 21
338.1
 31
0.0
  0
TEXT
  5
40A
330
1F
100
AcDbEntity
  8
6
  6
Continuous
 62
     2
100
AcDbText
 10
258.7
 20
311.6
 30
0.0
 40
6.0
  1
(40)
 50
90.0
 41
0.6
  7
KANJI2
 72
     5
 11
258.7
 21
327.8036
 31
0.0
100
AcDbText
  0
LINE
  5
40B
330
1F
100
AcDbEntity
  8
6
  6
Continuous
 62
     2
100
AcDbLine
 10
260.7
 20
165.7
 30
0.0
 11
261.994095226
 21
170.529629131
 31
0.0
  0
LINE
  5
40C
330
1F
100
AcDbEntity
  8
6
  6
Continuous
 62
     2
100
AcDbLine
 10
260.7
 20
165.7
 30
0.0
 11
259.405904774
 21
170.529629131
 31
0.0
  0
LINE
  5
40D
330
1F
100
AcDbEntity
  8
6
  6
Continuous
 62
     2
100
AcDbLine
 10
260.7
 20
165.7
 30
0.0
 11
260.7
 21
301.3
 31
0.0
  0
LINE
  5
40E
330
1F
100
AcDbEntity
  8
6
  6
Continuous
 62
     2
100
AcDbLine
 10
260.7
 20
301.3
 30
0.0
 11
259.405904774
 21
296.470370869
 31
0.0
  0
LINE
  5
40F
330
1F
100
AcDbEntity
  8
6
  6
Continuous
 62
     2
100
AcDbLine
 10
260.7
 20
301.3
 30
0.0
 11
261.994095226
 21
296.470370869
 31
0.0
  0
LINE
  5
410
330
1F
100
AcDbEntity
  8
6
  6
Continuous
 62
     2
100
AcDbLine
 10
262.7
 20
301.3
 30
0.0
 11
264.7
 21
301.3
 31
0.0
  0
TEXT
  5
411
330
1F
100
AcDbEntity
  8
6
  6
Continuous
 62
     2
100
AcDbText
 10
258.7
 20
223.3
 30
0.0
 40
6.0
  1
(135)
 50
90.0
 41
0.6
  7
KANJI2
 72
     5
 11
258.7
 21
243.7048
 31
0.0
100
AcDbText
  0
LINE
  5
412
330
1F
100
AcDbEntity
  8
6
  6
Continuous
 62
     2
100
AcDbLine
 10
260.7
 20
338.1
 30
0.0
 11
261.994095226
 21
342.929629131
 31
0.0
  0
LINE
  5
413
330
1F
100
AcDbEntity
  8
6
  6
Continuous
 62
     2
100
AcDbLine
 10
260.7
 20
338.1
 30
0.0
 11
259.405904774
 21
342.929629131
 31
0.0
  0
LINE
  5
414
330
1F
100
AcDbEntity
  8
6
  6
Continuous
 62
     2
100
AcDbLine
 10
260.7
 20
338.1
 30
0.0
 11
260.7
 21
366.3
 31
0.0
  0
LINE
  5
415
330
1F
100
AcDbEntity
  8
6
  6
Continuous
 62
     2
100
AcDbLine
 10
260.7
 20
366.3
 30
0.0
 11
259.405904774
 21
361.470370869
 31
0.0
  0
LINE
  5
416
330
1F
100
AcDbEntity
  8
6
  6
Continuous
 62
     2
100
AcDbLine
 10
260.7
 20
366.3
 30
0.0
 11
261.994095226
 21
361.470370869
 31
0.0
  0
LINE
  5
417
330
1F
100
AcDbEntity
  8
6
  6
Continuous
 62
     2
100
AcDbLine
 10
182.7
 20
366.3
 30
0.0
 11
264.7
 21
366.3
 31
0.0
  0
TEXT
  5
418
330
1F
100
AcDbEntity
  8
6
  6
Continuous
 62
     2
100
AcDbText
 10
258.7
 20
344.1
 30
0.0
 40
6.0
  1
(28)
 50
90.0
 41
0.6
  7
KANJI2
 72
     5
 11
258.7
 21
360.3036
 31
0.0
100
AcDbText
  0
LINE
  5
419
330
1F
100
AcDbEntity
  8
6
  6
Continuous
 62
     2
100
AcDbLine
 10
262.7
 20
125.3
 30
0.0
 11
279.7
 21
125.3
 31
0.0
  0
LINE
  5
41A
330
1F
100
AcDbEntity
  8
6
  6
Continuous
 62
     2
100
AcDbLine
 10
275.7
 20
125.3
 30
0.0
 11
276.994095226
 21
130.129629131
 31
0.0
  0
LINE
  5
41B
330
1F
100
AcDbEntity
  8
6
  6
Continuous
 62
     2
100
AcDbLine
 10
275.7
 20
125.3
 30
0.0
 11
274.405904774
 21
130.129629131
 31
0.0
  0
LINE
  5
41C
330
1F
100
AcDbEntity
  8
6
  6
Continuous
 62
     2
100
AcDbLine
 10
275.7
 20
125.3
 30
0.0
 11
275.7
 21
301.3
 31
0.0
  0
LINE
  5
41D
330
1F
100
AcDbEntity
  8
6
  6
Continuous
 62
     2
100
AcDbLine
 10
275.7
 20
301.3
 30
0.0
 11
274.405904774
 21
296.470370869
 31
0.0
  0
LINE
  5
41E
330
1F
100
AcDbEntity
  8
6
  6
Continuous
 62
     2
100
AcDbLine
 10
275.7
 20
301.3
 30
0.0
 11
276.994095226
 21
296.470370869
 31
0.0
  0
LINE
  5
41F
330
1F
100
AcDbEntity
  8
6
  6
Continuous
 62
     2
100
AcDbLine
 10
262.7
 20
301.3
 30
0.0
 11
279.7
 21
301.3
 31
0.0
  0
TEXT
  5
420
330
1F
100
AcDbEntity
  8
6
  6
Continuous
 62
     2
100
AcDbText
 10
273.7
 20
203.1
 30
0.0
 40
6.0
  1
(175)
 50
90.0
 41
0.6
  7
KANJI2
 72
     5
 11
273.7
 21
223.5048
 31
0.0
100
AcDbText
  0
LINE
  5
421
330
1F
100
AcDbEntity
  8
6
  6
Continuous
 62
     2
100
AcDbLine
 10
277.7
 20
125.3
 30
0.0
 11
294.7
 21
125.3
 31
0.0
  0
LINE
  5
422
330
1F
100
AcDbEntity
  8
6
  6
Continuous
 62
     2
100
AcDbLine
 10
290.7
 20
125.3
 30
0.0
 11
291.994095226
 21
130.129629131
 31
0.0
  0
LINE
  5
423
330
1F
100
AcDbEntity
  8
6
  6
Continuous
 62
     2
100
AcDbLine
 10
290.7
 20
125.3
 30
0.0
 11
289.405904774
 21
130.129629131
 31
0.0
  0
LINE
  5
424
330
1F
100
AcDbEntity
  8
6
  6
Continuous
 62
     2
100
AcDbLine
 10
290.7
 20
125.3
 30
0.0
 11
290.7
 21
338.1
 31
0.0
  0
LINE
  5
425
330
1F
100
AcDbEntity
  8
6
  6
Continuous
 62
     2
100
AcDbLine
 10
290.7
 20
338.1
 30
0.0
 11
289.405904774
 21
333.270370869
 31
0.0
  0
LINE
  5
426
330
1F
100
AcDbEntity
  8
6
  6
Continuous
 62
     2
100
AcDbLine
 10
290.7
 20
338.1
 30
0.0
 11
291.994095226
 21
333.270370869
 31
0.0
  0
LINE
  5
427
330
1F
100
AcDbEntity
  8
6
  6
Continuous
 62
     2
100
AcDbLine
 10
262.7
 20
338.1
 30
0.0
 11
294.7
 21
338.1
 31
0.0
  0
TEXT
  5
428
330
1F
100
AcDbEntity
  8
6
  6
Continuous
 62
     2
100
AcDbText
 10
288.7
 20
221.5
 30
0.0
 40
6.0
  1
(212)
 50
90.0
 41
0.6
  7
KANJI2
 72
     5
 11
288.7
 21
241.9048
 31
0.0
100
AcDbText
  0
LINE
  5
429
330
1F
100
AcDbEntity
  8
6
  6
Continuous
 62
     2
100
AcDbLine
 10
262.7
 20
366.3
 30
0.0
 11
309.7
 21
366.3
 31
0.0
  0
LINE
  5
42A
330
1F
100
AcDbEntity
  8
6
  6
Continuous
 62
     2
100
AcDbLine
 10
305.7
 20
366.3
 30
0.0
 11
304.405904774
 21
361.470370869
 31
0.0
  0
LINE
  5
42B
330
1F
100
AcDbEntity
  8
6
  6
Continuous
 62
     2
100
AcDbLine
 10
305.7
 20
366.3
 30
0.0
 11
306.994095226
 21
361.470370869
 31
0.0
  0
LINE
  5
42C
330
1F
100
AcDbEntity
  8
6
  6
Continuous
 62
     2
100
AcDbLine
 10
305.7
 20
366.3
 30
0.0
 11
305.7
 21
125.3
 31
0.0
  0
LINE
  5
42D
330
1F
100
AcDbEntity
  8
6
  6
Continuous
 62
     2
100
AcDbLine
 10
305.7
 20
125.3
 30
0.0
 11
306.994095226
 21
130.129629131
 31
0.0
  0
LINE
  5
42E
330
1F
100
AcDbEntity
  8
6
  6
Continuous
 62
     2
100
AcDbLine
 10
305.7
 20
125.3
 30
0.0
 11
304.405904774
 21
130.129629131
 31
0.0
  0
LINE
  5
42F
330
1F
100
AcDbEntity
  8
6
  6
Continuous
 62
     2
100
AcDbLine
 10
292.7
 20
125.3
 30
0.0
 11
309.7
 21
125.3
 31
0.0
  0
TEXT
  5
430
330
1F
100
AcDbEntity
  8
6
  6
Continuous
 62
     2
100
AcDbText
 10
303.7
 20
239.8
 30
0.0
 40
6.0
  1
241
 50
90.0
 41
0.6
  7
KANJI2
 72
     5
 11
303.7
 21
251.8024
 31
0.0
100
AcDbText
  0
LINE
  5
431
330
1F
100
AcDbEntity
  8
6
  6
Continuous
 62
     2
100
AcDbLine
 10
154.7
 20
329.1
 30
0.0
 11
154.7
 21
382.3
 31
0.0
  0
LINE
  5
432
330
1F
100
AcDbEntity
  8
6
  6
Continuous
 62
     2
100
AcDbLine
 10
154.7
 20
378.3
 30
0.0
 11
159.529629131
 21
377.005904774
 31
0.0
  0
LINE
  5
433
330
1F
100
AcDbEntity
  8
6
  6
Continuous
 62
     2
100
AcDbLine
 10
154.7
 20
378.3
 30
0.0
 11
159.529629131
 21
379.594095226
 31
0.0
  0
LINE
  5
434
330
1F
100
AcDbEntity
  8
6
  6
Continuous
 62
     2
100
AcDbLine
 10
154.7
 20
378.3
 30
0.0
 11
200.7
 21
378.3
 31
0.0
  0
LINE
  5
435
330
1F
100
AcDbEntity
  8
6
  6
Continuous
 62
     2
100
AcDbLine
 10
200.7
 20
378.3
 30
0.0
 11
195.870370869
 21
379.594095226
 31
0.0
  0
LINE
  5
436
330
1F
100
AcDbEntity
  8
6
  6
Continuous
 62
     2
100
AcDbLine
 10
200.7
 20
378.3
 30
0.0
 11
195.870370869
 21
377.005904774
 31
0.0
  0
LINE
  5
437
330
1F
100
AcDbEntity
  8
6
  6
Continuous
 62
     2
100
AcDbLine
 10
200.7
 20
329.1
 30
0.0
 11
200.7
 21
382.3
 31
0.0
  0
TEXT
  5
438
330
1F
100
AcDbEntity
  8
6
  6
Continuous
 62
     2
100
AcDbText
 10
173.8
 20
380.3
 30
0.0
 40
6.0
  1
46
 41
0.6
  7
KANJI2
 72
     5
 11
181.6012
 21
380.3
 31
0.0
100
AcDbText
  0
LINE
  5
439
330
1F
100
AcDbEntity
  8
6
  6
Continuous
 62
     2
100
AcDbLine
 10
80.7
 20
355.3
 30
0.0
 11
59.194446501
 21
355.3
 31
0.0
  0
LINE
  5
43A
330
1F
100
AcDbEntity
  8
6
  6
Continuous
 62
     2
100
AcDbLine
 10
63.194446501
 20
355.3
 30
0.0
 11
64.488541726
 21
360.129629131
 31
0.0
  0
LINE
  5
43B
330
1F
100
AcDbEntity
  8
6
  6
Continuous
 62
     2
100
AcDbLine
 10
63.194446501
 20
355.3
 30
0.0
 11
61.900351275
 21
360.129629131
 31
0.0
  0
LINE
  5
43C
330
1F
100
AcDbEntity
  8
6
  6
Continuous
 62
     2
100
AcDbLine
 10
63.194446501
 20
362.8
 30
0.0
 11
63.194446501
 21
355.3
 31
0.0
  0
LINE
  5
43D
330
1F
100
AcDbEntity
  8
6
  6
Continuous
 62
     2
100
AcDbLine
 10
63.194446501
 20
355.3
 30
0.0
 11
63.194446501
 21
347.3
 31
0.0
  0
LINE
  5
43E
330
1F
100
AcDbEntity
  8
6
  6
Continuous
 62
     2
100
AcDbLine
 10
63.194446501
 20
347.3
 30
0.0
 11
63.194446501
 21
339.8
 31
0.0
  0
LINE
  5
43F
330
1F
100
AcDbEntity
  8
6
  6
Continuous
 62
     2
100
AcDbLine
 10
63.194446501
 20
347.3
 30
0.0
 11
61.900351275
 21
342.470370869
 31
0.0
  0
LINE
  5
440
330
1F
100
AcDbEntity
  8
6
  6
Continuous
 62
     2
100
AcDbLine
 10
63.194446501
 20
347.3
 30
0.0
 11
64.488541726
 21
342.470370869
 31
0.0
  0
LINE
  5
441
330
1F
100
AcDbEntity
  8
6
  6
Continuous
 62
     2
100
AcDbLine
 10
80.7
 20
347.3
 30
0.0
 11
59.194446501
 21
347.3
 31
0.0
  0
TEXT
  5
442
330
1F
100
AcDbEntity
  8
6
  6
Continuous
 62
     2
100
AcDbText
 10
61.194446501
 20
347.4
 30
0.0
 40
6.0
  1
M8
 50
90.0
 41
0.6
  7
KANJI2
 72
     5
 11
61.194446501
 21
355.2012
 31
0.0
100
AcDbText
  0
LINE
  5
443
330
1F
100
AcDbEntity
  8
6
  6
Continuous
 62
     2
100
AcDbLine
 10
88.45277675
 20
357.8
 30
0.0
 11
106.205553499
 21
357.8
 31
0.0
  0
LINE
  5
444
330
1F
100
AcDbEntity
  8
6
  6
Continuous
 62
     2
100
AcDbLine
 10
102.205553499
 20
357.8
 30
0.0
 11
100.911458274
 21
352.970370869
 31
0.0
  0
LINE
  5
445
330
1F
100
AcDbEntity
  8
6
  6
Continuous
 62
     2
100
AcDbLine
 10
102.205553499
 20
357.8
 30
0.0
 11
103.499648725
 21
352.970370869
 31
0.0
  0
LINE
  5
446
330
1F
100
AcDbEntity
  8
6
  6
Continuous
 62
     2
100
AcDbLine
 10
102.205553499
 20
357.8
 30
0.0
 11
102.205553499
 21
344.8
 31
0.0
  0
LINE
  5
447
330
1F
100
AcDbEntity
  8
6
  6
Continuous
 62
     2
100
AcDbLine
 10
102.205553499
 20
344.8
 30
0.0
 11
103.499648725
 21
349.629629131
 31
0.0
  0
LINE
  5
448
330
1F
100
AcDbEntity
  8
6
  6
Continuous
 62
     2
100
AcDbLine
 10
102.205553499
 20
344.8
 30
0.0
 11
100.911458274
 21
349.629629131
 31
0.0
  0
LINE
  5
449
330
1F
100
AcDbEntity
  8
6
  6
Continuous
 62
     2
100
AcDbLine
 10
88.45277675
 20
344.8
 30
0.0
 11
106.205553499
 21
344.8
 31
0.0
  0
TEXT
  5
44A
330
1F
100
AcDbEntity
  8
6
  6
Continuous
 62
     2
100
AcDbText
 10
100.205553499
 20
347.4
 30
0.0
 40
6.0
  1
13
 50
90.0
 41
0.6
  7
KANJI2
 72
     5
 11
100.205553499
 21
355.2012
 31
0.0
100
AcDbText
  0
LINE
  5
44B
330
1F
100
AcDbEntity
  8
6
  6
Continuous
 62
     2
100
AcDbLine
 10
80.7
 20
264.3
 30
0.0
 11
56.885045424
 21
264.3
 31
0.0
  0
LINE
  5
44C
330
1F
100
AcDbEntity
  8
6
  6
Continuous
 62
     2
100
AcDbLine
 10
60.885045424
 20
264.3
 30
0.0
 11
62.179140649
 21
269.129629131
 31
0.0
  0
LINE
  5
44D
330
1F
100
AcDbEntity
  8
6
  6
Continuous
 62
     2
100
AcDbLine
 10
60.885045424
 20
264.3
 30
0.0
 11
59.590950198
 21
269.129629131
 31
0.0
  0
LINE
  5
44E
330
1F
100
AcDbEntity
  8
6
  6
Continuous
 62
     2
100
AcDbLine
 10
60.885045424
 20
271.8
 30
0.0
 11
60.885045424
 21
264.3
 31
0.0
  0
LINE
  5
44F
330
1F
100
AcDbEntity
  8
6
  6
Continuous
 62
     2
100
AcDbLine
 10
60.885045424
 20
264.3
 30
0.0
 11
60.885045424
 21
256.3
 31
0.0
  0
LINE
  5
450
330
1F
100
AcDbEntity
  8
6
  6
Continuous
 62
     2
100
AcDbLine
 10
60.885045424
 20
256.3
 30
0.0
 11
60.885045424
 21
248.8
 31
0.0
  0
LINE
  5
451
330
1F
100
AcDbEntity
  8
6
  6
Continuous
 62
     2
100
AcDbLine
 10
60.885045424
 20
256.3
 30
0.0
 11
59.590950198
 21
251.470370869
 31
0.0
  0
LINE
  5
452
330
1F
100
AcDbEntity
  8
6
  6
Continuous
 62
     2
100
AcDbLine
 10
60.885045424
 20
256.3
 30
0.0
 11
62.179140649
 21
251.470370869
 31
0.0
  0
LINE
  5
453
330
1F
100
AcDbEntity
  8
6
  6
Continuous
 62
     2
100
AcDbLine
 10
80.7
 20
256.3
 30
0.0
 11
56.885045424
 21
256.3
 31
0.0
  0
TEXT
  5
454
330
1F
100
AcDbEntity
  8
6
  6
Continuous
 62
     2
100
AcDbText
 10
58.885045424
 20
256.4
 30
0.0
 40
6.0
  1
M8
 50
90.0
 41
0.6
  7
KANJI2
 72
     5
 11
58.885045424
 21
264.2012
 31
0.0
100
AcDbText
  0
LINE
  5
455
330
1F
100
AcDbEntity
  8
6
  6
Continuous
 62
     2
100
AcDbLine
 10
89.607477288
 20
268.8
 30
0.0
 11
108.514954576
 21
268.8
 31
0.0
  0
LINE
  5
456
330
1F
100
AcDbEntity
  8
6
  6
Continuous
 62
     2
100
AcDbLine
 10
104.514954576
 20
268.8
 30
0.0
 11
103.220859351
 21
263.970370869
 31
0.0
  0
LINE
  5
457
330
1F
100
AcDbEntity
  8
6
  6
Continuous
 62
     2
100
AcDbLine
 10
104.514954576
 20
268.8
 30
0.0
 11
105.809049802
 21
263.970370869
 31
0.0
  0
LINE
  5
458
330
1F
100
AcDbEntity
  8
6
  6
Continuous
 62
     2
100
AcDbLine
 10
104.514954576
 20
268.8
 30
0.0
 11
104.514954576
 21
251.8
 31
0.0
  0
LINE
  5
459
330
1F
100
AcDbEntity
  8
6
  6
Continuous
 62
     2
100
AcDbLine
 10
104.514954576
 20
251.8
 30
0.0
 11
105.809049802
 21
256.629629131
 31
0.0
  0
LINE
  5
45A
330
1F
100
AcDbEntity
  8
6
  6
Continuous
 62
     2
100
AcDbLine
 10
104.514954576
 20
251.8
 30
0.0
 11
103.220859351
 21
256.629629131
 31
0.0
  0
LINE
  5
45B
330
1F
100
AcDbEntity
  8
6
  6
Continuous
 62
     2
100
AcDbLine
 10
89.607477288
 20
251.8
 30
0.0
 11
108.514954576
 21
251.8
 31
0.0
  0
TEXT
  5
45C
330
1F
100
AcDbEntity
  8
6
  6
Continuous
 62
     2
100
AcDbText
 10
102.514954576
 20
256.4
 30
0.0
 40
6.0
  1
17
 50
90.0
 41
0.6
  7
KANJI2
 72
     5
 11
102.514954576
 21
264.2012
 31
0.0
100
AcDbText
  0
LINE
  5
45D
330
1F
100
AcDbEntity
  8
6
  6
Continuous
 62
     2
100
AcDbLine
 10
447.7
 20
177.7
 30
0.0
 11
447.7
 21
234.55098303
 31
0.0
  0
ARC
  5
45E
330
1F
100
AcDbEntity
  8
6
  6
Continuous
 62
     2
100
AcDbCircle
 10
447.7
 20
165.7
 30
0.0
 40
64.85098303
100
AcDbArc
 50
0.0
 51
90.0
  0
LINE
  5
45F
330
1F
100
AcDbEntity
  8
6
  6
Continuous
 62
     2
100
AcDbLine
 10
447.7
 20
230.55098303
 30
0.0
 11
452.529629131
 21
229.256887805
 31
0.0
  0
LINE
  5
460
330
1F
100
AcDbEntity
  8
6
  6
Continuous
 62
     2
100
AcDbLine
 10
447.7
 20
230.55098303
 30
0.0
 11
452.529629131
 21
231.845078256
 31
0.0
  0
LINE
  5
461
330
1F
100
AcDbEntity
  8
6
  6
Continuous
 62
     2
100
AcDbLine
 10
512.55098303
 20
165.7
 30
0.0
 11
511.256887805
 21
170.529629131
 31
0.0
  0
LINE
  5
462
330
1F
100
AcDbEntity
  8
6
  6
Continuous
 62
     2
100
AcDbLine
 10
512.55098303
 20
165.7
 30
0.0
 11
513.845078256
 21
170.529629131
 31
0.0
  0
LINE
  5
463
330
1F
100
AcDbEntity
  8
6
  6
Continuous
 62
     2
100
AcDbLine
 10
459.7
 20
165.7
 30
0.0
 11
516.55098303
 21
165.7
 31
0.0
  0
LINE
  5
464
330
1F
100
AcDbEntity
  8
6
  6
Continuous
 62
     2
100
AcDbLine
 10
465.7
 20
261.3
 30
0.0
 11
469.628267724
 21
258.206666412
 31
0.0
  0
LINE
  5
465
330
1F
100
AcDbEntity
  8
6
  6
Continuous
 62
     2
100
AcDbLine
 10
465.7
 20
261.3
 30
0.0
 11
470.648646436
 21
260.585228392
 31
0.0
  0
LINE
  5
466
330
1F
100
AcDbEntity
  8
6
  6
Continuous
 62
     2
100
AcDbLine
 10
465.7
 20
261.3
 30
0.0
 11
499.85
 21
246.65
 31
0.0
  0
LINE
  5
467
330
1F
100
AcDbEntity
  8
6
  6
Continuous
 62
     2
100
AcDbLine
 10
454.0
 20
255.5
 30
0.0
 11
456.978674084
 21
251.484094037
 31
0.0
  0
LINE
  5
468
330
1F
100
AcDbEntity
  8
6
  6
Continuous
 62
     2
100
AcDbLine
 10
454.0
 20
255.5
 30
0.0
 11
458.587560408
 21
253.511460459
 31
0.0
  0
LINE
  5
469
330
1F
100
AcDbEntity
  8
6
  6
Continuous
 62
     2
100
AcDbLine
 10
454.0
 20
255.5
 30
0.0
 11
489.85
 21
227.05
 31
0.0
  0
LINE
  5
46A
330
1F
100
AcDbEntity
  8
6
  6
Continuous
 62
     2
100
AcDbLine
 10
427.7
 20
228.3
 30
0.0
 11
423.531185526
 21
225.539386683
 31
0.0
  0
LINE
  5
46B
330
1F
100
AcDbEntity
  8
6
  6
Continuous
 62
     2
100
AcDbLine
 10
427.7
 20
228.3
 30
0.0
 11
425.47000742
 21
223.824831501
 31
0.0
  0
TEXT
  5
46C
330
1F
100
AcDbEntity
  8
6
  6
Continuous
 62
     2
100
AcDbText
 10
490.728142743
 20
217.213424117
 30
0.0
 40
6.0
  1
90゜
 50
315.0
 41
0.6
  7
KANJI2
 72
     5
 11
499.215121174
 21
208.726445686
 31
0.0
100
AcDbText
  0
LINE
  5
46D
330
1F
100
AcDbEntity
  8
6
  6
Continuous
 62
     2
100
AcDbLine
 10
489.85
 20
227.05
 30
0.0
 11
555.25
 21
227.05
 31
0.0
  0
TEXT
  5
46E
330
1F
100
AcDbEntity
  8
6
  6
Continuous
 62
     2
100
AcDbText
 10
489.85
 20
229.05
 30
0.0
 40
6.0
  1
ジョイント軸 抜け止爪
 41
0.9
  7
KANJI0
 72
     5
 11
555.244
 21
229.05
 31
0.0
100
AcDbText
  0
LINE
  5
46F
330
1F
100
AcDbEntity
  8
6
  6
Continuous
 62
     2
100
AcDbLine
 10
499.85
 20
246.65
 30
0.0
 11
561.05
 21
246.65
 31
0.0
  0
TEXT
  5
470
330
1F
100
AcDbEntity
  8
6
  6
Continuous
 62
     2
100
AcDbText
 10
499.85
 20
248.65
 30
0.0
 40
6.0
  1
六角穴付ボルト M4*15
 41
0.9
  7
KANJI0
 72
     5
 11
577.2428
 21
248.65
 31
0.0
100
AcDbText
  0
LINE
  5
471
330
1F
100
AcDbEntity
  8
0
  6
LTYPE4
 62
     2
100
AcDbLine
 10
447.7
 20
25.1
 30
0.0
 11
447.7
 21
75.5
 31
0.0
  0
LINE
  5
472
330
1F
100
AcDbEntity
  8
6
  6
Continuous
 62
     2
100
AcDbLine
 10
392.7
 20
42.3
 30
0.0
 11
392.7
 21
91.5
 31
0.0
  0
LINE
  5
473
330
1F
100
AcDbEntity
  8
6
  6
Continuous
 62
     2
100
AcDbLine
 10
392.7
 20
87.5
 30
0.0
 11
397.529629131
 21
86.205904774
 31
0.0
  0
LINE
  5
474
330
1F
100
AcDbEntity
  8
6
  6
Continuous
 62
     2
100
AcDbLine
 10
392.7
 20
87.5
 30
0.0
 11
397.529629131
 21
88.794095226
 31
0.0
  0
LINE
  5
475
330
1F
100
AcDbEntity
  8
6
  6
Continuous
 62
     2
100
AcDbLine
 10
502.7
 20
87.5
 30
0.0
 11
497.870370869
 21
88.794095226
 31
0.0
  0
LINE
  5
476
330
1F
100
AcDbEntity
  8
6
  6
Continuous
 62
     2
100
AcDbLine
 10
502.7
 20
87.5
 30
0.0
 11
497.870370869
 21
86.205904774
 31
0.0
  0
LINE
  5
477
330
1F
100
AcDbEntity
  8
6
  6
Continuous
 62
     2
100
AcDbLine
 10
502.7
 20
42.3
 30
0.0
 11
502.7
 21
91.5
 31
0.0
  0
LINE
  5
478
330
1F
100
AcDbEntity
  8
6
  6
Continuous
 62
     2
100
AcDbLine
 10
392.7
 20
87.5
 30
0.0
 11
502.7
 21
87.5
 31
0.0
  0
TEXT
  5
479
330
1F
100
AcDbEntity
  8
6
  6
Continuous
 62
     2
100
AcDbText
 10
441.7
 20
89.5
 30
0.0
 40
6.0
  1
110
 41
0.6
  7
KANJI2
 72
     5
 11
453.7024
 21
89.5
 31
0.0
100
AcDbText
  0
TEXT
  5
47A
330
1F
100
AcDbEntity
  8
6
  6
Continuous
 62
     2
100
AcDbText
 10
315.95
 20
190.1
 30
0.0
 40
6.0
  1
六角穴付ボルト M8*30
 41
0.9
  7
KANJI0
 72
     5
 11
393.3428
 21
190.1
 31
0.0
100
AcDbText
  0
LINE
  5
47B
330
1F
100
AcDbEntity
  8
6
  6
Continuous
 62
     2
100
AcDbLine
 10
392.15
 20
188.1
 30
0.0
 11
315.95
 21
188.1
 31
0.0
  0
LINE
  5
47C
330
1F
100
AcDbEntity
  8
6
  6
Continuous
 62
     2
100
AcDbLine
 10
427.7
 20
228.3
 30
0.0
 11
392.15
 21
188.1
 31
0.0
  0
TEXT
  5
47D
330
1F
100
AcDbEntity
  8
6
  6
Continuous
 62
     2
100
AcDbText
 10
432.8
 20
302.55
 30
0.0
 40
6.0
  1
ハ゛トン許容径
 41
0.666666667
  7
KANJI4
 72
     5
 11
464.3964
 21
302.55
 31
0.0
100
AcDbText
  0
TEXT
  5
47F
330
1F
100
AcDbEntity
  8
6
  6
Continuous
 62
     2
100
AcDbText
 10
432.8
 20
294.6
 30
0.0
 40
6.0
  1
%%c34~%%c51
 41
0.666666667
  7
KANJI4
 72
     5
 11
464.3964
 21
294.6
 31
0.0
100
AcDbText
  0
TEXT
  5
480
330
1F
100
AcDbEntity
  8
0
  6
Continuous
 62
     2
100
AcDbText
 10
159.3
 20
49.95
 30
0.0
 40
6.0
  1
注記  (  )内寸法は、バトン径%%c40
 41
0.9
  7
KANJI0
 72
     5
 11
278.6886
 21
49.95
 31
0.0
100
AcDbText
  0
TEXT
  5
481
330
1F
100
AcDbEntity
  8
0
  6
Continuous
 62
     2
100
AcDbText
 10
159.3
 20
37.95
 30
0.0
 40
6.0
  1
を使用したときの寸法をしめす。
 41
0.9
  7
KANJI0
 72
     5
 11
248.6916
 21
37.95
 31
0.0
100
AcDbText
  0
LINE
  5
482
330
1F
100
AcDbEntity
  8
3
  6
Continuous
 62
     2
100
AcDbLine
 10
154.7
 20
310.264
 30
0.0
 11
129.7
 21
285.264
 31
0.0
  0
LINE
  5
483
330
1F
100
AcDbEntity
  8
3
  6
Continuous
 62
     2
100
AcDbLine
 10
131.236
 20
281.8
 30
0.0
 11
155.736
 21
306.3
 31
0.0
  0
LINE
  5
484
330
1F
100
AcDbEntity
  8
3
  6
Continuous
 62
     2
100
AcDbLine
 10
160.736
 20
306.3
 30
0.0
 11
135.736
 21
281.3
 31
0.0
  0
LINE
  5
485
330
1F
100
AcDbEntity
  8
3
  6
Continuous
 62
     2
100
AcDbLine
 10
135.2
 20
321.3
 30
0.0
 11
129.2
 21
315.3
 31
0.0
  0
LINE
  5
486
330
1F
100
AcDbEntity
  8
3
  6
Continuous
 62
     2
100
AcDbLine
 10
128.7
 20
309.8
 30
0.0
 11
140.2
 21
321.3
 31
0.0
  0
LINE
  5
487
330
1F
100
AcDbEntity
  8
3
  6
Continuous
 62
     2
100
AcDbLine
 10
145.2
 20
321.3
 30
0.0
 11
129.7
 21
305.8
 31
0.0
  0
LINE
  5
488
330
1F
100
AcDbEntity
  8
3
  6
Continuous
 62
     2
100
AcDbLine
 10
130.7
 20
301.8
 30
0.0
 11
150.2
 21
321.3
 31
0.0
  0
LINE
  5
489
330
1F
100
AcDbEntity
  8
3
  6
Continuous
 62
     2
100
AcDbLine
 10
154.7
 20
320.8
 30
0.0
 11
129.7
 21
295.8
 31
0.0
  0
LINE
  5
48A
330
1F
100
AcDbEntity
  8
3
  6
Continuous
 62
     2
100
AcDbLine
 10
146.7
 20
307.8
 30
0.0
 11
154.7
 21
315.8
 31
0.0
  0
LINE
  5
48B
330
1F
100
AcDbEntity
  8
3
  6
Continuous
 62
     2
100
AcDbLine
 10
140.736
 20
281.3
 30
0.0
 11
154.7
 21
295.264
 31
0.0
  0
LINE
  5
48C
330
1F
100
AcDbEntity
  8
3
  6
Continuous
 62
     2
100
AcDbLine
 10
154.7
 20
290.264
 30
0.0
 11
145.736
 21
281.3
 31
0.0
  0
LINE
  5
48D
330
1F
100
AcDbEntity
  8
3
  6
Continuous
 62
     2
100
AcDbLine
 10
150.736
 20
281.3
 30
0.0
 11
154.7
 21
285.264
 31
0.0
  0
ENDSEC
  0
SECTION
  2
OBJECTS
  0
DICTIONARY
  5
C
330
0
100
AcDbDictionary
280
     0
281
     1
  3
ACAD_GROUP
350
D
  3
ACAD_LAYOUT
350
1A
  3
ACAD_MLINESTYLE
350
17
  3
ACAD_PLOTSETTINGS
350
19
  3
ACAD_PLOTSTYLENAME
350
E
  0
DICTIONARY
  5
D
102
{ACAD_REACTORS
330
C
102
}
330
C
100
AcDbDictionary
280
     0
281
     1
  0
DICTIONARY
  5
1A
102
{ACAD_REACTORS
330
C
102
}
330
C
100
AcDbDictionary
280
     0
281
     1
  3
Model
350
22
  3
ﾚｲｱｳﾄ1
350
1E
  3
ﾚｲｱｳﾄ2
350
26
  0
LAYOUT
  5
22
102
{ACAD_REACTORS
330
1A
102
}
330
1A
100
AcDbPlotSettings
  1

  2

  4

  6

 40
0.0
 41
0.0
 42
0.0
 43
0.0
 44
0.0
 45
0.0
 46
0.0
 47
0.0
 48
0.0
 49
0.0
140
0.0
141
0.0
142
1.0
143
1.0
 70
  1712
 72
     0
 73
     0
 74
     0
  7

 75
     0
147
1.0
148
0.0
149
0.0
100
AcDbLayout
  1
Model
 70
     1
 71
     0
 10
0.0
 20
0.0
 11
0.0
 21
0.0
 12
0.0
 22
0.0
 32
0.0
 14
0.0
 24
0.0
 34
0.0
 15
0.0
 25
0.0
 35
0.0
146
0.0
 13
0.0
 23
0.0
 33
0.0
 16
1.0
 26
0.0
 36
0.0
 17
0.0
 27
1.0
 37
0.0
 76
     0
330
1F
331
0
345
0
346
0
  0
LAYOUT
  5
1E
102
{ACAD_REACTORS
330
1A
102
}
330
1A
100
AcDbPlotSettings
  1

  2

  4

  6

 40
0.0
 41
0.0
 42
0.0
 43
0.0
 44
0.0
 45
0.0
 46
0.0
 47
0.0
 48
0.0
 49
0.0
140
0.0
141
0.0
142
1.0
143
1.0
 70
   688
 72
     0
 73
     0
 74
     5
  7

 75
    16
147
1.0
148
0.0
149
0.0
100
AcDbLayout
  1
ﾚｲｱｳﾄ1
 70
     1
 71
     1
 10
0.0
 20
0.0
 11
0.0
 21
0.0
 12
0.0
 22
0.0
 32
0.0
 14
0.0
 24
0.0
 34
0.0
 15
0.0
 25
0.0
 35
0.0
146
0.0
 13
0.0
 23
0.0
 33
0.0
 16
1.0
 26
0.0
 36
0.0
 17
0.0
 27
1.0
 37
0.0
 76
     0
330
1B
331
0
345
0
346
0
  0
LAYOUT
  5
26
102
{ACAD_REACTORS
330
1A
102
}
330
1A
100
AcDbPlotSettings
  1

  2

  4

  6

 40
0.0
 41
0.0
 42
0.0
 43
0.0
 44
0.0
 45
0.0
 46
0.0
 47
0.0
 48
0.0
 49
0.0
140
0.0
141
0.0
142
1.0
143
1.0
 70
   688
 72
     0
 73
     0
 74
     5
  7

 75
    16
147
1.0
148
0.0
149
0.0
100
AcDbLayout
  1
ﾚｲｱｳﾄ2
 70
     1
 71
     2
 10
0.0
 20
0.0
 11
0.0
 21
0.0
 12
0.0
 22
0.0
 32
0.0
 14
0.0
 24
0.0
 34
0.0
 15
0.0
 25
0.0
 35
0.0
146
0.0
 13
0.0
 23
0.0
 33
0.0
 16
1.0
 26
0.0
 36
0.0
 17
0.0
 27
1.0
 37
0.0
 76
     0
330
23
331
0
345
0
346
0
  0
DICTIONARY
  5
17
102
{ACAD_REACTORS
330
C
102
}
330
C
100
AcDbDictionary
280
     0
281
     1
  3
Standard
350
18
  0
MLINESTYLE
  5
18
102
{ACAD_REACTORS
330
17
102
}
330
17
100
AcDbMlineStyle
  2
STANDARD
 70
     0
  3

 62
   256
 51
90.0
 52
90.0
 71
     2
 49
0.5
 62
   256
  6
ByLayer
 49
-0.5
 62
   256
  6
ByLayer
  0
DICTIONARY
  5
19
102
{ACAD_REACTORS
330
C
102
}
330
C
100
AcDbDictionary
280
     0
281
     1
  0
ACDBDICTIONARYWDFLT
  5
E
330
C
100
AcDbDictionary
281
     0
  3
Normal
350
F
100
AcDbDictionaryWithDefault
340
F
  0
ACDBPLACEHOLDER
  5
F
102
{ACAD_REACTORS
330
E
102
}
330
E
  0
ENDSEC
  0
EOF
