  0
SECTION
  2
HEADER
  9
$ACADVER
  1
AC1015
  9
$ACADMAINTVER
 70
     6
  9
$DWGCODEPAGE
  3
ANSI_932
  9
$INSBASE
 10
0.0
 20
0.0
 30
0.0
  9
$EXTMIN
 10
0.0
 20
0.0
 30
0.0
  9
$EXTMAX
 10
594.0
 20
420.0
 30
0.0
  9
$LIMMIN
 10
0.0
 20
0.0
  9
$LIMMAX
 10
594.0
 20
420.0
  9
$ORTHOMODE
 70
     0
  9
$REGENMODE
 70
     1
  9
$FILLMODE
 70
     1
  9
$QTEXTMODE
 70
     0
  9
$MIRRTEXT
 70
     1
  9
$LTSCALE
 40
2.0
  9
$ATTMODE
 70
     1
  9
$TEXTSIZE
 40
2.5
  9
$TRACEWID
 40
1.0
  9
$TEXTSTYLE
  7
Standard
  9
$CLAYER
  8
0
  9
$CELTYPE
  6
ByLayer
  9
$CECOLOR
 62
   256
  9
$CELTSCALE
 40
1.0
  9
$DISPSILH
 70
     0
  9
$DIMSCALE
 40
1.0
  9
$DIMASZ
 40
2.5
  9
$DIMEXO
 40
0.625
  9
$DIMDLI
 40
3.75
  9
$DIMRND
 40
0.0
  9
$DIMDLE
 40
0.0
  9
$DIMEXE
 40
1.25
  9
$DIMTP
 40
0.0
  9
$DIMTM
 40
0.0
  9
$DIMTXT
 40
2.5
  9
$DIMCEN
 40
2.5
  9
$DIMTSZ
 40
0.0
  9
$DIMTOL
 70
     0
  9
$DIMLIM
 70
     0
  9
$DIMTIH
 70
     0
  9
$DIMTOH
 70
     0
  9
$DIMSE1
 70
     0
  9
$DIMSE2
 70
     0
  9
$DIMTAD
 70
     1
  9
$DIMZIN
 70
     8
  9
$DIMBLK
  1

  9
$DIMASO
 70
     1
  9
$DIMSHO
 70
     1
  9
$DIMPOST
  1

  9
$DIMAPOST
  1

  9
$DIMALT
 70
     0
  9
$DIMALTD
 70
     3
  9
$DIMALTF
 40
0.03937007874016
  9
$DIMLFAC
 40
1.0
  9
$DIMTOFL
 70
     1
  9
$DIMTVP
 40
0.0
  9
$DIMTIX
 70
     0
  9
$DIMSOXD
 70
     0
  9
$DIMSAH
 70
     0
  9
$DIMBLK1
  1

  9
$DIMBLK2
  1

  9
$DIMSTYLE
  2
ISO-25
  9
$DIMCLRD
 70
     0
  9
$DIMCLRE
 70
     0
  9
$DIMCLRT
 70
     0
  9
$DIMTFAC
 40
1.0
  9
$DIMGAP
 40
0.625
  9
$DIMJUST
 70
     0
  9
$DIMSD1
 70
     0
  9
$DIMSD2
 70
     0
  9
$DIMTOLJ
 70
     0
  9
$DIMTZIN
 70
     8
  9
$DIMALTZ
 70
     0
  9
$DIMALTTZ
 70
     0
  9
$DIMUPT
 70
     0
  9
$DIMDEC
 70
     2
  9
$DIMTDEC
 70
     2
  9
$DIMALTU
 70
     2
  9
$DIMALTTD
 70
     3
  9
$DIMTXSTY
  7
Standard
  9
$DIMAUNIT
 70
     0
  9
$DIMADEC
 70
     0
  9
$DIMALTRND
 40
0.0
  9
$DIMAZIN
 70
     0
  9
$DIMDSEP
 70
    46
  9
$DIMATFIT
 70
     3
  9
$DIMFRAC
 70
     0
  9
$DIMLDRBLK
  1

  9
$DIMLUNIT
 70
     2
  9
$DIMLWD
 70
    -2
  9
$DIMLWE
 70
    -2
  9
$DIMTMOVE
 70
     0
  9
$LUNITS
 70
     2
  9
$LUPREC
 70
     4
  9
$SKETCHINC
 40
1.0
  9
$FILLETRAD
 40
10.0
  9
$AUNITS
 70
     0
  9
$AUPREC
 70
     0
  9
$MENU
  1
.
  9
$ELEVATION
 40
0.0
  9
$PELEVATION
 40
0.0
  9
$THICKNESS
 40
0.0
  9
$LIMCHECK
 70
     0
  9
$CHAMFERA
 40
10.0
  9
$CHAMFERB
 40
10.0
  9
$CHAMFERC
 40
20.0
  9
$CHAMFERD
 40
0.0
  9
$SKPOLY
 70
     0
  9
$TDCREATE
 40
2459258.000000
  9
$TDUCREATE
 40
0.000000000
  9
$TDUPDATE
 40
2459258.000000
  9
$TDUUPDATE
 40
2459258.000000
  9
$TDINDWG
 40
0.0
  9
$TDUSRTIMER
 40
0.0
  9
$USRTIMER
 70
     1
  9
$ANGBASE
 50
0.0
  9
$ANGDIR
 70
     0
  9
$PDMODE
 70
     0
  9
$PDSIZE
 40
0.0
  9
$PLINEWID
 40
0.0
  9
$SPLFRAME
 70
     0
  9
$SPLINETYPE
 70
     6
  9
$SPLINESEGS
 70
     8
  9
$HANDSEED
  5
04A9
  9
$SURFTAB1
 70
     6
  9
$SURFTAB2
 70
     6
  9
$SURFTYPE
 70
     6
  9
$SURFU
 70
     6
  9
$SURFV
 70
     6
  9
$UCSBASE
  2

  9
$UCSNAME
  2

  9
$UCSORG
 10
0.0
 20
0.0
 30
0.0
  9
$UCSXDIR
 10
1.0
 20
0.0
 30
0.0
  9
$UCSYDIR
 10
0.0
 20
1.0
 30
0.0
  9
$UCSORTHOREF
  2

  9
$UCSORTHOVIEW
 70
     0
  9
$UCSORGTOP
 10
0.0
 20
0.0
 30
0.0
  9
$UCSORGBOTTOM
 10
0.0
 20
0.0
 30
0.0
  9
$UCSORGLEFT
 10
0.0
 20
0.0
 30
0.0
  9
$UCSORGRIGHT
 10
0.0
 20
0.0
 30
0.0
  9
$UCSORGFRONT
 10
0.0
 20
0.0
 30
0.0
  9
$UCSORGBACK
 10
0.0
 20
0.0
 30
0.0
  9
$PUCSBASE
  2

  9
$PUCSNAME
  2

  9
$PUCSORG
 10
0.0
 20
0.0
 30
0.0
  9
$PUCSXDIR
 10
1.0
 20
0.0
 30
0.0
  9
$PUCSYDIR
 10
0.0
 20
1.0
 30
0.0
  9
$PUCSORTHOREF
  2

  9
$PUCSORTHOVIEW
 70
     0
  9
$PUCSORGTOP
 10
0.0
 20
0.0
 30
0.0
  9
$PUCSORGBOTTOM
 10
0.0
 20
0.0
 30
0.0
  9
$PUCSORGLEFT
 10
0.0
 20
0.0
 30
0.0
  9
$PUCSORGRIGHT
 10
0.0
 20
0.0
 30
0.0
  9
$PUCSORGFRONT
 10
0.0
 20
0.0
 30
0.0
  9
$PUCSORGBACK
 10
0.0
 20
0.0
 30
0.0
  9
$USERI1
 70
     0
  9
$USERI2
 70
     0
  9
$USERI3
 70
     0
  9
$USERI4
 70
     0
  9
$USERI5
 70
     0
  9
$USERR1
 40
0.0
  9
$USERR2
 40
0.0
  9
$USERR3
 40
0.0
  9
$USERR4
 40
0.0
  9
$USERR5
 40
0.0
  9
$WORLDVIEW
 70
     1
  9
$SHADEDGE
 70
     3
  9
$SHADEDIF
 70
    70
  9
$TILEMODE
 70
     1
  9
$MAXACTVP
 70
    64
  9
$PINSBASE
 10
0.0
 20
0.0
 30
0.0
  9
$PLIMCHECK
 70
     0
  9
$PEXTMIN
 10
1.000000E+20
 20
1.000000E+20
 30
1.000000E+20
  9
$PEXTMAX
 10
-1.000000E+20
 20
-1.000000E+20
 30
-1.000000E+20
  9
$PLIMMIN
 10
0.0
 20
0.0
  9
$PLIMMAX
 10
0.0
 20
0.0
  9
$UNITMODE
 70
     0
  9
$VISRETAIN
 70
     0
  9
$PLINEGEN
 70
     0
  9
$PSLTSCALE
 70
     1
  9
$TREEDEPTH
 70
  3020
  9
$CMLSTYLE
  2
STANDARD
  9
$CMLJUST
 70
     0
  9
$CMLSCALE
 40
20.0
  9
$PROXYGRAPHICS
 70
     1
  9
$MEASUREMENT
 70
     1
  9
$CELWEIGHT
370
    -1
  9
$ENDCAPS
280
     0
  9
$JOINSTYLE
280
     0
  9
$LWDISPLAY
290
     0
  9
$INSUNITS
 70
     4
  9
$HYPERLINKBASE
  1

  9
$STYLESHEET
  1

  9
$XEDIT
290
     1
  9
$CEPSNTYPE
380
     0
  9
$PSTYLEMODE
290
     1
  9
$FINGERPRINTGUID
  2
{2C8CC018-66EB-C1FB-4BD1-943AAC9BADC7}
  9
$VERSIONGUID
  2
{2C8CC018-66EB-C1FB-4BD1-943AAC9BADC7}
  9
$EXTNAMES
290
     1
  9
$PSVPSCALE
 40
0.0
  0
ENDSEC
  0
SECTION
  2
CLASSES
  0
ENDSEC
  0
SECTION
  2
TABLES
  0
TABLE
  2
VPORT
  5
8
330
0
100
AcDbSymbolTable
 70
     3
  0
VPORT
  5
29
330
8
100
AcDbSymbolTableRecord
100
AcDbViewportTableRecord
  2
*Active
 70
     0
 10
0.0
 20
0.0
 11
1.0
 21
1.0
 12
297.0
 22
210.0
 13
0.0
 23
0.0
 14
10.0
 24
10.0
 15
0.0
 25
0.0
 16
0.0
 26
0.0
 36
1.0
 17
0.0
 27
0.0
 37
0.0
 40
420.0
 41
1.414285714
 42
50.0
 43
0.0
 44
0.0
 50
0.0
 51
0.0
 71
     0
 72
  1000
 73
     1
 74
     3
 75
     0
 76
     0
 77
     0
 78
     0
281
     0
 65
     0
110
0.0
120
0.0
130
0.0
111
1.0
121
0.0
131
0.0
112
0.0
122
1.0
132
0.0
 79
     0
146
0.0
  0
ENDTAB
  0
TABLE
  2
LTYPE
  5
5
330
0
100
AcDbSymbolTable
 70
     7
  0
LTYPE
  5
14
330
5
100
AcDbSymbolTableRecord
100
AcDbLinetypeTableRecord
  2
ByBlock
 70
     0
  3

 72
    65
 73
     0
 40
0.0
  0
LTYPE
  5
15
330
5
100
AcDbSymbolTableRecord
100
AcDbLinetypeTableRecord
  2
ByLayer
 70
     0
  3

 72
    65
 73
     0
 40
0.0
  0
LTYPE
  5
16
330
5
100
AcDbSymbolTableRecord
100
AcDbLinetypeTableRecord
  2
Continuous
 70
     0
  3
Solid line
 72
    65
 73
     0
 40
0.0
  0
LTYPE
  5
AF
330
5
100
AcDbSymbolTableRecord
100
AcDbLinetypeTableRecord
  2
LTYPE1
 70
     0
  3
HIDDEN
 72
    65
 73
     2
 40
2.5
 49
1.5
 74
     0
 49
-1.0
 74
     0
  0
LTYPE
  5
E2
330
5
100
AcDbSymbolTableRecord
100
AcDbLinetypeTableRecord
  2
LTYPE2
 70
     0
  3
HIDDEN
 72
    65
 73
     2
 40
2.0
 49
1.2
 74
     0
 49
-0.8
 74
     0
  0
LTYPE
  5
231
330
5
100
AcDbSymbolTableRecord
100
AcDbLinetypeTableRecord
  2
LTYPE3
 70
     0
  3
CENTER
 72
    65
 73
     4
 40
12.0
 49
8.4
 74
     0
 49
-1.2
 74
     0
 49
1.2
 74
     0
 49
-1.2
 74
     0
  0
LTYPE
  5
331
330
5
100
AcDbSymbolTableRecord
100
AcDbLinetypeTableRecord
  2
LTYPE4
 70
     0
  3
PHANTOM
 72
    65
 73
     6
 40
15.0
 49
11.25
 74
     0
 49
-0.75
 74
     0
 49
0.75
 74
     0
 49
-0.75
 74
     0
 49
0.75
 74
     0
 49
-0.75
 74
     0
  0
ENDTAB
  0
TABLE
  2
LAYER
  5
2
330
0
100
AcDbSymbolTable
 70
   128
  0
LAYER
  5
10
330
2
100
AcDbSymbolTableRecord
100
AcDbLayerTableRecord
  2
0
 70
     0
 62
     7
  6
Continuous
290
     1
370
    -3
390
F
  0
LAYER
  5
2A
330
2
100
AcDbSymbolTableRecord
100
AcDbLayerTableRecord
  2
1
 70
     0
 62
     7
  6
Continuous
290
     1
370
    -3
390
F
  0
LAYER
  5
2B
330
2
100
AcDbSymbolTableRecord
100
AcDbLayerTableRecord
  2
2
 70
     0
 62
     7
  6
Continuous
290
     1
370
    -3
390
F
  0
LAYER
  5
2C
330
2
100
AcDbSymbolTableRecord
100
AcDbLayerTableRecord
  2
3
 70
     0
 62
     7
  6
Continuous
290
     1
370
    -3
390
F
  0
LAYER
  5
2D
330
2
100
AcDbSymbolTableRecord
100
AcDbLayerTableRecord
  2
4
 70
     0
 62
     7
  6
Continuous
290
     1
370
    -3
390
F
  0
LAYER
  5
2E
330
2
100
AcDbSymbolTableRecord
100
AcDbLayerTableRecord
  2
5
 70
     0
 62
     7
  6
Continuous
290
     1
370
    -3
390
F
  0
LAYER
  5
2F
330
2
100
AcDbSymbolTableRecord
100
AcDbLayerTableRecord
  2
6
 70
     0
 62
     7
  6
Continuous
290
     1
370
    -3
390
F
  0
LAYER
  5
30
330
2
100
AcDbSymbolTableRecord
100
AcDbLayerTableRecord
  2
7
 70
     0
 62
     7
  6
Continuous
290
     1
370
    -3
390
F
  0
LAYER
  5
31
330
2
100
AcDbSymbolTableRecord
100
AcDbLayerTableRecord
  2
8
 70
     0
 62
     7
  6
Continuous
290
     1
370
    -3
390
F
  0
LAYER
  5
32
330
2
100
AcDbSymbolTableRecord
100
AcDbLayerTableRecord
  2
9
 70
     0
 62
     7
  6
Continuous
290
     1
370
    -3
390
F
  0
LAYER
  5
33
330
2
100
AcDbSymbolTableRecord
100
AcDbLayerTableRecord
  2
10
 70
     0
 62
     7
  6
Continuous
290
     1
370
    -3
390
F
  0
LAYER
  5
34
330
2
100
AcDbSymbolTableRecord
100
AcDbLayerTableRecord
  2
11
 70
     0
 62
     7
  6
Continuous
290
     1
370
    -3
390
F
  0
LAYER
  5
35
330
2
100
AcDbSymbolTableRecord
100
AcDbLayerTableRecord
  2
12
 70
     0
 62
     7
  6
Continuous
290
     1
370
    -3
390
F
  0
LAYER
  5
36
330
2
100
AcDbSymbolTableRecord
100
AcDbLayerTableRecord
  2
13
 70
     0
 62
     7
  6
Continuous
290
     1
370
    -3
390
F
  0
LAYER
  5
37
330
2
100
AcDbSymbolTableRecord
100
AcDbLayerTableRecord
  2
14
 70
     0
 62
     7
  6
Continuous
290
     1
370
    -3
390
F
  0
LAYER
  5
38
330
2
100
AcDbSymbolTableRecord
100
AcDbLayerTableRecord
  2
15
 70
     0
 62
     7
  6
Continuous
290
     1
370
    -3
390
F
  0
LAYER
  5
39
330
2
100
AcDbSymbolTableRecord
100
AcDbLayerTableRecord
  2
16
 70
     0
 62
     7
  6
Continuous
290
     1
370
    -3
390
F
  0
LAYER
  5
3A
330
2
100
AcDbSymbolTableRecord
100
AcDbLayerTableRecord
  2
17
 70
     0
 62
     7
  6
Continuous
290
     1
370
    -3
390
F
  0
LAYER
  5
3B
330
2
100
AcDbSymbolTableRecord
100
AcDbLayerTableRecord
  2
18
 70
     0
 62
     7
  6
Continuous
290
     1
370
    -3
390
F
  0
LAYER
  5
3C
330
2
100
AcDbSymbolTableRecord
100
AcDbLayerTableRecord
  2
19
 70
     0
 62
     7
  6
Continuous
290
     1
370
    -3
390
F
  0
LAYER
  5
3D
330
2
100
AcDbSymbolTableRecord
100
AcDbLayerTableRecord
  2
20
 70
     0
 62
     7
  6
Continuous
290
     1
370
    -3
390
F
  0
LAYER
  5
3E
330
2
100
AcDbSymbolTableRecord
100
AcDbLayerTableRecord
  2
21
 70
     0
 62
     7
  6
Continuous
290
     1
370
    -3
390
F
  0
LAYER
  5
3F
330
2
100
AcDbSymbolTableRecord
100
AcDbLayerTableRecord
  2
22
 70
     0
 62
     7
  6
Continuous
290
     1
370
    -3
390
F
  0
LAYER
  5
40
330
2
100
AcDbSymbolTableRecord
100
AcDbLayerTableRecord
  2
23
 70
     0
 62
     7
  6
Continuous
290
     1
370
    -3
390
F
  0
LAYER
  5
41
330
2
100
AcDbSymbolTableRecord
100
AcDbLayerTableRecord
  2
24
 70
     0
 62
     7
  6
Continuous
290
     1
370
    -3
390
F
  0
LAYER
  5
42
330
2
100
AcDbSymbolTableRecord
100
AcDbLayerTableRecord
  2
25
 70
     0
 62
     7
  6
Continuous
290
     1
370
    -3
390
F
  0
LAYER
  5
43
330
2
100
AcDbSymbolTableRecord
100
AcDbLayerTableRecord
  2
26
 70
     0
 62
     7
  6
Continuous
290
     1
370
    -3
390
F
  0
LAYER
  5
44
330
2
100
AcDbSymbolTableRecord
100
AcDbLayerTableRecord
  2
27
 70
     0
 62
     7
  6
Continuous
290
     1
370
    -3
390
F
  0
LAYER
  5
45
330
2
100
AcDbSymbolTableRecord
100
AcDbLayerTableRecord
  2
28
 70
     0
 62
     7
  6
Continuous
290
     1
370
    -3
390
F
  0
LAYER
  5
46
330
2
100
AcDbSymbolTableRecord
100
AcDbLayerTableRecord
  2
29
 70
     0
 62
     7
  6
Continuous
290
     1
370
    -3
390
F
  0
LAYER
  5
47
330
2
100
AcDbSymbolTableRecord
100
AcDbLayerTableRecord
  2
30
 70
     0
 62
     7
  6
Continuous
290
     1
370
    -3
390
F
  0
LAYER
  5
48
330
2
100
AcDbSymbolTableRecord
100
AcDbLayerTableRecord
  2
31
 70
     0
 62
     7
  6
Continuous
290
     1
370
    -3
390
F
  0
LAYER
  5
49
330
2
100
AcDbSymbolTableRecord
100
AcDbLayerTableRecord
  2
32
 70
     0
 62
     7
  6
Continuous
290
     1
370
    -3
390
F
  0
LAYER
  5
4A
330
2
100
AcDbSymbolTableRecord
100
AcDbLayerTableRecord
  2
33
 70
     0
 62
     7
  6
Continuous
290
     1
370
    -3
390
F
  0
LAYER
  5
4B
330
2
100
AcDbSymbolTableRecord
100
AcDbLayerTableRecord
  2
34
 70
     0
 62
     7
  6
Continuous
290
     1
370
    -3
390
F
  0
LAYER
  5
4C
330
2
100
AcDbSymbolTableRecord
100
AcDbLayerTableRecord
  2
35
 70
     0
 62
     7
  6
Continuous
290
     1
370
    -3
390
F
  0
LAYER
  5
4D
330
2
100
AcDbSymbolTableRecord
100
AcDbLayerTableRecord
  2
36
 70
     0
 62
     7
  6
Continuous
290
     1
370
    -3
390
F
  0
LAYER
  5
4E
330
2
100
AcDbSymbolTableRecord
100
AcDbLayerTableRecord
  2
37
 70
     0
 62
     7
  6
Continuous
290
     1
370
    -3
390
F
  0
LAYER
  5
4F
330
2
100
AcDbSymbolTableRecord
100
AcDbLayerTableRecord
  2
38
 70
     0
 62
     7
  6
Continuous
290
     1
370
    -3
390
F
  0
LAYER
  5
50
330
2
100
AcDbSymbolTableRecord
100
AcDbLayerTableRecord
  2
39
 70
     0
 62
     7
  6
Continuous
290
     1
370
    -3
390
F
  0
LAYER
  5
51
330
2
100
AcDbSymbolTableRecord
100
AcDbLayerTableRecord
  2
40
 70
     0
 62
     7
  6
Continuous
290
     1
370
    -3
390
F
  0
LAYER
  5
52
330
2
100
AcDbSymbolTableRecord
100
AcDbLayerTableRecord
  2
41
 70
     0
 62
     7
  6
Continuous
290
     1
370
    -3
390
F
  0
LAYER
  5
53
330
2
100
AcDbSymbolTableRecord
100
AcDbLayerTableRecord
  2
42
 70
     0
 62
     7
  6
Continuous
290
     1
370
    -3
390
F
  0
LAYER
  5
54
330
2
100
AcDbSymbolTableRecord
100
AcDbLayerTableRecord
  2
43
 70
     0
 62
     7
  6
Continuous
290
     1
370
    -3
390
F
  0
LAYER
  5
55
330
2
100
AcDbSymbolTableRecord
100
AcDbLayerTableRecord
  2
44
 70
     0
 62
     7
  6
Continuous
290
     1
370
    -3
390
F
  0
LAYER
  5
56
330
2
100
AcDbSymbolTableRecord
100
AcDbLayerTableRecord
  2
45
 70
     0
 62
     7
  6
Continuous
290
     1
370
    -3
390
F
  0
LAYER
  5
57
330
2
100
AcDbSymbolTableRecord
100
AcDbLayerTableRecord
  2
46
 70
     0
 62
     7
  6
Continuous
290
     1
370
    -3
390
F
  0
LAYER
  5
58
330
2
100
AcDbSymbolTableRecord
100
AcDbLayerTableRecord
  2
47
 70
     0
 62
     7
  6
Continuous
290
     1
370
    -3
390
F
  0
LAYER
  5
59
330
2
100
AcDbSymbolTableRecord
100
AcDbLayerTableRecord
  2
48
 70
     0
 62
     7
  6
Continuous
290
     1
370
    -3
390
F
  0
LAYER
  5
5A
330
2
100
AcDbSymbolTableRecord
100
AcDbLayerTableRecord
  2
49
 70
     0
 62
     7
  6
Continuous
290
     1
370
    -3
390
F
  0
LAYER
  5
5B
330
2
100
AcDbSymbolTableRecord
100
AcDbLayerTableRecord
  2
50
 70
     0
 62
     7
  6
Continuous
290
     1
370
    -3
390
F
  0
LAYER
  5
5C
330
2
100
AcDbSymbolTableRecord
100
AcDbLayerTableRecord
  2
51
 70
     0
 62
     7
  6
Continuous
290
     1
370
    -3
390
F
  0
LAYER
  5
5D
330
2
100
AcDbSymbolTableRecord
100
AcDbLayerTableRecord
  2
52
 70
     0
 62
     7
  6
Continuous
290
     1
370
    -3
390
F
  0
LAYER
  5
5E
330
2
100
AcDbSymbolTableRecord
100
AcDbLayerTableRecord
  2
53
 70
     0
 62
     7
  6
Continuous
290
     1
370
    -3
390
F
  0
LAYER
  5
5F
330
2
100
AcDbSymbolTableRecord
100
AcDbLayerTableRecord
  2
54
 70
     0
 62
     7
  6
Continuous
290
     1
370
    -3
390
F
  0
LAYER
  5
60
330
2
100
AcDbSymbolTableRecord
100
AcDbLayerTableRecord
  2
55
 70
     0
 62
     7
  6
Continuous
290
     1
370
    -3
390
F
  0
LAYER
  5
61
330
2
100
AcDbSymbolTableRecord
100
AcDbLayerTableRecord
  2
56
 70
     0
 62
     7
  6
Continuous
290
     1
370
    -3
390
F
  0
LAYER
  5
62
330
2
100
AcDbSymbolTableRecord
100
AcDbLayerTableRecord
  2
57
 70
     0
 62
     7
  6
Continuous
290
     1
370
    -3
390
F
  0
LAYER
  5
63
330
2
100
AcDbSymbolTableRecord
100
AcDbLayerTableRecord
  2
58
 70
     0
 62
     7
  6
Continuous
290
     1
370
    -3
390
F
  0
LAYER
  5
64
330
2
100
AcDbSymbolTableRecord
100
AcDbLayerTableRecord
  2
59
 70
     0
 62
     7
  6
Continuous
290
     1
370
    -3
390
F
  0
LAYER
  5
65
330
2
100
AcDbSymbolTableRecord
100
AcDbLayerTableRecord
  2
60
 70
     0
 62
     7
  6
Continuous
290
     1
370
    -3
390
F
  0
LAYER
  5
66
330
2
100
AcDbSymbolTableRecord
100
AcDbLayerTableRecord
  2
61
 70
     0
 62
     7
  6
Continuous
290
     1
370
    -3
390
F
  0
LAYER
  5
67
330
2
100
AcDbSymbolTableRecord
100
AcDbLayerTableRecord
  2
62
 70
     0
 62
     7
  6
Continuous
290
     1
370
    -3
390
F
  0
LAYER
  5
68
330
2
100
AcDbSymbolTableRecord
100
AcDbLayerTableRecord
  2
63
 70
     0
 62
     7
  6
Continuous
290
     1
370
    -3
390
F
  0
LAYER
  5
69
330
2
100
AcDbSymbolTableRecord
100
AcDbLayerTableRecord
  2
64
 70
     0
 62
     7
  6
Continuous
290
     1
370
    -3
390
F
  0
LAYER
  5
6A
330
2
100
AcDbSymbolTableRecord
100
AcDbLayerTableRecord
  2
65
 70
     0
 62
     7
  6
Continuous
290
     1
370
    -3
390
F
  0
LAYER
  5
6B
330
2
100
AcDbSymbolTableRecord
100
AcDbLayerTableRecord
  2
66
 70
     0
 62
     7
  6
Continuous
290
     1
370
    -3
390
F
  0
LAYER
  5
6C
330
2
100
AcDbSymbolTableRecord
100
AcDbLayerTableRecord
  2
67
 70
     0
 62
     7
  6
Continuous
290
     1
370
    -3
390
F
  0
LAYER
  5
6D
330
2
100
AcDbSymbolTableRecord
100
AcDbLayerTableRecord
  2
68
 70
     0
 62
     7
  6
Continuous
290
     1
370
    -3
390
F
  0
LAYER
  5
6E
330
2
100
AcDbSymbolTableRecord
100
AcDbLayerTableRecord
  2
69
 70
     0
 62
     7
  6
Continuous
290
     1
370
    -3
390
F
  0
LAYER
  5
6F
330
2
100
AcDbSymbolTableRecord
100
AcDbLayerTableRecord
  2
70
 70
     0
 62
     7
  6
Continuous
290
     1
370
    -3
390
F
  0
LAYER
  5
70
330
2
100
AcDbSymbolTableRecord
100
AcDbLayerTableRecord
  2
71
 70
     0
 62
     7
  6
Continuous
290
     1
370
    -3
390
F
  0
LAYER
  5
71
330
2
100
AcDbSymbolTableRecord
100
AcDbLayerTableRecord
  2
72
 70
     0
 62
     7
  6
Continuous
290
     1
370
    -3
390
F
  0
LAYER
  5
72
330
2
100
AcDbSymbolTableRecord
100
AcDbLayerTableRecord
  2
73
 70
     0
 62
     7
  6
Continuous
290
     1
370
    -3
390
F
  0
LAYER
  5
73
330
2
100
AcDbSymbolTableRecord
100
AcDbLayerTableRecord
  2
74
 70
     0
 62
     7
  6
Continuous
290
     1
370
    -3
390
F
  0
LAYER
  5
74
330
2
100
AcDbSymbolTableRecord
100
AcDbLayerTableRecord
  2
75
 70
     0
 62
     7
  6
Continuous
290
     1
370
    -3
390
F
  0
LAYER
  5
75
330
2
100
AcDbSymbolTableRecord
100
AcDbLayerTableRecord
  2
76
 70
     0
 62
     7
  6
Continuous
290
     1
370
    -3
390
F
  0
LAYER
  5
76
330
2
100
AcDbSymbolTableRecord
100
AcDbLayerTableRecord
  2
77
 70
     0
 62
     7
  6
Continuous
290
     1
370
    -3
390
F
  0
LAYER
  5
77
330
2
100
AcDbSymbolTableRecord
100
AcDbLayerTableRecord
  2
78
 70
     0
 62
     7
  6
Continuous
290
     1
370
    -3
390
F
  0
LAYER
  5
78
330
2
100
AcDbSymbolTableRecord
100
AcDbLayerTableRecord
  2
79
 70
     0
 62
     7
  6
Continuous
290
     1
370
    -3
390
F
  0
LAYER
  5
79
330
2
100
AcDbSymbolTableRecord
100
AcDbLayerTableRecord
  2
80
 70
     0
 62
     7
  6
Continuous
290
     1
370
    -3
390
F
  0
LAYER
  5
7A
330
2
100
AcDbSymbolTableRecord
100
AcDbLayerTableRecord
  2
81
 70
     0
 62
     7
  6
Continuous
290
     1
370
    -3
390
F
  0
LAYER
  5
7B
330
2
100
AcDbSymbolTableRecord
100
AcDbLayerTableRecord
  2
82
 70
     0
 62
     7
  6
Continuous
290
     1
370
    -3
390
F
  0
LAYER
  5
7C
330
2
100
AcDbSymbolTableRecord
100
AcDbLayerTableRecord
  2
83
 70
     0
 62
     7
  6
Continuous
290
     1
370
    -3
390
F
  0
LAYER
  5
7D
330
2
100
AcDbSymbolTableRecord
100
AcDbLayerTableRecord
  2
84
 70
     0
 62
     7
  6
Continuous
290
     1
370
    -3
390
F
  0
LAYER
  5
7E
330
2
100
AcDbSymbolTableRecord
100
AcDbLayerTableRecord
  2
85
 70
     0
 62
     7
  6
Continuous
290
     1
370
    -3
390
F
  0
LAYER
  5
7F
330
2
100
AcDbSymbolTableRecord
100
AcDbLayerTableRecord
  2
86
 70
     0
 62
     7
  6
Continuous
290
     1
370
    -3
390
F
  0
LAYER
  5
80
330
2
100
AcDbSymbolTableRecord
100
AcDbLayerTableRecord
  2
87
 70
     0
 62
     7
  6
Continuous
290
     1
370
    -3
390
F
  0
LAYER
  5
81
330
2
100
AcDbSymbolTableRecord
100
AcDbLayerTableRecord
  2
88
 70
     0
 62
     7
  6
Continuous
290
     1
370
    -3
390
F
  0
LAYER
  5
82
330
2
100
AcDbSymbolTableRecord
100
AcDbLayerTableRecord
  2
89
 70
     0
 62
     7
  6
Continuous
290
     1
370
    -3
390
F
  0
LAYER
  5
83
330
2
100
AcDbSymbolTableRecord
100
AcDbLayerTableRecord
  2
90
 70
     0
 62
     7
  6
Continuous
290
     1
370
    -3
390
F
  0
LAYER
  5
84
330
2
100
AcDbSymbolTableRecord
100
AcDbLayerTableRecord
  2
91
 70
     0
 62
     7
  6
Continuous
290
     1
370
    -3
390
F
  0
LAYER
  5
85
330
2
100
AcDbSymbolTableRecord
100
AcDbLayerTableRecord
  2
92
 70
     0
 62
     7
  6
Continuous
290
     1
370
    -3
390
F
  0
LAYER
  5
86
330
2
100
AcDbSymbolTableRecord
100
AcDbLayerTableRecord
  2
93
 70
     0
 62
     7
  6
Continuous
290
     1
370
    -3
390
F
  0
LAYER
  5
87
330
2
100
AcDbSymbolTableRecord
100
AcDbLayerTableRecord
  2
94
 70
     0
 62
     7
  6
Continuous
290
     1
370
    -3
390
F
  0
LAYER
  5
88
330
2
100
AcDbSymbolTableRecord
100
AcDbLayerTableRecord
  2
95
 70
     0
 62
     7
  6
Continuous
290
     1
370
    -3
390
F
  0
LAYER
  5
89
330
2
100
AcDbSymbolTableRecord
100
AcDbLayerTableRecord
  2
96
 70
     0
 62
     7
  6
Continuous
290
     1
370
    -3
390
F
  0
LAYER
  5
8A
330
2
100
AcDbSymbolTableRecord
100
AcDbLayerTableRecord
  2
97
 70
     0
 62
     7
  6
Continuous
290
     1
370
    -3
390
F
  0
LAYER
  5
8B
330
2
100
AcDbSymbolTableRecord
100
AcDbLayerTableRecord
  2
98
 70
     0
 62
     7
  6
Continuous
290
     1
370
    -3
390
F
  0
LAYER
  5
8C
330
2
100
AcDbSymbolTableRecord
100
AcDbLayerTableRecord
  2
99
 70
     0
 62
     7
  6
Continuous
290
     1
370
    -3
390
F
  0
LAYER
  5
8D
330
2
100
AcDbSymbolTableRecord
100
AcDbLayerTableRecord
  2
100
 70
     0
 62
     7
  6
Continuous
290
     1
370
    -3
390
F
  0
LAYER
  5
8E
330
2
100
AcDbSymbolTableRecord
100
AcDbLayerTableRecord
  2
101
 70
     0
 62
     7
  6
Continuous
290
     1
370
    -3
390
F
  0
LAYER
  5
8F
330
2
100
AcDbSymbolTableRecord
100
AcDbLayerTableRecord
  2
102
 70
     0
 62
     7
  6
Continuous
290
     1
370
    -3
390
F
  0
LAYER
  5
90
330
2
100
AcDbSymbolTableRecord
100
AcDbLayerTableRecord
  2
103
 70
     0
 62
     7
  6
Continuous
290
     1
370
    -3
390
F
  0
LAYER
  5
91
330
2
100
AcDbSymbolTableRecord
100
AcDbLayerTableRecord
  2
104
 70
     0
 62
     7
  6
Continuous
290
     1
370
    -3
390
F
  0
LAYER
  5
92
330
2
100
AcDbSymbolTableRecord
100
AcDbLayerTableRecord
  2
105
 70
     0
 62
     7
  6
Continuous
290
     1
370
    -3
390
F
  0
LAYER
  5
93
330
2
100
AcDbSymbolTableRecord
100
AcDbLayerTableRecord
  2
106
 70
     0
 62
     7
  6
Continuous
290
     1
370
    -3
390
F
  0
LAYER
  5
94
330
2
100
AcDbSymbolTableRecord
100
AcDbLayerTableRecord
  2
107
 70
     0
 62
     7
  6
Continuous
290
     1
370
    -3
390
F
  0
LAYER
  5
95
330
2
100
AcDbSymbolTableRecord
100
AcDbLayerTableRecord
  2
108
 70
     0
 62
     7
  6
Continuous
290
     1
370
    -3
390
F
  0
LAYER
  5
96
330
2
100
AcDbSymbolTableRecord
100
AcDbLayerTableRecord
  2
109
 70
     0
 62
     7
  6
Continuous
290
     1
370
    -3
390
F
  0
LAYER
  5
97
330
2
100
AcDbSymbolTableRecord
100
AcDbLayerTableRecord
  2
110
 70
     0
 62
     7
  6
Continuous
290
     1
370
    -3
390
F
  0
LAYER
  5
98
330
2
100
AcDbSymbolTableRecord
100
AcDbLayerTableRecord
  2
111
 70
     0
 62
     7
  6
Continuous
290
     1
370
    -3
390
F
  0
LAYER
  5
99
330
2
100
AcDbSymbolTableRecord
100
AcDbLayerTableRecord
  2
112
 70
     0
 62
     7
  6
Continuous
290
     1
370
    -3
390
F
  0
LAYER
  5
9A
330
2
100
AcDbSymbolTableRecord
100
AcDbLayerTableRecord
  2
113
 70
     0
 62
     7
  6
Continuous
290
     1
370
    -3
390
F
  0
LAYER
  5
9B
330
2
100
AcDbSymbolTableRecord
100
AcDbLayerTableRecord
  2
114
 70
     0
 62
     7
  6
Continuous
290
     1
370
    -3
390
F
  0
LAYER
  5
9C
330
2
100
AcDbSymbolTableRecord
100
AcDbLayerTableRecord
  2
115
 70
     0
 62
     7
  6
Continuous
290
     1
370
    -3
390
F
  0
LAYER
  5
9D
330
2
100
AcDbSymbolTableRecord
100
AcDbLayerTableRecord
  2
116
 70
     0
 62
     7
  6
Continuous
290
     1
370
    -3
390
F
  0
LAYER
  5
9E
330
2
100
AcDbSymbolTableRecord
100
AcDbLayerTableRecord
  2
117
 70
     0
 62
     7
  6
Continuous
290
     1
370
    -3
390
F
  0
LAYER
  5
9F
330
2
100
AcDbSymbolTableRecord
100
AcDbLayerTableRecord
  2
118
 70
     0
 62
     7
  6
Continuous
290
     1
370
    -3
390
F
  0
LAYER
  5
A0
330
2
100
AcDbSymbolTableRecord
100
AcDbLayerTableRecord
  2
119
 70
     0
 62
     7
  6
Continuous
290
     1
370
    -3
390
F
  0
LAYER
  5
A1
330
2
100
AcDbSymbolTableRecord
100
AcDbLayerTableRecord
  2
120
 70
     0
 62
     7
  6
Continuous
290
     1
370
    -3
390
F
  0
LAYER
  5
A2
330
2
100
AcDbSymbolTableRecord
100
AcDbLayerTableRecord
  2
121
 70
     0
 62
     7
  6
Continuous
290
     1
370
    -3
390
F
  0
LAYER
  5
A3
330
2
100
AcDbSymbolTableRecord
100
AcDbLayerTableRecord
  2
122
 70
     0
 62
     7
  6
Continuous
290
     1
370
    -3
390
F
  0
LAYER
  5
A4
330
2
100
AcDbSymbolTableRecord
100
AcDbLayerTableRecord
  2
123
 70
     0
 62
     7
  6
Continuous
290
     1
370
    -3
390
F
  0
LAYER
  5
A5
330
2
100
AcDbSymbolTableRecord
100
AcDbLayerTableRecord
  2
124
 70
     0
 62
     7
  6
Continuous
290
     1
370
    -3
390
F
  0
LAYER
  5
A6
330
2
100
AcDbSymbolTableRecord
100
AcDbLayerTableRecord
  2
125
 70
     0
 62
     7
  6
Continuous
290
     1
370
    -3
390
F
  0
LAYER
  5
A7
330
2
100
AcDbSymbolTableRecord
100
AcDbLayerTableRecord
  2
126
 70
     0
 62
     7
  6
Continuous
290
     1
370
    -3
390
F
  0
LAYER
  5
A8
330
2
100
AcDbSymbolTableRecord
100
AcDbLayerTableRecord
  2
127
 70
     0
 62
     7
  6
Continuous
290
     1
370
    -3
390
F
  0
ENDTAB
  0
TABLE
  2
STYLE
  5
3
330
0
100
AcDbSymbolTable
 70
     6
  0
STYLE
  5
11
330
3
100
AcDbSymbolTableRecord
100
AcDbTextStyleTableRecord
  2
Standard
 70
     0
 40
0.0
 41
1.0
 50
0.0
 71
     0
 42
2.5
  3
txt.shx
  4
extfont.shx
  0
STYLE
  5
B6
330
3
100
AcDbSymbolTableRecord
100
AcDbTextStyleTableRecord
  2
KANJI0
 70
     0
 40
3.0
 41
0.9
 50
0.0
 71
     0
 42
3.0
  3
txt.shx
  4
extfont.shx
  0
STYLE
  5
371
330
3
100
AcDbSymbolTableRecord
100
AcDbTextStyleTableRecord
  2
KANJI1
 70
     0
 40
6.0
 41
0.9
 50
0.0
 71
     0
 42
6.0
  3
txt.shx
  4
extfont.shx
  0
STYLE
  5
381
330
3
100
AcDbSymbolTableRecord
100
AcDbTextStyleTableRecord
  2
KANJI2
 70
     0
 40
8.0
 41
0.9
 50
0.0
 71
     0
 42
8.0
  3
txt.shx
  4
extfont.shx
  0
STYLE
  5
3B1
330
3
100
AcDbSymbolTableRecord
100
AcDbTextStyleTableRecord
  2
KANJI3
 70
     0
 40
3.0
 41
0.6
 50
0.0
 71
     0
 42
3.0
  3
txt.shx
  4
extfont.shx
  0
STYLE
  5
483
330
3
100
AcDbSymbolTableRecord
100
AcDbTextStyleTableRecord
  2
KANJI4
 70
     0
 40
3.5
 41
0.9
 50
0.0
 71
     0
 42
3.5
  3
txt.shx
  4
extfont.shx
  0
ENDTAB
  0
TABLE
  2
VIEW
  5
6
330
0
100
AcDbSymbolTable
 70
     0
  0
ENDTAB
  0
TABLE
  2
UCS
  5
7
330
0
100
AcDbSymbolTable
 70
     0
  0
ENDTAB
  0
TABLE
  2
APPID
  5
9
330
0
100
AcDbSymbolTable
 70
     1
  0
APPID
  5
12
330
9
100
AcDbSymbolTableRecord
100
AcDbRegAppTableRecord
  2
ACAD
 70
     0
  0
ENDTAB
  0
TABLE
  2
DIMSTYLE
  5
A
330
0
100
AcDbSymbolTable
 70
     1
100
AcDbDimStyleTable
 71
     0
  0
DIMSTYLE
105
27
330
A
100
AcDbSymbolTableRecord
100
AcDbDimStyleTableRecord
  2
ISO-25
 70
    64
  3

  4

 40
1.0
 41
2.5
 42
0.625
 43
3.75
 44
1.25
 45
0.0
 46
0.0
 47
0.0
 48
0.0
 71
     0
 72
     0
 73
     0
 74
     0
 75
     0
 76
     0
 77
     1
 78
     8
 79
     0
140
2.5
141
2.5
142
0.0
143
0.039370079
144
1.0
145
0.0
146
1.0
147
0.625
148
0.0
170
     0
171
     3
172
     1
173
     0
174
     0
175
     0
176
     0
177
     0
178
     0
179
     0
270
     2
271
     2
272
     2
273
     2
274
     3
275
     0
276
     0
277
     2
278
    46
279
     0
280
     0
281
     0
282
     0
283
     1
284
     8
285
     0
286
     0
288
     0
289
     3
340
11
341
0
342
0
343
0
344
0
371
    -2
372
    -2
  0
ENDTAB
  0
TABLE
  2
BLOCK_RECORD
  5
1
330
0
100
AcDbSymbolTable
 70
     3
  0
BLOCK_RECORD
  5
1F
330
1
100
AcDbSymbolTableRecord
100
AcDbBlockTableRecord
  2
*Model_Space
340
22
  0
BLOCK_RECORD
  5
1B
330
1
100
AcDbSymbolTableRecord
100
AcDbBlockTableRecord
  2
*Paper_Space
340
1E
  0
BLOCK_RECORD
  5
23
330
1
100
AcDbSymbolTableRecord
100
AcDbBlockTableRecord
  2
*Paper_Space0
340
26
  0
ENDTAB
  0
ENDSEC
  0
SECTION
  2
BLOCKS
  0
BLOCK
  5
1C
330
1B
100
AcDbEntity
 67
     1
  8
0
100
AcDbBlockBegin
  2
*Paper_Space
 70
     0
 10
0.0
 20
0.0
 30
0.0
  3
*Paper_Space
  1

  0
ENDBLK
  5
1D
330
1B
100
AcDbEntity
  8
0
100
AcDbBlockEnd
  0
BLOCK
  5
20
330
1F
100
AcDbEntity
  8
0
100
AcDbBlockBegin
  2
*Model_Space
 70
     0
 10
0.0
 20
0.0
 30
0.0
  3
*Model_Space
  1

  0
ENDBLK
  5
21
330
1F
100
AcDbEntity
  8
0
100
AcDbBlockEnd
  0
BLOCK
  5
24
330
23
100
AcDbEntity
 67
     1
  8
0
100
AcDbBlockBegin
  2
*Paper_Space0
 70
     0
 10
0.0
 20
0.0
 30
0.0
  3
*Paper_Space0
  1

  0
ENDBLK
  5
25
330
23
100
AcDbEntity
  8
0
100
AcDbBlockEnd
  0
ENDSEC
  0
SECTION
  2
ENTITIES
  0
LINE
  5
A9
330
1F
100
AcDbEntity
  8
0
  6
Continuous
 62
     1
100
AcDbLine
 10
164.7
 20
301.3
 30
0.0
 11
162.7
 21
299.3
 31
0.0
  0
LINE
  5
AA
330
1F
100
AcDbEntity
  8
0
  6
Continuous
 62
     1
100
AcDbLine
 10
192.7
 20
299.3
 30
0.0
 11
190.7
 21
301.3
 31
0.0
  0
LINE
  5
AB
330
1F
100
AcDbEntity
  8
0
  6
Continuous
 62
     1
100
AcDbLine
 10
178.2
 20
278.3
 30
0.0
 11
178.2
 21
286.3
 31
0.0
  0
LINE
  5
AC
330
1F
100
AcDbEntity
  8
0
  6
Continuous
 62
     1
100
AcDbLine
 10
178.2
 20
278.3
 30
0.0
 11
178.2
 21
286.3
 31
0.0
  0
LINE
  5
AD
330
1F
100
AcDbEntity
  8
0
  6
Continuous
 62
     1
100
AcDbLine
 10
178.2
 20
286.3
 30
0.0
 11
178.2
 21
294.3
 31
0.0
  0
LINE
  5
AE
330
1F
100
AcDbEntity
  8
0
  6
Continuous
 62
     1
100
AcDbLine
 10
178.2
 20
286.3
 30
0.0
 11
178.2
 21
294.3
 31
0.0
  0
LINE
  5
B0
330
1F
100
AcDbEntity
  8
0
  6
LTYPE1
 62
     1
100
AcDbLine
 10
182.2
 20
341.3
 30
0.0
 11
182.2
 21
341.3
 31
0.0
  0
ARC
  5
B1
330
1F
100
AcDbEntity
  8
0
  6
Continuous
 62
     1
100
AcDbCircle
 10
172.2
 20
286.15
 30
0.0
 40
31.120732639
100
AcDbArc
 50
23.682087725
 51
48.840031845
  0
ARC
  5
B2
330
1F
100
AcDbEntity
  8
0
  6
Continuous
 62
     1
100
AcDbCircle
 10
183.2
 20
286.15
 30
0.0
 40
31.120732639
100
AcDbArc
 50
131.159968155
 51
156.317912275
  0
LINE
  5
B3
330
1F
100
AcDbEntity
  8
0
  6
Continuous
 62
     1
100
AcDbLine
 10
185.2
 20
366.8
 30
0.0
 11
184.2
 21
367.8
 31
0.0
  0
LINE
  5
B4
330
1F
100
AcDbEntity
  8
0
  6
Continuous
 62
     1
100
AcDbLine
 10
404.7
 20
278.1
 30
0.0
 11
450.7
 21
278.1
 31
0.0
  0
TEXT
  5
B5
330
1F
100
AcDbEntity
  8
0
  6
Continuous
 62
     1
100
AcDbText
 10
420.2
 20
328.3
 30
0.0
 40
3.0
  1
バトン許容径
 41
0.9
  7
KANJI0
 72
     5
 11
437.8985
 21
328.3
 31
0.0
100
AcDbText
  0
TEXT
  5
B7
330
1F
100
AcDbEntity
  8
0
  6
Continuous
 62
     1
100
AcDbText
 10
418.7
 20
323.3
 30
0.0
 40
3.0
  1
%%c34~%%c51
 41
0.9
  7
KANJI0
 72
     5
 11
439.3982
 21
323.3
 31
0.0
100
AcDbText
  0
ARC
  5
B8
330
1F
100
AcDbEntity
  8
0
  6
Continuous
 62
     1
100
AcDbCircle
 10
427.7
 20
319.461522369
 30
0.0
 40
21.0
100
AcDbArc
 50
225.0
 51
315.0
  0
LINE
  5
B9
330
1F
100
AcDbEntity
  8
0
  6
Continuous
 62
     1
100
AcDbLine
 10
457.2
 20
321.3
 30
0.0
 11
457.2
 21
319.8
 31
0.0
  0
ARC
  5
BA
330
1F
100
AcDbEntity
  8
0
  6
Continuous
 62
     1
100
AcDbCircle
 10
455.7
 20
319.8
 30
0.0
 40
1.5
100
AcDbArc
 50
315.0
 51
0.0
  0
ARC
  5
BB
330
1F
100
AcDbEntity
  8
0
  6
Continuous
 62
     1
100
AcDbCircle
 10
455.7
 20
332.8
 30
0.0
 40
1.5
100
AcDbArc
 50
0.0
 51
45.0
  0
LINE
  5
BC
330
1F
100
AcDbEntity
  8
0
  6
Continuous
 62
     1
100
AcDbLine
 10
457.2
 20
331.3
 30
0.0
 11
457.2
 21
332.8
 31
0.0
  0
LINE
  5
BD
330
1F
100
AcDbEntity
  8
0
  6
Continuous
 62
     1
100
AcDbLine
 10
398.2
 20
331.3
 30
0.0
 11
398.2
 21
332.8
 31
0.0
  0
ARC
  5
BE
330
1F
100
AcDbEntity
  8
0
  6
Continuous
 62
     1
100
AcDbCircle
 10
399.7
 20
332.8
 30
0.0
 40
1.5
100
AcDbArc
 50
135.0
 51
180.0
  0
LINE
  5
BF
330
1F
100
AcDbEntity
  8
0
  6
Continuous
 62
     3
100
AcDbLine
 10
386.7
 20
161.7
 30
0.0
 11
384.1
 21
161.7
 31
0.0
  0
LINE
  5
C0
330
1F
100
AcDbEntity
  8
0
  6
Continuous
 62
     2
100
AcDbLine
 10
200.7
 20
346.3
 30
0.0
 11
230.7
 21
346.3
 31
0.0
  0
LINE
  5
C1
330
1F
100
AcDbEntity
  8
0
  6
Continuous
 62
     2
100
AcDbLine
 10
230.7
 20
306.3
 30
0.0
 11
200.7
 21
306.3
 31
0.0
  0
LINE
  5
C2
330
1F
100
AcDbEntity
  8
0
  6
Continuous
 62
     2
100
AcDbLine
 10
230.7
 20
306.3
 30
0.0
 11
230.04375
 21
308.8
 31
0.0
  0
LINE
  5
C3
330
1F
100
AcDbEntity
  8
0
  6
Continuous
 62
     2
100
AcDbLine
 10
230.04375
 20
308.8
 30
0.0
 11
229.45
 21
311.3
 31
0.0
  0
LINE
  5
C4
330
1F
100
AcDbEntity
  8
0
  6
Continuous
 62
     2
100
AcDbLine
 10
229.45
 20
311.3
 30
0.0
 11
228.98125
 21
313.8
 31
0.0
  0
LINE
  5
C5
330
1F
100
AcDbEntity
  8
0
  6
Continuous
 62
     2
100
AcDbLine
 10
228.98125
 20
313.8
 30
0.0
 11
228.7
 21
316.3
 31
0.0
  0
LINE
  5
C6
330
1F
100
AcDbEntity
  8
0
  6
Continuous
 62
     2
100
AcDbLine
 10
228.7
 20
316.3
 30
0.0
 11
229.1375
 21
318.8
 31
0.0
  0
LINE
  5
C7
330
1F
100
AcDbEntity
  8
0
  6
Continuous
 62
     2
100
AcDbLine
 10
229.1375
 20
318.8
 30
0.0
 11
229.7
 21
321.3
 31
0.0
  0
LINE
  5
C8
330
1F
100
AcDbEntity
  8
0
  6
Continuous
 62
     2
100
AcDbLine
 10
229.7
 20
321.3
 30
0.0
 11
230.2625
 21
323.8
 31
0.0
  0
LINE
  5
C9
330
1F
100
AcDbEntity
  8
0
  6
Continuous
 62
     2
100
AcDbLine
 10
230.2625
 20
323.8
 30
0.0
 11
230.7
 21
326.3
 31
0.0
  0
LINE
  5
CA
330
1F
100
AcDbEntity
  8
0
  6
Continuous
 62
     2
100
AcDbLine
 10
230.7
 20
326.3
 30
0.0
 11
230.2625
 21
328.8
 31
0.0
  0
LINE
  5
CB
330
1F
100
AcDbEntity
  8
0
  6
Continuous
 62
     2
100
AcDbLine
 10
230.2625
 20
328.8
 30
0.0
 11
229.7
 21
331.3
 31
0.0
  0
LINE
  5
CC
330
1F
100
AcDbEntity
  8
0
  6
Continuous
 62
     2
100
AcDbLine
 10
229.7
 20
331.3
 30
0.0
 11
229.1375
 21
333.8
 31
0.0
  0
LINE
  5
CD
330
1F
100
AcDbEntity
  8
0
  6
Continuous
 62
     2
100
AcDbLine
 10
229.1375
 20
333.8
 30
0.0
 11
228.7
 21
336.3
 31
0.0
  0
LINE
  5
CE
330
1F
100
AcDbEntity
  8
0
  6
Continuous
 62
     2
100
AcDbLine
 10
228.7
 20
336.3
 30
0.0
 11
228.98125
 21
338.8
 31
0.0
  0
LINE
  5
CF
330
1F
100
AcDbEntity
  8
0
  6
Continuous
 62
     2
100
AcDbLine
 10
228.98125
 20
338.8
 30
0.0
 11
229.45
 21
341.3
 31
0.0
  0
LINE
  5
D0
330
1F
100
AcDbEntity
  8
0
  6
Continuous
 62
     2
100
AcDbLine
 10
229.45
 20
341.3
 30
0.0
 11
230.04375
 21
343.8
 31
0.0
  0
LINE
  5
D1
330
1F
100
AcDbEntity
  8
0
  6
Continuous
 62
     2
100
AcDbLine
 10
230.04375
 20
343.8
 30
0.0
 11
230.7
 21
346.3
 31
0.0
  0
LINE
  5
D2
330
1F
100
AcDbEntity
  8
0
  6
Continuous
 62
     2
100
AcDbLine
 10
130.7
 20
306.3
 30
0.0
 11
130.04375
 21
308.8
 31
0.0
  0
LINE
  5
D3
330
1F
100
AcDbEntity
  8
0
  6
Continuous
 62
     2
100
AcDbLine
 10
130.04375
 20
308.8
 30
0.0
 11
129.45
 21
311.3
 31
0.0
  0
LINE
  5
D4
330
1F
100
AcDbEntity
  8
0
  6
Continuous
 62
     2
100
AcDbLine
 10
129.7
 20
321.3
 30
0.0
 11
130.2625
 21
323.8
 31
0.0
  0
LINE
  5
D5
330
1F
100
AcDbEntity
  8
0
  6
Continuous
 62
     2
100
AcDbLine
 10
130.2625
 20
323.8
 30
0.0
 11
130.7
 21
326.3
 31
0.0
  0
LINE
  5
D6
330
1F
100
AcDbEntity
  8
0
  6
Continuous
 62
     2
100
AcDbLine
 10
130.7
 20
326.3
 30
0.0
 11
130.2625
 21
328.8
 31
0.0
  0
LINE
  5
D7
330
1F
100
AcDbEntity
  8
0
  6
Continuous
 62
     2
100
AcDbLine
 10
130.2625
 20
328.8
 30
0.0
 11
129.7
 21
331.3
 31
0.0
  0
LINE
  5
D8
330
1F
100
AcDbEntity
  8
0
  6
Continuous
 62
     2
100
AcDbLine
 10
129.7
 20
331.3
 30
0.0
 11
129.1375
 21
333.8
 31
0.0
  0
LINE
  5
D9
330
1F
100
AcDbEntity
  8
0
  6
Continuous
 62
     2
100
AcDbLine
 10
129.1375
 20
333.8
 30
0.0
 11
128.7
 21
336.3
 31
0.0
  0
LINE
  5
DA
330
1F
100
AcDbEntity
  8
0
  6
Continuous
 62
     2
100
AcDbLine
 10
128.7
 20
336.3
 30
0.0
 11
128.98125
 21
338.8
 31
0.0
  0
LINE
  5
DB
330
1F
100
AcDbEntity
  8
0
  6
Continuous
 62
     2
100
AcDbLine
 10
128.98125
 20
338.8
 30
0.0
 11
129.45
 21
341.3
 31
0.0
  0
LINE
  5
DC
330
1F
100
AcDbEntity
  8
0
  6
Continuous
 62
     2
100
AcDbLine
 10
129.45
 20
341.3
 30
0.0
 11
130.04375
 21
343.8
 31
0.0
  0
LINE
  5
DD
330
1F
100
AcDbEntity
  8
0
  6
Continuous
 62
     2
100
AcDbLine
 10
130.04375
 20
343.8
 30
0.0
 11
130.7
 21
346.3
 31
0.0
  0
LINE
  5
DE
330
1F
100
AcDbEntity
  8
0
  6
Continuous
 62
     2
100
AcDbLine
 10
130.2
 20
346.3
 30
0.0
 11
154.7
 21
346.3
 31
0.0
  0
LINE
  5
DF
330
1F
100
AcDbEntity
  8
0
  6
Continuous
 62
     2
100
AcDbLine
 10
154.7
 20
306.3
 30
0.0
 11
130.2
 21
306.3
 31
0.0
  0
LINE
  5
E0
330
1F
100
AcDbEntity
  8
0
  6
Continuous
 62
     2
100
AcDbLine
 10
129.2275
 20
319.2
 30
0.0
 11
129.7
 21
321.3
 31
0.0
  0
LINE
  5
E1
330
1F
100
AcDbEntity
  8
0
  6
Continuous
 62
     2
100
AcDbLine
 10
129.45
 20
311.3
 30
0.0
 11
129.16875
 21
312.8
 31
0.0
  0
LINE
  5
E3
330
1F
100
AcDbEntity
  8
0
  6
LTYPE2
 62
     2
100
AcDbLine
 10
126.7
 20
154.3
 30
0.0
 11
126.7
 21
156.3
 31
0.0
  0
LINE
  5
E4
330
1F
100
AcDbEntity
  8
0
  6
LTYPE2
 62
     2
100
AcDbLine
 10
126.7
 20
156.3
 30
0.0
 11
155.7
 21
156.3
 31
0.0
  0
ARC
  5
E5
330
1F
100
AcDbEntity
  8
0
  6
LTYPE2
 62
     2
100
AcDbCircle
 10
155.7
 20
156.3
 30
0.0
 40
2.0
100
AcDbArc
 50
270.0
 51
0.0
  0
LINE
  5
E6
330
1F
100
AcDbEntity
  8
0
  6
LTYPE2
 62
     2
100
AcDbLine
 10
136.2
 20
157.3
 30
0.0
 11
136.2
 21
156.3
 31
0.0
  0
ARC
  5
E7
330
1F
100
AcDbEntity
  8
0
  6
LTYPE2
 62
     2
100
AcDbCircle
 10
137.2
 20
157.3
 30
0.0
 40
1.0
100
AcDbArc
 50
90.0
 51
180.0
  0
LINE
  5
E8
330
1F
100
AcDbEntity
  8
0
  6
LTYPE2
 62
     2
100
AcDbLine
 10
147.2
 20
156.3
 30
0.0
 11
147.2
 21
157.3
 31
0.0
  0
LINE
  5
E9
330
1F
100
AcDbEntity
  8
0
  6
LTYPE2
 62
     2
100
AcDbLine
 10
146.2
 20
158.3
 30
0.0
 11
137.2
 21
158.3
 31
0.0
  0
ARC
  5
EA
330
1F
100
AcDbEntity
  8
0
  6
LTYPE2
 62
     2
100
AcDbCircle
 10
146.2
 20
157.3
 30
0.0
 40
1.0
100
AcDbArc
 50
0.0
 51
90.0
  0
LINE
  5
EB
330
1F
100
AcDbEntity
  8
0
  6
LTYPE2
 62
     2
100
AcDbLine
 10
138.7
 20
156.3
 30
0.0
 11
138.7
 21
151.7
 31
0.0
  0
LINE
  5
EC
330
1F
100
AcDbEntity
  8
0
  6
LTYPE2
 62
     2
100
AcDbLine
 10
144.7
 20
151.7
 30
0.0
 11
144.7
 21
156.3
 31
0.0
  0
LINE
  5
ED
330
1F
100
AcDbEntity
  8
0
  6
LTYPE2
 62
     2
100
AcDbLine
 10
157.7
 20
161.7
 30
0.0
 11
157.7
 21
156.3
 31
0.0
  0
LINE
  5
EE
330
1F
100
AcDbEntity
  8
0
  6
LTYPE2
 62
     2
100
AcDbLine
 10
155.7
 20
156.3
 30
0.0
 11
155.7
 21
161.7
 31
0.0
  0
LINE
  5
EF
330
1F
100
AcDbEntity
  8
0
  6
LTYPE2
 62
     2
100
AcDbLine
 10
87.7
 20
154.3
 30
0.0
 11
177.7
 21
154.3
 31
0.0
  0
LINE
  5
F0
330
1F
100
AcDbEntity
  8
0
  6
LTYPE2
 62
     2
100
AcDbLine
 10
228.7
 20
154.3
 30
0.0
 11
228.7
 21
156.3
 31
0.0
  0
LINE
  5
F1
330
1F
100
AcDbEntity
  8
0
  6
LTYPE2
 62
     2
100
AcDbLine
 10
228.7
 20
156.3
 30
0.0
 11
199.7
 21
156.3
 31
0.0
  0
ARC
  5
F2
330
1F
100
AcDbEntity
  8
0
  6
LTYPE2
 62
     2
100
AcDbCircle
 10
199.7
 20
156.3
 30
0.0
 40
2.0
100
AcDbArc
 50
180.0
 51
270.0
  0
LINE
  5
F3
330
1F
100
AcDbEntity
  8
0
  6
LTYPE2
 62
     2
100
AcDbLine
 10
219.2
 20
157.3
 30
0.0
 11
219.2
 21
156.3
 31
0.0
  0
ARC
  5
F4
330
1F
100
AcDbEntity
  8
0
  6
LTYPE2
 62
     2
100
AcDbCircle
 10
218.2
 20
157.3
 30
0.0
 40
1.0
100
AcDbArc
 50
0.0
 51
90.0
  0
LINE
  5
F5
330
1F
100
AcDbEntity
  8
0
  6
LTYPE2
 62
     2
100
AcDbLine
 10
208.2
 20
156.3
 30
0.0
 11
208.2
 21
157.3
 31
0.0
  0
LINE
  5
F6
330
1F
100
AcDbEntity
  8
0
  6
LTYPE2
 62
     2
100
AcDbLine
 10
209.2
 20
158.3
 30
0.0
 11
218.2
 21
158.3
 31
0.0
  0
ARC
  5
F7
330
1F
100
AcDbEntity
  8
0
  6
LTYPE2
 62
     2
100
AcDbCircle
 10
209.2
 20
157.3
 30
0.0
 40
1.0
100
AcDbArc
 50
90.0
 51
180.0
  0
LINE
  5
F8
330
1F
100
AcDbEntity
  8
0
  6
LTYPE2
 62
     2
100
AcDbLine
 10
216.7
 20
156.3
 30
0.0
 11
216.7
 21
151.7
 31
0.0
  0
LINE
  5
F9
330
1F
100
AcDbEntity
  8
0
  6
LTYPE2
 62
     2
100
AcDbLine
 10
210.7
 20
151.7
 30
0.0
 11
210.7
 21
156.3
 31
0.0
  0
LINE
  5
FA
330
1F
100
AcDbEntity
  8
0
  6
LTYPE2
 62
     2
100
AcDbLine
 10
197.7
 20
161.7
 30
0.0
 11
197.7
 21
156.3
 31
0.0
  0
LINE
  5
FB
330
1F
100
AcDbEntity
  8
0
  6
LTYPE2
 62
     2
100
AcDbLine
 10
199.7
 20
156.3
 30
0.0
 11
199.7
 21
161.7
 31
0.0
  0
LINE
  5
FC
330
1F
100
AcDbEntity
  8
0
  6
LTYPE2
 62
     2
100
AcDbLine
 10
267.7
 20
154.3
 30
0.0
 11
177.7
 21
154.3
 31
0.0
  0
LINE
  5
FD
330
1F
100
AcDbEntity
  8
0
  6
LTYPE2
 62
     2
100
AcDbLine
 10
132.7
 20
113.5
 30
0.0
 11
157.7
 21
113.5
 31
0.0
  0
LINE
  5
FE
330
1F
100
AcDbEntity
  8
0
  6
LTYPE2
 62
     2
100
AcDbLine
 10
126.7
 20
39.5
 30
0.0
 11
126.7
 21
107.5
 31
0.0
  0
ARC
  5
FF
330
1F
100
AcDbEntity
  8
0
  6
LTYPE2
 62
     2
100
AcDbCircle
 10
132.7
 20
107.5
 30
0.0
 40
6.0
100
AcDbArc
 50
90.0
 51
180.0
  0
LINE
  5
100
330
1F
100
AcDbEntity
  8
0
  6
LTYPE2
 62
     2
100
AcDbLine
 10
222.7
 20
113.5
 30
0.0
 11
197.7
 21
113.5
 31
0.0
  0
LINE
  5
101
330
1F
100
AcDbEntity
  8
0
  6
LTYPE2
 62
     2
100
AcDbLine
 10
228.7
 20
39.5
 30
0.0
 11
228.7
 21
107.5
 31
0.0
  0
ARC
  5
102
330
1F
100
AcDbEntity
  8
0
  6
LTYPE2
 62
     2
100
AcDbCircle
 10
222.7
 20
107.5
 30
0.0
 40
6.0
100
AcDbArc
 50
0.0
 51
90.0
  0
LINE
  5
103
330
1F
100
AcDbEntity
  8
0
  6
LTYPE2
 62
     2
100
AcDbLine
 10
87.7
 20
114.5
 30
0.0
 11
267.7
 21
114.5
 31
0.0
  0
LINE
  5
104
330
1F
100
AcDbEntity
  8
0
  6
LTYPE2
 62
     2
100
AcDbLine
 10
157.7
 20
33.5
 30
0.0
 11
132.7
 21
33.5
 31
0.0
  0
ARC
  5
105
330
1F
100
AcDbEntity
  8
0
  6
LTYPE2
 62
     2
100
AcDbCircle
 10
132.7
 20
39.5
 30
0.0
 40
6.0
100
AcDbArc
 50
180.0
 51
270.0
  0
LINE
  5
106
330
1F
100
AcDbEntity
  8
0
  6
LTYPE2
 62
     2
100
AcDbLine
 10
155.7
 20
113.5
 30
0.0
 11
155.7
 21
33.5
 31
0.0
  0
LINE
  5
107
330
1F
100
AcDbEntity
  8
0
  6
LTYPE2
 62
     2
100
AcDbLine
 10
157.7
 20
113.5
 30
0.0
 11
157.7
 21
33.5
 31
0.0
  0
LINE
  5
108
330
1F
100
AcDbEntity
  8
0
  6
LTYPE2
 62
     2
100
AcDbLine
 10
197.7
 20
33.5
 30
0.0
 11
222.7
 21
33.5
 31
0.0
  0
ARC
  5
109
330
1F
100
AcDbEntity
  8
0
  6
LTYPE2
 62
     2
100
AcDbCircle
 10
222.7
 20
39.5
 30
0.0
 40
6.0
100
AcDbArc
 50
270.0
 51
0.0
  0
LINE
  5
10A
330
1F
100
AcDbEntity
  8
0
  6
LTYPE2
 62
     2
100
AcDbLine
 10
199.7
 20
113.5
 30
0.0
 11
199.7
 21
33.5
 31
0.0
  0
LINE
  5
10B
330
1F
100
AcDbEntity
  8
0
  6
LTYPE2
 62
     2
100
AcDbLine
 10
197.7
 20
113.5
 30
0.0
 11
197.7
 21
33.5
 31
0.0
  0
LINE
  5
10C
330
1F
100
AcDbEntity
  8
0
  6
LTYPE2
 62
     2
100
AcDbLine
 10
87.7
 20
32.5
 30
0.0
 11
267.7
 21
32.5
 31
0.0
  0
LINE
  5
10D
330
1F
100
AcDbEntity
  8
0
  6
Continuous
 62
     1
100
AcDbLine
 10
87.7
 20
117.1
 30
0.0
 11
87.7
 21
29.9
 31
0.0
  0
LINE
  5
10E
330
1F
100
AcDbEntity
  8
0
  6
Continuous
 62
     1
100
AcDbLine
 10
267.7
 20
117.1
 30
0.0
 11
87.7
 21
117.1
 31
0.0
  0
LINE
  5
10F
330
1F
100
AcDbEntity
  8
0
  6
Continuous
 62
     1
100
AcDbLine
 10
102.7
 20
78.0
 30
0.0
 11
117.7
 21
78.0
 31
0.0
  0
CIRCLE
  5
110
330
1F
100
AcDbEntity
  8
0
  6
Continuous
 62
     1
100
AcDbCircle
 10
112.7
 20
105.5
 30
0.0
 40
3.6
  0
ARC
  5
111
330
1F
100
AcDbEntity
  8
0
  6
Continuous
 62
     1
100
AcDbCircle
 10
102.7
 20
73.5
 30
0.0
 40
4.5
100
AcDbArc
 50
90.0
 51
270.000017172
  0
LINE
  5
112
330
1F
100
AcDbEntity
  8
0
  6
Continuous
 62
     1
100
AcDbLine
 10
117.7
 20
69.0
 30
0.0
 11
102.700001349
 21
69.0
 31
0.0
  0
ARC
  5
113
330
1F
100
AcDbEntity
  8
0
  6
Continuous
 62
     1
100
AcDbCircle
 10
117.7
 20
73.5
 30
0.0
 40
4.5
100
AcDbArc
 50
270.0
 51
90.0
  0
CIRCLE
  5
114
330
1F
100
AcDbEntity
  8
0
  6
Continuous
 62
     1
100
AcDbCircle
 10
112.7
 20
41.5
 30
0.0
 40
3.6
  0
LINE
  5
115
330
1F
100
AcDbEntity
  8
0
  6
Continuous
 62
     1
100
AcDbLine
 10
87.7
 20
29.9
 30
0.0
 11
267.7
 21
29.9
 31
0.0
  0
CIRCLE
  5
116
330
1F
100
AcDbEntity
  8
0
  6
Continuous
 62
     1
100
AcDbCircle
 10
177.7
 20
41.5
 30
0.0
 40
3.6
  0
CIRCLE
  5
117
330
1F
100
AcDbEntity
  8
0
  6
Continuous
 62
     1
100
AcDbCircle
 10
177.7
 20
105.5
 30
0.0
 40
3.6
  0
LINE
  5
118
330
1F
100
AcDbEntity
  8
0
  6
Continuous
 62
     1
100
AcDbLine
 10
252.7
 20
78.0
 30
0.0
 11
237.7
 21
78.0
 31
0.0
  0
CIRCLE
  5
119
330
1F
100
AcDbEntity
  8
0
  6
Continuous
 62
     1
100
AcDbCircle
 10
242.7
 20
105.5
 30
0.0
 40
3.6
  0
CIRCLE
  5
11A
330
1F
100
AcDbEntity
  8
0
  6
Continuous
 62
     1
100
AcDbCircle
 10
242.7
 20
41.5
 30
0.0
 40
3.6
  0
ARC
  5
11B
330
1F
100
AcDbEntity
  8
0
  6
Continuous
 62
     1
100
AcDbCircle
 10
237.7
 20
73.5
 30
0.0
 40
4.5
100
AcDbArc
 50
90.0
 51
270.0
  0
LWPOLYLINE
  5
11E
330
1F
100
AcDbEntity
  8
0
  6
Continuous
 62
     1
100
AcDbPolyline
 90
     3
 70
   128
 43
0.0
 10
237.7
 20
69.0
 42
0.0
 10
252.7
 20
69.0
 42
1.0
 10
252.7
 20
78.0
 42
0.0
  0
CIRCLE
  5
11F
330
1F
100
AcDbEntity
  8
0
  6
Continuous
 62
     2
100
AcDbCircle
 10
213.7
 20
50.5
 30
0.0
 40
4.0
  0
CIRCLE
  5
120
330
1F
100
AcDbEntity
  8
0
  6
Continuous
 62
     2
100
AcDbCircle
 10
213.7
 20
96.5
 30
0.0
 40
4.0
  0
CIRCLE
  5
121
330
1F
100
AcDbEntity
  8
0
  6
Continuous
 62
     2
100
AcDbCircle
 10
141.7
 20
96.5
 30
0.0
 40
4.0
  0
CIRCLE
  5
122
330
1F
100
AcDbEntity
  8
0
  6
Continuous
 62
     2
100
AcDbCircle
 10
141.7
 20
50.5
 30
0.0
 40
4.0
  0
LINE
  5
123
330
1F
100
AcDbEntity
  8
0
  6
Continuous
 62
     2
100
AcDbLine
 10
137.7
 20
151.7
 30
0.0
 11
137.7
 21
151.2
 31
0.0
  0
LINE
  5
124
330
1F
100
AcDbEntity
  8
0
  6
Continuous
 62
     2
100
AcDbLine
 10
137.7
 20
151.2
 30
0.0
 11
141.7
 21
150.7
 31
0.0
  0
LINE
  5
125
330
1F
100
AcDbEntity
  8
0
  6
Continuous
 62
     2
100
AcDbLine
 10
141.7
 20
150.7
 30
0.0
 11
145.7
 21
151.2
 31
0.0
  0
LINE
  5
126
330
1F
100
AcDbEntity
  8
0
  6
Continuous
 62
     2
100
AcDbLine
 10
145.7
 20
151.2
 30
0.0
 11
145.7
 21
151.7
 31
0.0
  0
LINE
  5
127
330
1F
100
AcDbEntity
  8
0
  6
Continuous
 62
     2
100
AcDbLine
 10
217.7
 20
151.7
 30
0.0
 11
217.7
 21
151.2
 31
0.0
  0
LINE
  5
128
330
1F
100
AcDbEntity
  8
0
  6
Continuous
 62
     2
100
AcDbLine
 10
217.7
 20
151.2
 30
0.0
 11
213.7
 21
150.7
 31
0.0
  0
LINE
  5
129
330
1F
100
AcDbEntity
  8
0
  6
Continuous
 62
     2
100
AcDbLine
 10
213.7
 20
150.7
 30
0.0
 11
209.7
 21
151.2
 31
0.0
  0
LINE
  5
12A
330
1F
100
AcDbEntity
  8
0
  6
Continuous
 62
     2
100
AcDbLine
 10
209.7
 20
151.2
 30
0.0
 11
209.7
 21
151.7
 31
0.0
  0
LINE
  5
12B
330
1F
100
AcDbEntity
  8
0
  6
Continuous
 62
     2
100
AcDbLine
 10
155.7
 20
200.3
 30
0.0
 11
154.2
 21
200.3
 31
0.0
  0
LINE
  5
12C
330
1F
100
AcDbEntity
  8
0
  6
Continuous
 62
     2
100
AcDbLine
 10
154.2
 20
200.3
 30
0.0
 11
154.2
 21
182.3
 31
0.0
  0
LINE
  5
12D
330
1F
100
AcDbEntity
  8
0
  6
Continuous
 62
     2
100
AcDbLine
 10
154.2
 20
182.3
 30
0.0
 11
155.7
 21
182.3
 31
0.0
  0
LINE
  5
12E
330
1F
100
AcDbEntity
  8
0
  6
Continuous
 62
     2
100
AcDbLine
 10
155.7
 20
212.3
 30
0.0
 11
154.2
 21
212.3
 31
0.0
  0
LINE
  5
12F
330
1F
100
AcDbEntity
  8
0
  6
Continuous
 62
     2
100
AcDbLine
 10
154.2
 20
212.3
 30
0.0
 11
154.2
 21
230.3
 31
0.0
  0
LINE
  5
130
330
1F
100
AcDbEntity
  8
0
  6
Continuous
 62
     2
100
AcDbLine
 10
154.2
 20
230.3
 30
0.0
 11
155.7
 21
230.3
 31
0.0
  0
LINE
  5
131
330
1F
100
AcDbEntity
  8
0
  6
Continuous
 62
     2
100
AcDbLine
 10
149.2
 20
214.8
 30
0.0
 11
154.2
 21
214.8
 31
0.0
  0
LINE
  5
132
330
1F
100
AcDbEntity
  8
0
  6
Continuous
 62
     2
100
AcDbLine
 10
148.2
 20
215.8
 30
0.0
 11
149.2
 21
214.8
 31
0.0
  0
LINE
  5
133
330
1F
100
AcDbEntity
  8
0
  6
Continuous
 62
     2
100
AcDbLine
 10
154.2
 20
227.8
 30
0.0
 11
149.2
 21
227.8
 31
0.0
  0
LINE
  5
134
330
1F
100
AcDbEntity
  8
0
  6
Continuous
 62
     2
100
AcDbLine
 10
148.2
 20
226.8
 30
0.0
 11
148.2
 21
215.8
 31
0.0
  0
LINE
  5
135
330
1F
100
AcDbEntity
  8
0
  6
Continuous
 62
     2
100
AcDbLine
 10
149.2
 20
227.8
 30
0.0
 11
148.2
 21
226.8
 31
0.0
  0
LINE
  5
136
330
1F
100
AcDbEntity
  8
0
  6
Continuous
 62
     2
100
AcDbLine
 10
154.2
 20
221.3
 30
0.0
 11
149.2
 21
221.3
 31
0.0
  0
ARC
  5
137
330
1F
100
AcDbEntity
  8
0
  6
Continuous
 62
     2
100
AcDbCircle
 10
153.95
 20
224.55
 30
0.0
 40
5.755432217
100
AcDbArc
 50
145.619655276
 51
214.380344724
  0
ARC
  5
138
330
1F
100
AcDbEntity
  8
0
  6
Continuous
 62
     2
100
AcDbCircle
 10
153.95
 20
218.05
 30
0.0
 40
5.755432217
100
AcDbArc
 50
145.619655276
 51
214.380344724
  0
LINE
  5
139
330
1F
100
AcDbEntity
  8
0
  6
Continuous
 62
     2
100
AcDbLine
 10
149.2
 20
184.8
 30
0.0
 11
154.2
 21
184.8
 31
0.0
  0
LINE
  5
13A
330
1F
100
AcDbEntity
  8
0
  6
Continuous
 62
     2
100
AcDbLine
 10
148.2
 20
185.8
 30
0.0
 11
149.2
 21
184.8
 31
0.0
  0
LINE
  5
13B
330
1F
100
AcDbEntity
  8
0
  6
Continuous
 62
     2
100
AcDbLine
 10
154.2
 20
197.8
 30
0.0
 11
149.2
 21
197.8
 31
0.0
  0
LINE
  5
13C
330
1F
100
AcDbEntity
  8
0
  6
Continuous
 62
     2
100
AcDbLine
 10
148.2
 20
196.8
 30
0.0
 11
148.2
 21
185.8
 31
0.0
  0
LINE
  5
13D
330
1F
100
AcDbEntity
  8
0
  6
Continuous
 62
     2
100
AcDbLine
 10
149.2
 20
197.8
 30
0.0
 11
148.2
 21
196.8
 31
0.0
  0
LINE
  5
13E
330
1F
100
AcDbEntity
  8
0
  6
Continuous
 62
     2
100
AcDbLine
 10
154.2
 20
191.3
 30
0.0
 11
149.2
 21
191.3
 31
0.0
  0
ARC
  5
13F
330
1F
100
AcDbEntity
  8
0
  6
Continuous
 62
     2
100
AcDbCircle
 10
153.95
 20
194.55
 30
0.0
 40
5.755432217
100
AcDbArc
 50
145.619655276
 51
214.380344724
  0
ARC
  5
140
330
1F
100
AcDbEntity
  8
0
  6
Continuous
 62
     2
100
AcDbCircle
 10
153.95
 20
188.05
 30
0.0
 40
5.755432217
100
AcDbArc
 50
145.619655276
 51
214.380344724
  0
LINE
  5
141
330
1F
100
AcDbEntity
  8
0
  6
Continuous
 62
     2
100
AcDbLine
 10
148.2
 20
196.8
 30
0.0
 11
146.2
 21
196.3
 31
0.0
  0
LINE
  5
142
330
1F
100
AcDbEntity
  8
0
  6
Continuous
 62
     2
100
AcDbLine
 10
146.2
 20
196.3
 30
0.0
 11
146.2
 21
186.3
 31
0.0
  0
LINE
  5
143
330
1F
100
AcDbEntity
  8
0
  6
Continuous
 62
     2
100
AcDbLine
 10
146.2
 20
186.3
 30
0.0
 11
148.2
 21
185.8
 31
0.0
  0
LINE
  5
144
330
1F
100
AcDbEntity
  8
0
  6
Continuous
 62
     2
100
AcDbLine
 10
146.2
 20
195.3
 30
0.0
 11
142.2
 21
195.3
 31
0.0
  0
LINE
  5
145
330
1F
100
AcDbEntity
  8
0
  6
Continuous
 62
     2
100
AcDbLine
 10
142.2
 20
195.3
 30
0.0
 11
141.2
 21
194.3
 31
0.0
  0
LINE
  5
146
330
1F
100
AcDbEntity
  8
0
  6
Continuous
 62
     2
100
AcDbLine
 10
141.2
 20
194.3
 30
0.0
 11
141.2
 21
188.3
 31
0.0
  0
LINE
  5
147
330
1F
100
AcDbEntity
  8
0
  6
Continuous
 62
     2
100
AcDbLine
 10
141.2
 20
188.3
 30
0.0
 11
142.2
 21
187.3
 31
0.0
  0
LINE
  5
148
330
1F
100
AcDbEntity
  8
0
  6
Continuous
 62
     2
100
AcDbLine
 10
142.2
 20
187.3
 30
0.0
 11
146.2
 21
187.3
 31
0.0
  0
LINE
  5
149
330
1F
100
AcDbEntity
  8
0
  6
Continuous
 62
     2
100
AcDbLine
 10
146.2
 20
188.3
 30
0.0
 11
141.2
 21
188.3
 31
0.0
  0
LINE
  5
14A
330
1F
100
AcDbEntity
  8
0
  6
Continuous
 62
     2
100
AcDbLine
 10
141.2
 20
194.3
 30
0.0
 11
146.2
 21
194.3
 31
0.0
  0
LINE
  5
14B
330
1F
100
AcDbEntity
  8
0
  6
Continuous
 62
     2
100
AcDbLine
 10
142.2
 20
195.3
 30
0.0
 11
142.2
 21
187.3
 31
0.0
  0
LINE
  5
14C
330
1F
100
AcDbEntity
  8
0
  6
Continuous
 62
     2
100
AcDbLine
 10
148.2
 20
226.8
 30
0.0
 11
146.2
 21
226.3
 31
0.0
  0
LINE
  5
14D
330
1F
100
AcDbEntity
  8
0
  6
Continuous
 62
     2
100
AcDbLine
 10
146.2
 20
226.3
 30
0.0
 11
146.2
 21
216.3
 31
0.0
  0
LINE
  5
14E
330
1F
100
AcDbEntity
  8
0
  6
Continuous
 62
     2
100
AcDbLine
 10
146.2
 20
216.3
 30
0.0
 11
148.2
 21
215.8
 31
0.0
  0
LINE
  5
14F
330
1F
100
AcDbEntity
  8
0
  6
Continuous
 62
     2
100
AcDbLine
 10
146.2
 20
225.3
 30
0.0
 11
142.2
 21
225.3
 31
0.0
  0
LINE
  5
150
330
1F
100
AcDbEntity
  8
0
  6
Continuous
 62
     2
100
AcDbLine
 10
142.2
 20
225.3
 30
0.0
 11
141.2
 21
224.3
 31
0.0
  0
LINE
  5
151
330
1F
100
AcDbEntity
  8
0
  6
Continuous
 62
     2
100
AcDbLine
 10
141.2
 20
224.3
 30
0.0
 11
141.2
 21
218.3
 31
0.0
  0
LINE
  5
152
330
1F
100
AcDbEntity
  8
0
  6
Continuous
 62
     2
100
AcDbLine
 10
141.2
 20
218.3
 30
0.0
 11
142.2
 21
217.3
 31
0.0
  0
LINE
  5
153
330
1F
100
AcDbEntity
  8
0
  6
Continuous
 62
     2
100
AcDbLine
 10
142.2
 20
217.3
 30
0.0
 11
146.2
 21
217.3
 31
0.0
  0
LINE
  5
154
330
1F
100
AcDbEntity
  8
0
  6
Continuous
 62
     2
100
AcDbLine
 10
146.2
 20
218.3
 30
0.0
 11
141.2
 21
218.3
 31
0.0
  0
LINE
  5
155
330
1F
100
AcDbEntity
  8
0
  6
Continuous
 62
     2
100
AcDbLine
 10
141.2
 20
224.3
 30
0.0
 11
146.2
 21
224.3
 31
0.0
  0
LINE
  5
156
330
1F
100
AcDbEntity
  8
0
  6
Continuous
 62
     2
100
AcDbLine
 10
142.2
 20
225.3
 30
0.0
 11
142.2
 21
217.3
 31
0.0
  0
LINE
  5
157
330
1F
100
AcDbEntity
  8
0
  6
Continuous
 62
     2
100
AcDbLine
 10
199.7
 20
200.3
 30
0.0
 11
201.2
 21
200.3
 31
0.0
  0
LINE
  5
158
330
1F
100
AcDbEntity
  8
0
  6
Continuous
 62
     2
100
AcDbLine
 10
201.2
 20
200.3
 30
0.0
 11
201.2
 21
182.3
 31
0.0
  0
LINE
  5
159
330
1F
100
AcDbEntity
  8
0
  6
Continuous
 62
     2
100
AcDbLine
 10
201.2
 20
182.3
 30
0.0
 11
199.7
 21
182.3
 31
0.0
  0
LINE
  5
15A
330
1F
100
AcDbEntity
  8
0
  6
Continuous
 62
     2
100
AcDbLine
 10
199.7
 20
212.3
 30
0.0
 11
201.2
 21
212.3
 31
0.0
  0
LINE
  5
15B
330
1F
100
AcDbEntity
  8
0
  6
Continuous
 62
     2
100
AcDbLine
 10
201.2
 20
212.3
 30
0.0
 11
201.2
 21
230.3
 31
0.0
  0
LINE
  5
15C
330
1F
100
AcDbEntity
  8
0
  6
Continuous
 62
     2
100
AcDbLine
 10
206.2
 20
214.8
 30
0.0
 11
201.2
 21
214.8
 31
0.0
  0
LINE
  5
15D
330
1F
100
AcDbEntity
  8
0
  6
Continuous
 62
     2
100
AcDbLine
 10
207.2
 20
215.8
 30
0.0
 11
206.2
 21
214.8
 31
0.0
  0
LINE
  5
15E
330
1F
100
AcDbEntity
  8
0
  6
Continuous
 62
     2
100
AcDbLine
 10
201.2
 20
227.8
 30
0.0
 11
206.2
 21
227.8
 31
0.0
  0
LINE
  5
15F
330
1F
100
AcDbEntity
  8
0
  6
Continuous
 62
     2
100
AcDbLine
 10
207.2
 20
226.8
 30
0.0
 11
207.2
 21
215.8
 31
0.0
  0
LINE
  5
160
330
1F
100
AcDbEntity
  8
0
  6
Continuous
 62
     2
100
AcDbLine
 10
206.2
 20
227.8
 30
0.0
 11
207.2
 21
226.8
 31
0.0
  0
LINE
  5
161
330
1F
100
AcDbEntity
  8
0
  6
Continuous
 62
     2
100
AcDbLine
 10
201.2
 20
221.3
 30
0.0
 11
206.2
 21
221.3
 31
0.0
  0
ARC
  5
162
330
1F
100
AcDbEntity
  8
0
  6
Continuous
 62
     2
100
AcDbCircle
 10
201.45
 20
224.55
 30
0.0
 40
5.755432217
100
AcDbArc
 50
325.619655276
 51
34.380344724
  0
ARC
  5
163
330
1F
100
AcDbEntity
  8
0
  6
Continuous
 62
     2
100
AcDbCircle
 10
201.45
 20
218.05
 30
0.0
 40
5.755432217
100
AcDbArc
 50
325.619655276
 51
34.380344724
  0
LINE
  5
164
330
1F
100
AcDbEntity
  8
0
  6
Continuous
 62
     2
100
AcDbLine
 10
206.2
 20
184.8
 30
0.0
 11
201.2
 21
184.8
 31
0.0
  0
LINE
  5
165
330
1F
100
AcDbEntity
  8
0
  6
Continuous
 62
     2
100
AcDbLine
 10
207.2
 20
185.8
 30
0.0
 11
206.2
 21
184.8
 31
0.0
  0
LINE
  5
166
330
1F
100
AcDbEntity
  8
0
  6
Continuous
 62
     2
100
AcDbLine
 10
201.2
 20
197.8
 30
0.0
 11
206.2
 21
197.8
 31
0.0
  0
LINE
  5
167
330
1F
100
AcDbEntity
  8
0
  6
Continuous
 62
     2
100
AcDbLine
 10
207.2
 20
196.8
 30
0.0
 11
207.2
 21
185.8
 31
0.0
  0
LINE
  5
168
330
1F
100
AcDbEntity
  8
0
  6
Continuous
 62
     2
100
AcDbLine
 10
206.2
 20
197.8
 30
0.0
 11
207.2
 21
196.8
 31
0.0
  0
LINE
  5
169
330
1F
100
AcDbEntity
  8
0
  6
Continuous
 62
     2
100
AcDbLine
 10
201.2
 20
191.3
 30
0.0
 11
206.2
 21
191.3
 31
0.0
  0
ARC
  5
16A
330
1F
100
AcDbEntity
  8
0
  6
Continuous
 62
     2
100
AcDbCircle
 10
201.45
 20
194.55
 30
0.0
 40
5.755432217
100
AcDbArc
 50
325.619655276
 51
34.380344724
  0
ARC
  5
16B
330
1F
100
AcDbEntity
  8
0
  6
Continuous
 62
     2
100
AcDbCircle
 10
201.45
 20
188.05
 30
0.0
 40
5.755432217
100
AcDbArc
 50
325.619655276
 51
34.380344724
  0
ARC
  5
16C
330
1F
100
AcDbEntity
  8
0
  6
Continuous
 62
     1
100
AcDbCircle
 10
262.7
 20
156.7
 30
0.0
 40
5.0
100
AcDbArc
 50
0.0
 51
90.0
  0
LINE
  5
16D
330
1F
100
AcDbEntity
  8
0
  6
Continuous
 62
     1
100
AcDbLine
 10
87.7
 20
151.7
 30
0.0
 11
267.7
 21
151.7
 31
0.0
  0
LINE
  5
16E
330
1F
100
AcDbEntity
  8
0
  6
Continuous
 62
     1
100
AcDbLine
 10
267.7
 20
151.7
 30
0.0
 11
267.7
 21
156.7
 31
0.0
  0
LINE
  5
16F
330
1F
100
AcDbEntity
  8
0
  6
Continuous
 62
     1
100
AcDbLine
 10
199.7
 20
231.3
 30
0.0
 11
199.7
 21
161.7
 31
0.0
  0
LINE
  5
170
330
1F
100
AcDbEntity
  8
0
  6
Continuous
 62
     1
100
AcDbLine
 10
197.7
 20
161.7
 30
0.0
 11
197.7
 21
234.3
 31
0.0
  0
LINE
  5
171
330
1F
100
AcDbEntity
  8
0
  6
Continuous
 62
     1
100
AcDbLine
 10
155.7
 20
161.7
 30
0.0
 11
155.7
 21
231.3
 31
0.0
  0
LINE
  5
172
330
1F
100
AcDbEntity
  8
0
  6
Continuous
 62
     1
100
AcDbLine
 10
192.7
 20
176.3
 30
0.0
 11
194.7
 21
178.3
 31
0.0
  0
LINE
  5
173
330
1F
100
AcDbEntity
  8
0
  6
Continuous
 62
     1
100
AcDbLine
 10
160.7
 20
178.3
 30
0.0
 11
157.7
 21
178.3
 31
0.0
  0
LINE
  5
174
330
1F
100
AcDbEntity
  8
0
  6
Continuous
 62
     1
100
AcDbLine
 10
194.7
 20
178.3
 30
0.0
 11
197.7
 21
178.3
 31
0.0
  0
LINE
  5
175
330
1F
100
AcDbEntity
  8
0
  6
Continuous
 62
     1
100
AcDbLine
 10
160.7
 20
178.3
 30
0.0
 11
162.7
 21
176.3
 31
0.0
  0
LINE
  5
176
330
1F
100
AcDbEntity
  8
0
  6
Continuous
 62
     1
100
AcDbLine
 10
162.7
 20
176.3
 30
0.0
 11
192.7
 21
176.3
 31
0.0
  0
LINE
  5
177
330
1F
100
AcDbEntity
  8
0
  6
Continuous
 62
     1
100
AcDbLine
 10
157.7
 20
234.3
 30
0.0
 11
160.7
 21
234.3
 31
0.0
  0
LINE
  5
178
330
1F
100
AcDbEntity
  8
0
  6
Continuous
 62
     1
100
AcDbLine
 10
155.7
 20
231.3
 30
0.0
 11
157.7
 21
231.3
 31
0.0
  0
LINE
  5
179
330
1F
100
AcDbEntity
  8
0
  6
Continuous
 62
     1
100
AcDbLine
 10
157.7
 20
234.3
 30
0.0
 11
157.7
 21
161.7
 31
0.0
  0
LINE
  5
17A
330
1F
100
AcDbEntity
  8
0
  6
Continuous
 62
     1
100
AcDbLine
 10
157.7
 20
204.3
 30
0.0
 11
160.7
 21
204.3
 31
0.0
  0
LINE
  5
17B
330
1F
100
AcDbEntity
  8
0
  6
Continuous
 62
     1
100
AcDbLine
 10
160.7
 20
208.3
 30
0.0
 11
157.7
 21
208.3
 31
0.0
  0
LINE
  5
17C
330
1F
100
AcDbEntity
  8
0
  6
Continuous
 62
     1
100
AcDbLine
 10
197.7
 20
204.3
 30
0.0
 11
194.7
 21
204.3
 31
0.0
  0
LINE
  5
17D
330
1F
100
AcDbEntity
  8
0
  6
Continuous
 62
     1
100
AcDbLine
 10
194.7
 20
208.3
 30
0.0
 11
197.7
 21
208.3
 31
0.0
  0
ARC
  5
17E
330
1F
100
AcDbEntity
  8
0
  6
Continuous
 62
     1
100
AcDbCircle
 10
201.2625
 20
191.3
 30
0.0
 40
14.5625
100
AcDbArc
 50
116.784995508
 51
243.215004492
  0
LINE
  5
17F
330
1F
100
AcDbEntity
  8
0
  6
Continuous
 62
     1
100
AcDbLine
 10
194.7
 20
204.3
 30
0.0
 11
194.7
 21
208.3
 31
0.0
  0
ARC
  5
180
330
1F
100
AcDbEntity
  8
0
  6
Continuous
 62
     1
100
AcDbCircle
 10
154.1375
 20
191.3
 30
0.0
 40
14.5625
100
AcDbArc
 50
296.784995508
 51
63.215004492
  0
LINE
  5
181
330
1F
100
AcDbEntity
  8
0
  6
Continuous
 62
     1
100
AcDbLine
 10
160.7
 20
208.3
 30
0.0
 11
160.7
 21
204.3
 31
0.0
  0
ARC
  5
182
330
1F
100
AcDbEntity
  8
0
  6
Continuous
 62
     1
100
AcDbCircle
 10
201.2625
 20
221.3
 30
0.0
 40
14.5625
100
AcDbArc
 50
116.784995508
 51
243.215004492
  0
ARC
  5
183
330
1F
100
AcDbEntity
  8
0
  6
Continuous
 62
     1
100
AcDbCircle
 10
154.1375
 20
221.3
 30
0.0
 40
14.5625
100
AcDbArc
 50
296.784995508
 51
63.215004492
  0
LINE
  5
184
330
1F
100
AcDbEntity
  8
0
  6
Continuous
 62
     1
100
AcDbLine
 10
162.7
 20
241.3
 30
0.0
 11
162.7
 21
236.3
 31
0.0
  0
LINE
  5
185
330
1F
100
AcDbEntity
  8
0
  6
Continuous
 62
     1
100
AcDbLine
 10
192.7
 20
236.3
 30
0.0
 11
192.7
 21
241.3
 31
0.0
  0
LINE
  5
186
330
1F
100
AcDbEntity
  8
0
  6
Continuous
 62
     1
100
AcDbLine
 10
162.7
 20
236.3
 30
0.0
 11
160.7
 21
234.3
 31
0.0
  0
LINE
  5
187
330
1F
100
AcDbEntity
  8
0
  6
Continuous
 62
     2
100
AcDbLine
 10
162.7
 20
236.3
 30
0.0
 11
192.7
 21
236.3
 31
0.0
  0
LINE
  5
188
330
1F
100
AcDbEntity
  8
0
  6
Continuous
 62
     2
100
AcDbLine
 10
194.7
 20
234.3
 30
0.0
 11
160.7
 21
234.3
 31
0.0
  0
LINE
  5
189
330
1F
100
AcDbEntity
  8
0
  6
Continuous
 62
     2
100
AcDbLine
 10
160.7
 20
178.3
 30
0.0
 11
194.7
 21
178.3
 31
0.0
  0
LINE
  5
18A
330
1F
100
AcDbEntity
  8
0
  6
Continuous
 62
     1
100
AcDbLine
 10
262.7
 20
161.7
 30
0.0
 11
92.7
 21
161.7
 31
0.0
  0
LINE
  5
18B
330
1F
100
AcDbEntity
  8
0
  6
Continuous
 62
     1
100
AcDbLine
 10
87.7
 20
156.7
 30
0.0
 11
87.7
 21
151.7
 31
0.0
  0
ARC
  5
18C
330
1F
100
AcDbEntity
  8
0
  6
Continuous
 62
     1
100
AcDbCircle
 10
92.7
 20
156.7
 30
0.0
 40
5.0
100
AcDbArc
 50
90.0
 51
180.0
  0
LINE
  5
18D
330
1F
100
AcDbEntity
  8
0
  6
Continuous
 62
     1
100
AcDbLine
 10
267.7
 20
29.9
 30
0.0
 11
267.7
 21
117.1
 31
0.0
  0
ARC
  5
18E
330
1F
100
AcDbEntity
  8
0
  6
Continuous
 62
     1
100
AcDbCircle
 10
155.2
 20
241.8
 30
0.0
 40
0.5
100
AcDbArc
 50
180.0
 51
270.0
  0
LINE
  5
18F
330
1F
100
AcDbEntity
  8
0
  6
Continuous
 62
     1
100
AcDbLine
 10
159.7
 20
264.3
 30
0.0
 11
159.7
 21
242.3
 31
0.0
  0
ARC
  5
190
330
1F
100
AcDbEntity
  8
0
  6
Continuous
 62
     1
100
AcDbCircle
 10
160.7
 20
264.3
 30
0.0
 40
1.0
100
AcDbArc
 50
90.0
 51
180.0
  0
ARC
  5
191
330
1F
100
AcDbEntity
  8
0
  6
Continuous
 62
     1
100
AcDbCircle
 10
160.7
 20
242.3
 30
0.0
 40
1.0
100
AcDbArc
 50
180.0
 51
270.0
  0
LINE
  5
192
330
1F
100
AcDbEntity
  8
0
  6
Continuous
 62
     1
100
AcDbLine
 10
177.7
 20
294.5
 30
0.0
 11
177.7
 21
241.3
 31
0.0
  0
LINE
  5
193
330
1F
100
AcDbEntity
  8
0
  6
Continuous
 62
     1
100
AcDbLine
 10
179.7
 20
278.1
 30
0.0
 11
179.7
 21
241.3
 31
0.0
  0
LINE
  5
194
330
1F
100
AcDbEntity
  8
0
  6
Continuous
 62
     1
100
AcDbLine
 10
177.7
 20
241.3
 30
0.0
 11
155.2
 21
241.3
 31
0.0
  0
LINE
  5
195
330
1F
100
AcDbEntity
  8
0
  6
Continuous
 62
     1
100
AcDbLine
 10
177.7
 20
265.3
 30
0.0
 11
160.7
 21
265.3
 31
0.0
  0
ARC
  5
196
330
1F
100
AcDbEntity
  8
0
  6
Continuous
 62
     1
100
AcDbCircle
 10
200.2
 20
241.8
 30
0.0
 40
0.5
100
AcDbArc
 50
270.0
 51
0.0
  0
ARC
  5
197
330
1F
100
AcDbEntity
  8
0
  6
Continuous
 62
     1
100
AcDbCircle
 10
194.7
 20
242.3
 30
0.0
 40
1.0
100
AcDbArc
 50
270.0
 51
0.0
  0
LINE
  5
198
330
1F
100
AcDbEntity
  8
0
  6
Continuous
 62
     1
100
AcDbLine
 10
179.7
 20
241.3
 30
0.0
 11
200.2
 21
241.3
 31
0.0
  0
ARC
  5
199
330
1F
100
AcDbEntity
  8
0
  6
Continuous
 62
     1
100
AcDbCircle
 10
200.2
 20
277.6
 30
0.0
 40
0.5
100
AcDbArc
 50
0.0
 51
90.0
  0
ARC
  5
19A
330
1F
100
AcDbEntity
  8
0
  6
Continuous
 62
     1
100
AcDbCircle
 10
200.2
 20
278.8
 30
0.0
 40
0.5
100
AcDbArc
 50
270.0
 51
0.0
  0
LINE
  5
19B
330
1F
100
AcDbEntity
  8
0
  6
Continuous
 62
     1
100
AcDbLine
 10
200.7
 20
266.8
 30
0.0
 11
200.7
 21
277.6
 31
0.0
  0
ARC
  5
19C
330
1F
100
AcDbEntity
  8
0
  6
Continuous
 62
     1
100
AcDbCircle
 10
194.7
 20
264.3
 30
0.0
 40
1.0
100
AcDbArc
 50
0.0
 51
90.0
  0
LINE
  5
19D
330
1F
100
AcDbEntity
  8
0
  6
Continuous
 62
     1
100
AcDbLine
 10
200.2
 20
278.3
 30
0.0
 11
178.2
 21
278.3
 31
0.0
  0
LINE
  5
19E
330
1F
100
AcDbEntity
  8
0
  6
Continuous
 62
     1
100
AcDbLine
 10
200.2
 20
278.3
 30
0.0
 11
178.2
 21
278.3
 31
0.0
  0
LINE
  5
19F
330
1F
100
AcDbEntity
  8
0
  6
Continuous
 62
     1
100
AcDbLine
 10
200.2
 20
278.1
 30
0.0
 11
179.7
 21
278.1
 31
0.0
  0
LINE
  5
1A0
330
1F
100
AcDbEntity
  8
0
  6
Continuous
 62
     1
100
AcDbLine
 10
194.7
 20
265.3
 30
0.0
 11
179.7
 21
265.3
 31
0.0
  0
LINE
  5
1A1
330
1F
100
AcDbEntity
  8
0
  6
Continuous
 62
     1
100
AcDbLine
 10
200.7
 20
241.8
 30
0.0
 11
200.7
 21
267.0
 31
0.0
  0
LINE
  5
1A2
330
1F
100
AcDbEntity
  8
0
  6
Continuous
 62
     1
100
AcDbLine
 10
195.7
 20
242.3
 30
0.0
 11
195.7
 21
264.3
 31
0.0
  0
LINE
  5
1A3
330
1F
100
AcDbEntity
  8
0
  6
Continuous
 62
     1
100
AcDbLine
 10
162.7
 20
319.3
 30
0.0
 11
154.7
 21
319.3
 31
0.0
  0
LINE
  5
1A4
330
1F
100
AcDbEntity
  8
0
  6
Continuous
 62
     1
100
AcDbLine
 10
154.7
 20
321.3
 30
0.0
 11
173.7
 21
321.3
 31
0.0
  0
LINE
  5
1A5
330
1F
100
AcDbEntity
  8
0
  6
Continuous
 62
     1
100
AcDbLine
 10
162.7
 20
297.3
 30
0.0
 11
162.7
 21
321.3
 31
0.0
  0
LINE
  5
1A6
330
1F
100
AcDbEntity
  8
0
  6
Continuous
 62
     1
100
AcDbLine
 10
154.7
 20
241.8
 30
0.0
 11
154.7
 21
321.3
 31
0.0
  0
ARC
  5
1A7
330
1F
100
AcDbEntity
  8
0
  6
Continuous
 62
     1
100
AcDbCircle
 10
171.2
 20
297.3
 30
0.0
 40
2.0
100
AcDbArc
 50
270.0
 51
0.0
  0
LINE
  5
1A8
330
1F
100
AcDbEntity
  8
0
  6
Continuous
 62
     1
100
AcDbLine
 10
173.2
 20
321.3
 30
0.0
 11
173.2
 21
297.3
 31
0.0
  0
ARC
  5
1A9
330
1F
100
AcDbEntity
  8
0
  6
Continuous
 62
     1
100
AcDbCircle
 10
164.7
 20
297.3
 30
0.0
 40
2.0
100
AcDbArc
 50
180.0
 51
270.0
  0
LINE
  5
1AA
330
1F
100
AcDbEntity
  8
0
  6
Continuous
 62
     1
100
AcDbLine
 10
171.2
 20
295.3
 30
0.0
 11
164.7
 21
295.3
 31
0.0
  0
LINE
  5
1AB
330
1F
100
AcDbEntity
  8
0
  6
Continuous
 62
     1
100
AcDbLine
 10
182.2
 20
321.3
 30
0.0
 11
182.2
 21
297.3
 31
0.0
  0
LINE
  5
1AC
330
1F
100
AcDbEntity
  8
0
  6
Continuous
 62
     1
100
AcDbLine
 10
184.2
 20
295.3
 30
0.0
 11
190.7
 21
295.3
 31
0.0
  0
ARC
  5
1AD
330
1F
100
AcDbEntity
  8
0
  6
Continuous
 62
     1
100
AcDbCircle
 10
184.2
 20
297.3
 30
0.0
 40
2.0
100
AcDbArc
 50
180.0
 51
270.0
  0
ARC
  5
1AE
330
1F
100
AcDbEntity
  8
0
  6
Continuous
 62
     1
100
AcDbCircle
 10
190.7
 20
297.3
 30
0.0
 40
2.0
100
AcDbArc
 50
270.0
 51
0.0
  0
LINE
  5
1AF
330
1F
100
AcDbEntity
  8
0
  6
Continuous
 62
     1
100
AcDbLine
 10
200.7
 20
319.3
 30
0.0
 11
192.7
 21
319.3
 31
0.0
  0
LINE
  5
1B0
330
1F
100
AcDbEntity
  8
0
  6
Continuous
 62
     1
100
AcDbLine
 10
200.7
 20
321.3
 30
0.0
 11
181.7
 21
321.3
 31
0.0
  0
LINE
  5
1B1
330
1F
100
AcDbEntity
  8
0
  6
Continuous
 62
     1
100
AcDbLine
 10
192.7
 20
297.3
 30
0.0
 11
192.7
 21
321.3
 31
0.0
  0
ARC
  5
1B2
330
1F
100
AcDbEntity
  8
0
  6
Continuous
 62
     1
100
AcDbCircle
 10
200.2
 20
293.8
 30
0.0
 40
0.5
100
AcDbArc
 50
0.0
 51
90.0
  0
ARC
  5
1B3
330
1F
100
AcDbEntity
  8
0
  6
Continuous
 62
     1
100
AcDbCircle
 10
200.2
 20
295.0
 30
0.0
 40
0.5
100
AcDbArc
 50
270.0
 51
0.0
  0
LINE
  5
1B4
330
1F
100
AcDbEntity
  8
0
  6
Continuous
 62
     1
100
AcDbLine
 10
178.2
 20
294.3
 30
0.0
 11
200.2
 21
294.3
 31
0.0
  0
LINE
  5
1B5
330
1F
100
AcDbEntity
  8
0
  6
Continuous
 62
     1
100
AcDbLine
 10
178.2
 20
294.3
 30
0.0
 11
200.2
 21
294.3
 31
0.0
  0
LINE
  5
1B6
330
1F
100
AcDbEntity
  8
0
  6
Continuous
 62
     1
100
AcDbLine
 10
177.7
 20
294.5
 30
0.0
 11
200.2
 21
294.5
 31
0.0
  0
LINE
  5
1B7
330
1F
100
AcDbEntity
  8
0
  6
Continuous
 62
     1
100
AcDbLine
 10
200.7
 20
278.8
 30
0.0
 11
200.7
 21
293.8
 31
0.0
  0
LINE
  5
1B8
330
1F
100
AcDbEntity
  8
0
  6
Continuous
 62
     1
100
AcDbLine
 10
200.7
 20
295.0
 30
0.0
 11
200.7
 21
321.3
 31
0.0
  0
LINE
  5
1B9
330
1F
100
AcDbEntity
  8
0
  6
Continuous
 62
     1
100
AcDbLine
 10
173.2
 20
331.3
 30
0.0
 11
173.2
 21
343.3
 31
0.0
  0
LINE
  5
1BA
330
1F
100
AcDbEntity
  8
0
  6
Continuous
 62
     1
100
AcDbLine
 10
154.7
 20
331.3
 30
0.0
 11
173.7
 21
331.3
 31
0.0
  0
LINE
  5
1BB
330
1F
100
AcDbEntity
  8
0
  6
Continuous
 62
     1
100
AcDbLine
 10
182.2
 20
331.3
 30
0.0
 11
182.2
 21
343.3
 31
0.0
  0
LINE
  5
1BC
330
1F
100
AcDbEntity
  8
0
  6
Continuous
 62
     1
100
AcDbLine
 10
200.7
 20
331.3
 30
0.0
 11
181.7
 21
331.3
 31
0.0
  0
ARC
  5
1BD
330
1F
100
AcDbEntity
  8
0
  6
Continuous
 62
     1
100
AcDbCircle
 10
171.2
 20
343.3
 30
0.0
 40
2.0
100
AcDbArc
 50
0.0
 51
90.0
  0
LINE
  5
1BE
330
1F
100
AcDbEntity
  8
0
  6
Continuous
 62
     1
100
AcDbLine
 10
171.2
 20
345.3
 30
0.0
 11
164.7
 21
345.3
 31
0.0
  0
ARC
  5
1BF
330
1F
100
AcDbEntity
  8
0
  6
Continuous
 62
     1
100
AcDbCircle
 10
164.7
 20
343.3
 30
0.0
 40
2.0
100
AcDbArc
 50
90.0
 51
180.0
  0
LINE
  5
1C0
330
1F
100
AcDbEntity
  8
0
  6
Continuous
 62
     1
100
AcDbLine
 10
167.7
 20
361.1
 30
0.0
 11
167.7
 21
345.3
 31
0.0
  0
ARC
  5
1C1
330
1F
100
AcDbEntity
  8
0
  6
Continuous
 62
     1
100
AcDbCircle
 10
184.2
 20
343.3
 30
0.0
 40
2.0
100
AcDbArc
 50
90.0
 51
180.0
  0
LINE
  5
1C2
330
1F
100
AcDbEntity
  8
0
  6
Continuous
 62
     1
100
AcDbLine
 10
184.2
 20
345.3
 30
0.0
 11
190.7
 21
345.3
 31
0.0
  0
ARC
  5
1C3
330
1F
100
AcDbEntity
  8
0
  6
Continuous
 62
     1
100
AcDbCircle
 10
190.7
 20
343.3
 30
0.0
 40
2.0
100
AcDbArc
 50
0.0
 51
90.0
  0
LINE
  5
1C4
330
1F
100
AcDbEntity
  8
0
  6
Continuous
 62
     1
100
AcDbLine
 10
187.7
 20
361.1
 30
0.0
 11
187.7
 21
345.3
 31
0.0
  0
ARC
  5
1C5
330
1F
100
AcDbEntity
  8
0
  6
Continuous
 62
     1
100
AcDbCircle
 10
161.7
 20
355.1
 30
0.0
 40
1.0
100
AcDbArc
 50
270.0
 51
0.0
  0
LINE
  5
1C6
330
1F
100
AcDbEntity
  8
0
  6
Continuous
 62
     1
100
AcDbLine
 10
161.7
 20
354.1
 30
0.0
 11
156.7
 21
354.1
 31
0.0
  0
ARC
  5
1C7
330
1F
100
AcDbEntity
  8
0
  6
Continuous
 62
     1
100
AcDbCircle
 10
156.7
 20
352.1
 30
0.0
 40
2.0
100
AcDbArc
 50
90.0
 51
180.0
  0
ARC
  5
1C8
330
1F
100
AcDbEntity
  8
0
  6
Continuous
 62
     1
100
AcDbCircle
 10
165.7
 20
361.1
 30
0.0
 40
2.0
100
AcDbArc
 50
0.0
 51
90.0
  0
LINE
  5
1C9
330
1F
100
AcDbEntity
  8
0
  6
Continuous
 62
     1
100
AcDbLine
 10
164.7
 20
363.1
 30
0.0
 11
165.7
 21
363.1
 31
0.0
  0
ARC
  5
1CA
330
1F
100
AcDbEntity
  8
0
  6
Continuous
 62
     1
100
AcDbCircle
 10
164.7
 20
361.1
 30
0.0
 40
2.0
100
AcDbArc
 50
90.0
 51
180.0
  0
LINE
  5
1CB
330
1F
100
AcDbEntity
  8
0
  6
Continuous
 62
     1
100
AcDbLine
 10
162.7
 20
348.0
 30
0.0
 11
162.7
 21
361.1
 31
0.0
  0
LINE
  5
1CC
330
1F
100
AcDbEntity
  8
0
  6
Continuous
 62
     1
100
AcDbLine
 10
162.7
 20
349.3
 30
0.0
 11
162.7
 21
331.3
 31
0.0
  0
LINE
  5
1CD
330
1F
100
AcDbEntity
  8
0
  6
Continuous
 62
     1
100
AcDbLine
 10
154.7
 20
352.1
 30
0.0
 11
154.7
 21
331.3
 31
0.0
  0
ARC
  5
1CE
330
1F
100
AcDbEntity
  8
0
  6
Continuous
 62
     1
100
AcDbCircle
 10
193.7
 20
355.1
 30
0.0
 40
1.0
100
AcDbArc
 50
180.0
 51
270.0
  0
LINE
  5
1CF
330
1F
100
AcDbEntity
  8
0
  6
Continuous
 62
     1
100
AcDbLine
 10
193.7
 20
354.1
 30
0.0
 11
198.7
 21
354.1
 31
0.0
  0
ARC
  5
1D0
330
1F
100
AcDbEntity
  8
0
  6
Continuous
 62
     1
100
AcDbCircle
 10
198.7
 20
352.1
 30
0.0
 40
2.0
100
AcDbArc
 50
0.0
 51
90.0
  0
ARC
  5
1D1
330
1F
100
AcDbEntity
  8
0
  6
Continuous
 62
     1
100
AcDbCircle
 10
189.7
 20
361.1
 30
0.0
 40
2.0
100
AcDbArc
 50
90.0
 51
180.0
  0
LINE
  5
1D2
330
1F
100
AcDbEntity
  8
0
  6
Continuous
 62
     1
100
AcDbLine
 10
190.7
 20
363.1
 30
0.0
 11
189.7
 21
363.1
 31
0.0
  0
ARC
  5
1D3
330
1F
100
AcDbEntity
  8
0
  6
Continuous
 62
     1
100
AcDbCircle
 10
190.7
 20
361.1
 30
0.0
 40
2.0
100
AcDbArc
 50
0.0
 51
90.0
  0
LINE
  5
1D4
330
1F
100
AcDbEntity
  8
0
  6
Continuous
 62
     1
100
AcDbLine
 10
192.7
 20
349.3
 30
0.0
 11
192.7
 21
361.1
 31
0.0
  0
LINE
  5
1D5
330
1F
100
AcDbEntity
  8
0
  6
Continuous
 62
     1
100
AcDbLine
 10
200.7
 20
352.1
 30
0.0
 11
200.7
 21
331.3
 31
0.0
  0
LINE
  5
1D6
330
1F
100
AcDbEntity
  8
0
  6
Continuous
 62
     1
100
AcDbLine
 10
192.7
 20
349.3
 30
0.0
 11
192.7
 21
331.3
 31
0.0
  0
LINE
  5
1D7
330
1F
100
AcDbEntity
  8
0
  6
LTYPE2
 62
     2
100
AcDbLine
 10
192.2
 20
281.1
 30
0.0
 11
163.2
 21
281.1
 31
0.0
  0
LINE
  5
1D8
330
1F
100
AcDbEntity
  8
0
  6
LTYPE2
 62
     2
100
AcDbLine
 10
162.7
 20
280.6
 30
0.0
 11
163.2
 21
281.1
 31
0.0
  0
LINE
  5
1D9
330
1F
100
AcDbEntity
  8
0
  6
LTYPE2
 62
     2
100
AcDbLine
 10
163.2
 20
291.5
 30
0.0
 11
192.2
 21
291.5
 31
0.0
  0
LINE
  5
1DA
330
1F
100
AcDbEntity
  8
0
  6
LTYPE2
 62
     2
100
AcDbLine
 10
163.2
 20
291.5
 30
0.0
 11
162.7
 21
292.0
 31
0.0
  0
LINE
  5
1DB
330
1F
100
AcDbEntity
  8
0
  6
LTYPE2
 62
     2
100
AcDbLine
 10
162.7
 20
301.3
 30
0.0
 11
162.7
 21
241.3
 31
0.0
  0
LINE
  5
1DC
330
1F
100
AcDbEntity
  8
0
  6
LTYPE2
 62
     2
100
AcDbLine
 10
167.7
 20
291.5
 30
0.0
 11
167.7
 21
281.1
 31
0.0
  0
LINE
  5
1DD
330
1F
100
AcDbEntity
  8
0
  6
LTYPE2
 62
     2
100
AcDbLine
 10
192.7
 20
280.6
 30
0.0
 11
192.2
 21
281.1
 31
0.0
  0
LINE
  5
1DE
330
1F
100
AcDbEntity
  8
0
  6
LTYPE2
 62
     2
100
AcDbLine
 10
192.7
 20
292.0
 30
0.0
 11
192.2
 21
291.5
 31
0.0
  0
LINE
  5
1DF
330
1F
100
AcDbEntity
  8
0
  6
LTYPE2
 62
     2
100
AcDbLine
 10
192.7
 20
241.3
 30
0.0
 11
192.7
 21
301.3
 31
0.0
  0
LINE
  5
1E0
330
1F
100
AcDbEntity
  8
0
  6
LTYPE2
 62
     2
100
AcDbLine
 10
192.7
 20
301.3
 30
0.0
 11
162.7
 21
301.3
 31
0.0
  0
LINE
  5
1E1
330
1F
100
AcDbEntity
  8
0
  6
Continuous
 62
     2
100
AcDbLine
 10
192.15
 20
291.3
 30
0.0
 11
187.7
 21
291.3
 31
0.0
  0
LINE
  5
1E2
330
1F
100
AcDbEntity
  8
0
  6
Continuous
 62
     2
100
AcDbLine
 10
192.15
 20
291.3
 30
0.0
 11
187.7
 21
291.3
 31
0.0
  0
LINE
  5
1E3
330
1F
100
AcDbEntity
  8
0
  6
Continuous
 62
     2
100
AcDbLine
 10
187.7
 20
284.3
 30
0.0
 11
187.7
 21
283.3
 31
0.0
  0
LINE
  5
1E4
330
1F
100
AcDbEntity
  8
0
  6
Continuous
 62
     2
100
AcDbLine
 10
187.7
 20
291.3
 30
0.0
 11
187.7
 21
286.3
 31
0.0
  0
LINE
  5
1E5
330
1F
100
AcDbEntity
  8
0
  6
Continuous
 62
     2
100
AcDbLine
 10
187.7
 20
291.3
 30
0.0
 11
187.7
 21
286.3
 31
0.0
  0
LINE
  5
1E6
330
1F
100
AcDbEntity
  8
0
  6
Continuous
 62
     2
100
AcDbLine
 10
187.7
 20
290.3
 30
0.0
 11
188.2
 21
290.3
 31
0.0
  0
LINE
  5
1E7
330
1F
100
AcDbEntity
  8
0
  6
Continuous
 62
     2
100
AcDbLine
 10
188.2
 20
290.3
 30
0.0
 11
188.2
 21
282.3
 31
0.0
  0
LINE
  5
1E8
330
1F
100
AcDbEntity
  8
0
  6
Continuous
 62
     2
100
AcDbLine
 10
188.2
 20
282.3
 30
0.0
 11
187.7
 21
282.3
 31
0.0
  0
LINE
  5
1E9
330
1F
100
AcDbEntity
  8
0
  6
Continuous
 62
     2
100
AcDbLine
 10
191.7
 20
289.8
 30
0.0
 11
188.2
 21
289.8
 31
0.0
  0
ARC
  5
1EA
330
1F
100
AcDbEntity
  8
0
  6
Continuous
 62
     2
100
AcDbCircle
 10
191.7
 20
289.3
 30
0.0
 40
0.5
100
AcDbArc
 50
0.0
 51
90.0
  0
LINE
  5
1EB
330
1F
100
AcDbEntity
  8
0
  6
Continuous
 62
     2
100
AcDbLine
 10
188.2
 20
282.8
 30
0.0
 11
191.7
 21
282.8
 31
0.0
  0
LINE
  5
1EC
330
1F
100
AcDbEntity
  8
0
  6
Continuous
 62
     2
100
AcDbLine
 10
192.2
 20
283.3
 30
0.0
 11
192.2
 21
289.3
 31
0.0
  0
ARC
  5
1ED
330
1F
100
AcDbEntity
  8
0
  6
Continuous
 62
     2
100
AcDbCircle
 10
191.7
 20
283.3
 30
0.0
 40
0.5
100
AcDbArc
 50
270.0
 51
0.0
  0
ARC
  5
1EE
330
1F
100
AcDbEntity
  8
0
  6
Continuous
 62
     2
100
AcDbCircle
 10
191.969075575
 20
286.98159652
 30
0.0
 40
4.357006022
100
AcDbArc
 50
40.921400298
 51
64.660291529
  0
ARC
  5
1EF
330
1F
100
AcDbEntity
  8
0
  6
Continuous
 62
     2
100
AcDbCircle
 10
191.471329686
 20
286.515585497
 30
0.0
 40
5.038422742
100
AcDbArc
 50
19.692842677
 51
41.218057122
  0
ARC
  5
1F0
330
1F
100
AcDbEntity
  8
0
  6
Continuous
 62
     2
100
AcDbCircle
 10
190.976283834
 20
286.310382811
 30
0.0
 40
5.573725825
100
AcDbArc
 50
359.893330644
 51
19.96403585
  0
ARC
  5
1F1
330
1F
100
AcDbEntity
  8
0
  6
Continuous
 62
     2
100
AcDbCircle
 10
191.969075575
 20
286.98159652
 30
0.0
 40
4.357006022
100
AcDbArc
 50
40.921400298
 51
64.660291529
  0
ARC
  5
1F2
330
1F
100
AcDbEntity
  8
0
  6
Continuous
 62
     2
100
AcDbCircle
 10
191.471329686
 20
286.515585497
 30
0.0
 40
5.038422742
100
AcDbArc
 50
19.692842677
 51
41.218057122
  0
ARC
  5
1F3
330
1F
100
AcDbEntity
  8
0
  6
Continuous
 62
     2
100
AcDbCircle
 10
190.976283834
 20
286.310382811
 30
0.0
 40
5.573725825
100
AcDbArc
 50
359.893330644
 51
19.96403585
  0
ARC
  5
1F4
330
1F
100
AcDbEntity
  8
0
  6
Continuous
 62
     2
100
AcDbCircle
 10
191.471329686
 20
286.084414503
 30
0.0
 40
5.038422742
100
AcDbArc
 50
318.781942878
 51
340.307157322
  0
ARC
  5
1F5
330
1F
100
AcDbEntity
  8
0
  6
Continuous
 62
     2
100
AcDbCircle
 10
191.471329686
 20
286.084414503
 30
0.0
 40
5.038422742
100
AcDbArc
 50
318.781942878
 51
340.307157322
  0
ARC
  5
1F6
330
1F
100
AcDbEntity
  8
0
  6
Continuous
 62
     2
100
AcDbCircle
 10
192.147584372
 20
287.374381235
 30
0.0
 40
3.925619508
100
AcDbArc
 50
64.561452905
 51
89.964743067
  0
ARC
  5
1F7
330
1F
100
AcDbEntity
  8
0
  6
Continuous
 62
     2
100
AcDbCircle
 10
192.147584372
 20
287.374381235
 30
0.0
 40
3.925619508
100
AcDbArc
 50
64.561452905
 51
89.964743067
  0
ARC
  5
1F8
330
1F
100
AcDbEntity
  8
0
  6
Continuous
 62
     2
100
AcDbCircle
 10
191.969075575
 20
285.61840348
 30
0.0
 40
4.357006022
100
AcDbArc
 50
295.339708471
 51
319.078599702
  0
ARC
  5
1F9
330
1F
100
AcDbEntity
  8
0
  6
Continuous
 62
     2
100
AcDbCircle
 10
191.969075575
 20
285.61840348
 30
0.0
 40
4.357006022
100
AcDbArc
 50
295.339708471
 51
319.078599702
  0
ARC
  5
1FA
330
1F
100
AcDbEntity
  8
0
  6
Continuous
 62
     2
100
AcDbCircle
 10
190.976283834
 20
286.289617189
 30
0.0
 40
5.573725825
100
AcDbArc
 50
340.03596415
 51
0.106669356
  0
ARC
  5
1FB
330
1F
100
AcDbEntity
  8
0
  6
Continuous
 62
     2
100
AcDbCircle
 10
190.976283834
 20
286.289617189
 30
0.0
 40
5.573725825
100
AcDbArc
 50
340.03596415
 51
0.106669356
  0
LINE
  5
1FC
330
1F
100
AcDbEntity
  8
0
  6
Continuous
 62
     2
100
AcDbLine
 10
192.15
 20
281.3
 30
0.0
 11
187.7
 21
281.3
 31
0.0
  0
LINE
  5
1FD
330
1F
100
AcDbEntity
  8
0
  6
Continuous
 62
     2
100
AcDbLine
 10
192.15
 20
281.3
 30
0.0
 11
187.7
 21
281.3
 31
0.0
  0
LINE
  5
1FE
330
1F
100
AcDbEntity
  8
0
  6
Continuous
 62
     2
100
AcDbLine
 10
187.7
 20
281.3
 30
0.0
 11
187.7
 21
286.3
 31
0.0
  0
LINE
  5
1FF
330
1F
100
AcDbEntity
  8
0
  6
Continuous
 62
     2
100
AcDbLine
 10
187.7
 20
281.3
 30
0.0
 11
187.7
 21
286.3
 31
0.0
  0
ARC
  5
200
330
1F
100
AcDbEntity
  8
0
  6
Continuous
 62
     2
100
AcDbCircle
 10
192.147584372
 20
285.225618765
 30
0.0
 40
3.925619508
100
AcDbArc
 50
270.035256933
 51
295.438547095
  0
ARC
  5
201
330
1F
100
AcDbEntity
  8
0
  6
Continuous
 62
     2
100
AcDbCircle
 10
192.147584372
 20
285.225618765
 30
0.0
 40
3.925619508
100
AcDbArc
 50
270.035256933
 51
295.438547095
  0
LINE
  5
202
330
1F
100
AcDbEntity
  8
0
  6
Continuous
 62
     2
100
AcDbLine
 10
173.7
 20
341.3
 30
0.0
 11
173.7
 21
304.3
 31
0.0
  0
LINE
  5
203
330
1F
100
AcDbEntity
  8
0
  6
Continuous
 62
     2
100
AcDbLine
 10
181.7
 20
304.3
 30
0.0
 11
181.7
 21
341.3
 31
0.0
  0
ARC
  5
204
330
1F
100
AcDbEntity
  8
0
  6
Continuous
 62
     2
100
AcDbCircle
 10
177.7
 20
311.8
 30
0.0
 40
8.5
100
AcDbArc
 50
241.927513064
 51
298.072486936
  0
ARC
  5
205
330
1F
100
AcDbEntity
  8
0
  6
Continuous
 62
     2
100
AcDbCircle
 10
177.7
 20
310.8
 30
0.0
 40
8.5
100
AcDbArc
 50
61.927513064
 51
118.072486936
  0
LINE
  5
206
330
1F
100
AcDbEntity
  8
0
  6
Continuous
 62
     2
100
AcDbLine
 10
173.2
 20
341.3
 30
0.0
 11
182.2
 21
341.3
 31
0.0
  0
ARC
  5
207
330
1F
100
AcDbEntity
  8
0
  6
Continuous
 62
     2
100
AcDbCircle
 10
177.7
 20
353.805
 30
0.0
 40
12.505
100
AcDbArc
 50
248.805505574
 51
291.194494426
  0
LINE
  5
208
330
1F
100
AcDbEntity
  8
0
  6
Continuous
 62
     2
100
AcDbLine
 10
167.9
 20
360.3
 30
0.0
 11
168.9
 21
361.3
 31
0.0
  0
LINE
  5
209
330
1F
100
AcDbEntity
  8
0
  6
Continuous
 62
     2
100
AcDbLine
 10
172.8
 20
360.3
 30
0.0
 11
172.8
 21
344.4
 31
0.0
  0
LINE
  5
20A
330
1F
100
AcDbEntity
  8
0
  6
Continuous
 62
     2
100
AcDbLine
 10
167.9
 20
345.3
 30
0.0
 11
167.9
 21
360.3
 31
0.0
  0
LINE
  5
20B
330
1F
100
AcDbEntity
  8
0
  6
Continuous
 62
     2
100
AcDbLine
 10
182.6
 20
360.3
 30
0.0
 11
182.6
 21
344.4
 31
0.0
  0
LINE
  5
20C
330
1F
100
AcDbEntity
  8
0
  6
Continuous
 62
     2
100
AcDbLine
 10
187.5
 20
345.3
 30
0.0
 11
187.5
 21
360.3
 31
0.0
  0
LINE
  5
20D
330
1F
100
AcDbEntity
  8
0
  6
Continuous
 62
     2
100
AcDbLine
 10
184.2
 20
361.3
 30
0.0
 11
185.2
 21
362.3
 31
0.0
  0
LINE
  5
20E
330
1F
100
AcDbEntity
  8
0
  6
Continuous
 62
     2
100
AcDbLine
 10
185.2
 20
362.3
 30
0.0
 11
185.2
 21
366.8
 31
0.0
  0
LINE
  5
20F
330
1F
100
AcDbEntity
  8
0
  6
Continuous
 62
     2
100
AcDbLine
 10
187.5
 20
360.3
 30
0.0
 11
186.5
 21
361.3
 31
0.0
  0
LINE
  5
210
330
1F
100
AcDbEntity
  8
0
  6
Continuous
 62
     2
100
AcDbLine
 10
168.9
 20
361.3
 30
0.0
 11
177.7
 21
361.3
 31
0.0
  0
LINE
  5
211
330
1F
100
AcDbEntity
  8
0
  6
Continuous
 62
     2
100
AcDbLine
 10
177.7
 20
361.3
 30
0.0
 11
184.2
 21
361.3
 31
0.0
  0
LINE
  5
212
330
1F
100
AcDbEntity
  8
0
  6
Continuous
 62
     2
100
AcDbLine
 10
184.2
 20
367.8
 30
0.0
 11
171.2
 21
367.8
 31
0.0
  0
LINE
  5
213
330
1F
100
AcDbEntity
  8
0
  6
Continuous
 62
     2
100
AcDbLine
 10
171.2
 20
367.8
 30
0.0
 11
170.2
 21
366.8
 31
0.0
  0
LINE
  5
214
330
1F
100
AcDbEntity
  8
0
  6
Continuous
 62
     2
100
AcDbLine
 10
170.2
 20
366.8
 30
0.0
 11
170.2
 21
362.3
 31
0.0
  0
LINE
  5
215
330
1F
100
AcDbEntity
  8
0
  6
Continuous
 62
     2
100
AcDbLine
 10
170.2
 20
362.3
 30
0.0
 11
171.2
 21
361.3
 31
0.0
  0
LINE
  5
216
330
1F
100
AcDbEntity
  8
0
  6
Continuous
 62
     2
100
AcDbLine
 10
173.95
 20
366.8
 30
0.0
 11
173.95
 21
362.3
 31
0.0
  0
ARC
  5
217
330
1F
100
AcDbEntity
  8
0
  6
Continuous
 62
     2
100
AcDbCircle
 10
172.075
 20
365.5421875
 30
0.0
 40
2.2578125
100
AcDbArc
 50
33.855026128
 51
146.144973871
  0
ARC
  5
218
330
1F
100
AcDbEntity
  8
0
  6
Continuous
 62
     2
100
AcDbCircle
 10
172.075
 20
363.5578125
 30
0.0
 40
2.2578125
100
AcDbArc
 50
213.855026129
 51
326.144973872
  0
LINE
  5
219
330
1F
100
AcDbEntity
  8
0
  6
Continuous
 62
     2
100
AcDbLine
 10
181.45
 20
366.8
 30
0.0
 11
181.45
 21
362.3
 31
0.0
  0
ARC
  5
21A
330
1F
100
AcDbEntity
  8
0
  6
Continuous
 62
     2
100
AcDbCircle
 10
183.325
 20
365.5421875
 30
0.0
 40
2.2578125
100
AcDbArc
 50
33.855026129
 51
146.144973872
  0
ARC
  5
21B
330
1F
100
AcDbEntity
  8
0
  6
Continuous
 62
     2
100
AcDbCircle
 10
177.7
 20
368.83125
 30
0.0
 40
7.53125
100
AcDbArc
 50
240.137165644
 51
299.862834356
  0
ARC
  5
21C
330
1F
100
AcDbEntity
  8
0
  6
Continuous
 62
     2
100
AcDbCircle
 10
177.7
 20
360.26875
 30
0.0
 40
7.53125
100
AcDbArc
 50
60.137165644
 51
119.862834356
  0
LINE
  5
21D
330
1F
100
AcDbEntity
  8
0
  6
Continuous
 62
     2
100
AcDbLine
 10
177.7
 20
361.3
 30
0.0
 11
171.2
 21
361.3
 31
0.0
  0
ARC
  5
21E
330
1F
100
AcDbEntity
  8
0
  6
Continuous
 62
     2
100
AcDbCircle
 10
170.35
 20
357.8
 30
0.0
 40
3.500357125
100
AcDbArc
 50
45.578725566
 51
134.421274434
  0
ARC
  5
21F
330
1F
100
AcDbEntity
  8
0
  6
Continuous
 62
     2
100
AcDbCircle
 10
177.7
 20
348.795
 30
0.0
 40
12.505
100
AcDbArc
 50
66.930758693
 51
113.069241307
  0
LINE
  5
220
330
1F
100
AcDbEntity
  8
0
  6
Continuous
 62
     2
100
AcDbLine
 10
186.5
 20
361.3
 30
0.0
 11
177.7
 21
361.3
 31
0.0
  0
ARC
  5
221
330
1F
100
AcDbEntity
  8
0
  6
Continuous
 62
     2
100
AcDbCircle
 10
183.325
 20
363.5578125
 30
0.0
 40
2.2578125
100
AcDbArc
 50
213.855026128
 51
326.144973871
  0
ARC
  5
222
330
1F
100
AcDbEntity
  8
0
  6
Continuous
 62
     2
100
AcDbCircle
 10
185.05
 20
357.8
 30
0.0
 40
3.500357125
100
AcDbArc
 50
45.578725566
 51
134.421274434
  0
LINE
  5
223
330
1F
100
AcDbEntity
  8
0
  6
Continuous
 62
     2
100
AcDbLine
 10
181.7
 20
390.3
 30
0.0
 11
180.7
 21
391.3
 31
0.0
  0
LINE
  5
224
330
1F
100
AcDbEntity
  8
0
  6
Continuous
 62
     2
100
AcDbLine
 10
180.7
 20
391.3
 30
0.0
 11
174.7
 21
391.3
 31
0.0
  0
LINE
  5
225
330
1F
100
AcDbEntity
  8
0
  6
Continuous
 62
     2
100
AcDbLine
 10
174.7
 20
391.3
 30
0.0
 11
173.7
 21
390.3
 31
0.0
  0
LINE
  5
226
330
1F
100
AcDbEntity
  8
0
  6
Continuous
 62
     2
100
AcDbLine
 10
173.7
 20
390.3
 30
0.0
 11
173.7
 21
367.8
 31
0.0
  0
LINE
  5
227
330
1F
100
AcDbEntity
  8
0
  6
Continuous
 62
     2
100
AcDbLine
 10
181.7
 20
367.8
 30
0.0
 11
181.7
 21
390.3
 31
0.0
  0
ARC
  5
228
330
1F
100
AcDbEntity
  8
0
  6
Continuous
 62
     2
100
AcDbCircle
 10
198.9
 20
247.8
 30
0.0
 40
1.0
100
AcDbArc
 50
270.0
 51
0.0
  0
LINE
  5
229
330
1F
100
AcDbEntity
  8
0
  6
Continuous
 62
     2
100
AcDbLine
 10
199.9
 20
258.8
 30
0.0
 11
199.9
 21
247.8
 31
0.0
  0
LINE
  5
22A
330
1F
100
AcDbEntity
  8
0
  6
Continuous
 62
     2
100
AcDbLine
 10
198.9
 20
246.8
 30
0.0
 11
195.7
 21
246.8
 31
0.0
  0
ARC
  5
22B
330
1F
100
AcDbEntity
  8
0
  6
Continuous
 62
     2
100
AcDbCircle
 10
198.9
 20
258.8
 30
0.0
 40
1.0
100
AcDbArc
 50
0.0
 51
90.0
  0
LINE
  5
22C
330
1F
100
AcDbEntity
  8
0
  6
Continuous
 62
     2
100
AcDbLine
 10
195.7
 20
259.8
 30
0.0
 11
198.9
 21
259.8
 31
0.0
  0
LINE
  5
22D
330
1F
100
AcDbEntity
  8
0
  6
Continuous
 62
     1
100
AcDbLine
 10
197.7
 20
234.3
 30
0.0
 11
194.7
 21
234.3
 31
0.0
  0
LINE
  5
22E
330
1F
100
AcDbEntity
  8
0
  6
Continuous
 62
     1
100
AcDbLine
 10
197.7
 20
231.3
 30
0.0
 11
199.7
 21
231.3
 31
0.0
  0
LINE
  5
22F
330
1F
100
AcDbEntity
  8
0
  6
Continuous
 62
     1
100
AcDbLine
 10
201.2
 20
230.3
 30
0.0
 11
199.7
 21
230.3
 31
0.0
  0
LINE
  5
230
330
1F
100
AcDbEntity
  8
0
  6
Continuous
 62
     1
100
AcDbLine
 10
194.7
 20
234.3
 30
0.0
 11
192.7
 21
236.3
 31
0.0
  0
LINE
  5
232
330
1F
100
AcDbEntity
  8
0
  6
LTYPE3
 62
     2
100
AcDbLine
 10
87.7
 20
73.5
 30
0.0
 11
267.7
 21
73.5
 31
0.0
  0
LINE
  5
233
330
1F
100
AcDbEntity
  8
0
  6
LTYPE3
 62
     2
100
AcDbLine
 10
177.7
 20
117.1
 30
0.0
 11
177.7
 21
29.9
 31
0.0
  0
LINE
  5
234
330
1F
100
AcDbEntity
  8
0
  6
Continuous
 62
     2
100
AcDbLine
 10
456.2
 20
156.3
 30
0.0
 11
456.2
 21
157.3
 31
0.0
  0
ARC
  5
235
330
1F
100
AcDbEntity
  8
0
  6
Continuous
 62
     2
100
AcDbCircle
 10
455.2
 20
157.3
 30
0.0
 40
1.0
100
AcDbArc
 50
0.0
 51
90.0
  0
LINE
  5
236
330
1F
100
AcDbEntity
  8
0
  6
Continuous
 62
     2
100
AcDbLine
 10
445.2
 20
157.3
 30
0.0
 11
445.2
 21
156.3
 31
0.0
  0
LINE
  5
237
330
1F
100
AcDbEntity
  8
0
  6
Continuous
 62
     2
100
AcDbLine
 10
455.2
 20
158.3
 30
0.0
 11
446.2
 21
158.3
 31
0.0
  0
ARC
  5
238
330
1F
100
AcDbEntity
  8
0
  6
Continuous
 62
     2
100
AcDbCircle
 10
446.2
 20
157.3
 30
0.0
 40
1.0
100
AcDbArc
 50
90.0
 51
180.0
  0
LINE
  5
239
330
1F
100
AcDbEntity
  8
0
  6
Continuous
 62
     2
100
AcDbLine
 10
410.2
 20
157.3
 30
0.0
 11
410.2
 21
156.3
 31
0.0
  0
ARC
  5
23A
330
1F
100
AcDbEntity
  8
0
  6
Continuous
 62
     2
100
AcDbCircle
 10
409.2
 20
157.3
 30
0.0
 40
1.0
100
AcDbArc
 50
0.0
 51
90.0
  0
LINE
  5
23B
330
1F
100
AcDbEntity
  8
0
  6
Continuous
 62
     2
100
AcDbLine
 10
399.2
 20
156.3
 30
0.0
 11
399.2
 21
157.3
 31
0.0
  0
LINE
  5
23C
330
1F
100
AcDbEntity
  8
0
  6
Continuous
 62
     2
100
AcDbLine
 10
400.2
 20
158.3
 30
0.0
 11
409.2
 21
158.3
 31
0.0
  0
ARC
  5
23D
330
1F
100
AcDbEntity
  8
0
  6
Continuous
 62
     2
100
AcDbCircle
 10
400.2
 20
157.3
 30
0.0
 40
1.0
100
AcDbArc
 50
90.0
 51
180.0
  0
LINE
  5
23E
330
1F
100
AcDbEntity
  8
0
  6
Continuous
 62
     2
100
AcDbLine
 10
435.205553499
 20
191.3
 30
0.0
 11
431.45277675
 21
197.8
 31
0.0
  0
LINE
  5
23F
330
1F
100
AcDbEntity
  8
0
  6
Continuous
 62
     2
100
AcDbLine
 10
431.45277675
 20
197.8
 30
0.0
 11
423.94722325
 21
197.8
 31
0.0
  0
LINE
  5
240
330
1F
100
AcDbEntity
  8
0
  6
Continuous
 62
     2
100
AcDbLine
 10
423.94722325
 20
197.8
 30
0.0
 11
420.194446501
 21
191.3
 31
0.0
  0
LINE
  5
241
330
1F
100
AcDbEntity
  8
0
  6
Continuous
 62
     2
100
AcDbLine
 10
420.194446501
 20
191.3
 30
0.0
 11
423.94722325
 21
184.8
 31
0.0
  0
LINE
  5
242
330
1F
100
AcDbEntity
  8
0
  6
Continuous
 62
     2
100
AcDbLine
 10
423.94722325
 20
184.8
 30
0.0
 11
431.45277675
 21
184.8
 31
0.0
  0
LINE
  5
243
330
1F
100
AcDbEntity
  8
0
  6
Continuous
 62
     2
100
AcDbLine
 10
431.45277675
 20
184.8
 30
0.0
 11
435.205553499
 21
191.3
 31
0.0
  0
CIRCLE
  5
244
330
1F
100
AcDbEntity
  8
0
  6
Continuous
 62
     2
100
AcDbCircle
 10
427.7
 20
191.3
 30
0.0
 40
4.1
  0
CIRCLE
  5
245
330
1F
100
AcDbEntity
  8
0
  6
Continuous
 62
     2
100
AcDbCircle
 10
427.7
 20
191.3
 30
0.0
 40
6.5
  0
CIRCLE
  5
246
330
1F
100
AcDbEntity
  8
0
  6
Continuous
 62
     2
100
AcDbCircle
 10
427.7
 20
191.3
 30
0.0
 40
9.0
  0
LINE
  5
247
330
1F
100
AcDbEntity
  8
0
  6
Continuous
 62
     2
100
AcDbLine
 10
435.205553499
 20
221.3
 30
0.0
 11
431.45277675
 21
227.8
 31
0.0
  0
LINE
  5
248
330
1F
100
AcDbEntity
  8
0
  6
Continuous
 62
     2
100
AcDbLine
 10
431.45277675
 20
227.8
 30
0.0
 11
423.94722325
 21
227.8
 31
0.0
  0
LINE
  5
249
330
1F
100
AcDbEntity
  8
0
  6
Continuous
 62
     2
100
AcDbLine
 10
423.94722325
 20
227.8
 30
0.0
 11
420.194446501
 21
221.3
 31
0.0
  0
LINE
  5
24A
330
1F
100
AcDbEntity
  8
0
  6
Continuous
 62
     2
100
AcDbLine
 10
420.194446501
 20
221.3
 30
0.0
 11
423.94722325
 21
214.8
 31
0.0
  0
LINE
  5
24B
330
1F
100
AcDbEntity
  8
0
  6
Continuous
 62
     2
100
AcDbLine
 10
423.94722325
 20
214.8
 30
0.0
 11
431.45277675
 21
214.8
 31
0.0
  0
LINE
  5
24C
330
1F
100
AcDbEntity
  8
0
  6
Continuous
 62
     2
100
AcDbLine
 10
431.45277675
 20
214.8
 30
0.0
 11
435.205553499
 21
221.3
 31
0.0
  0
CIRCLE
  5
24D
330
1F
100
AcDbEntity
  8
0
  6
Continuous
 62
     2
100
AcDbCircle
 10
427.7
 20
221.3
 30
0.0
 40
4.1
  0
CIRCLE
  5
24E
330
1F
100
AcDbEntity
  8
0
  6
Continuous
 62
     2
100
AcDbCircle
 10
427.7
 20
221.3
 30
0.0
 40
6.5
  0
CIRCLE
  5
24F
330
1F
100
AcDbEntity
  8
0
  6
Continuous
 62
     2
100
AcDbCircle
 10
427.7
 20
221.3
 30
0.0
 40
9.0
  0
LINE
  5
250
330
1F
100
AcDbEntity
  8
0
  6
Continuous
 62
     1
100
AcDbLine
 10
468.7
 20
154.3
 30
0.0
 11
467.7
 21
154.3
 31
0.0
  0
LINE
  5
251
330
1F
100
AcDbEntity
  8
0
  6
Continuous
 62
     1
100
AcDbLine
 10
471.3
 20
154.7
 30
0.0
 11
471.3
 21
161.7
 31
0.0
  0
ARC
  5
252
330
1F
100
AcDbEntity
  8
0
  6
Continuous
 62
     1
100
AcDbCircle
 10
468.3
 20
154.7
 30
0.0
 40
3.0
100
AcDbArc
 50
270.0
 51
0.0
  0
LINE
  5
253
330
1F
100
AcDbEntity
  8
0
  6
Continuous
 62
     1
100
AcDbLine
 10
471.3
 20
161.7
 30
0.0
 11
468.7
 21
161.7
 31
0.0
  0
LINE
  5
254
330
1F
100
AcDbEntity
  8
0
  6
Continuous
 62
     1
100
AcDbLine
 10
468.7
 20
161.7
 30
0.0
 11
468.7
 21
154.3
 31
0.0
  0
LINE
  5
255
330
1F
100
AcDbEntity
  8
0
  6
Continuous
 62
     1
100
AcDbLine
 10
387.7
 20
191.3
 30
0.0
 11
387.7
 21
154.3
 31
0.0
  0
LINE
  5
256
330
1F
100
AcDbEntity
  8
0
  6
Continuous
 62
     1
100
AcDbLine
 10
387.7
 20
154.3
 30
0.0
 11
467.7
 21
154.3
 31
0.0
  0
LINE
  5
257
330
1F
100
AcDbEntity
  8
0
  6
Continuous
 62
     1
100
AcDbLine
 10
467.7
 20
156.3
 30
0.0
 11
387.7
 21
156.3
 31
0.0
  0
LINE
  5
258
330
1F
100
AcDbEntity
  8
0
  6
Continuous
 62
     1
100
AcDbLine
 10
387.7
 20
154.3
 30
0.0
 11
386.7
 21
154.3
 31
0.0
  0
ARC
  5
259
330
1F
100
AcDbEntity
  8
0
  6
Continuous
 62
     1
100
AcDbCircle
 10
387.1
 20
154.7
 30
0.0
 40
3.0
100
AcDbArc
 50
180.0
 51
270.0
  0
LINE
  5
25A
330
1F
100
AcDbEntity
  8
0
  6
Continuous
 62
     1
100
AcDbLine
 10
384.1
 20
161.7
 30
0.0
 11
384.1
 21
154.7
 31
0.0
  0
LINE
  5
25B
330
1F
100
AcDbEntity
  8
0
  6
Continuous
 62
     1
100
AcDbLine
 10
386.7
 20
154.3
 30
0.0
 11
386.7
 21
161.7
 31
0.0
  0
LINE
  5
25C
330
1F
100
AcDbEntity
  8
0
  6
Continuous
 62
     1
100
AcDbLine
 10
387.1
 20
151.7
 30
0.0
 11
468.3
 21
151.7
 31
0.0
  0
LINE
  5
25D
330
1F
100
AcDbEntity
  8
0
  6
Continuous
 62
     1
100
AcDbLine
 10
467.7
 20
154.3
 30
0.0
 11
467.7
 21
191.3
 31
0.0
  0
ARC
  5
25E
330
1F
100
AcDbEntity
  8
0
  6
Continuous
 62
     1
100
AcDbCircle
 10
457.7
 20
191.3
 30
0.0
 40
4.5
100
AcDbArc
 50
180.0
 51
0.0
  0
ARC
  5
25F
330
1F
100
AcDbEntity
  8
0
  6
Continuous
 62
     1
100
AcDbCircle
 10
427.7
 20
191.3
 30
0.0
 40
34.5
100
AcDbArc
 50
0.0
 51
76.245800988
  0
ARC
  5
260
330
1F
100
AcDbEntity
  8
0
  6
Continuous
 62
     1
100
AcDbCircle
 10
427.7
 20
191.3
 30
0.0
 40
25.5
100
AcDbArc
 50
0.0
 51
74.054604099
  0
ARC
  5
261
330
1F
100
AcDbEntity
  8
0
  6
Continuous
 62
     1
100
AcDbCircle
 10
427.7
 20
221.3
 30
0.0
 40
13.0
100
AcDbArc
 50
327.358285059
 51
8.595911437
  0
LINE
  5
262
330
1F
100
AcDbEntity
  8
0
  6
Continuous
 62
     1
100
AcDbLine
 10
444.7
 20
210.25
 30
0.0
 11
444.7
 21
221.35
 31
0.0
  0
LINE
  5
263
330
1F
100
AcDbEntity
  8
0
  6
Continuous
 62
     1
100
AcDbLine
 10
444.7
 20
227.45
 30
0.0
 11
444.7
 21
234.3
 31
0.0
  0
LINE
  5
264
330
1F
100
AcDbEntity
  8
0
  6
Continuous
 62
     1
100
AcDbLine
 10
410.7
 20
234.3
 30
0.0
 11
410.7
 21
227.45
 31
0.0
  0
ARC
  5
265
330
1F
100
AcDbEntity
  8
0
  6
Continuous
 62
     1
100
AcDbCircle
 10
427.7
 20
221.3
 30
0.0
 40
13.0
100
AcDbArc
 50
43.273800351
 51
137.028702557
  0
ARC
  5
266
330
1F
100
AcDbEntity
  8
0
  6
Continuous
 62
     1
100
AcDbCircle
 10
427.7
 20
191.3
 30
0.0
 40
40.0
100
AcDbArc
 50
0.0
 51
180.0
  0
LINE
  5
267
330
1F
100
AcDbEntity
  8
0
  6
Continuous
 62
     1
100
AcDbLine
 10
412.7
 20
236.3
 30
0.0
 11
410.7
 21
234.3
 31
0.0
  0
LINE
  5
268
330
1F
100
AcDbEntity
  8
0
  6
Continuous
 62
     1
100
AcDbLine
 10
412.7
 20
241.3
 30
0.0
 11
412.7
 21
236.3
 31
0.0
  0
LINE
  5
269
330
1F
100
AcDbEntity
  8
0
  6
Continuous
 62
     1
100
AcDbLine
 10
442.7
 20
236.3
 30
0.0
 11
442.7
 21
241.3
 31
0.0
  0
LINE
  5
26A
330
1F
100
AcDbEntity
  8
0
  6
Continuous
 62
     1
100
AcDbLine
 10
444.7
 20
234.3
 30
0.0
 11
442.7
 21
236.3
 31
0.0
  0
LINE
  5
26B
330
1F
100
AcDbEntity
  8
0
  6
Continuous
 62
     2
100
AcDbLine
 10
412.7
 20
236.3
 30
0.0
 11
442.7
 21
236.3
 31
0.0
  0
LINE
  5
26C
330
1F
100
AcDbEntity
  8
0
  6
Continuous
 62
     2
100
AcDbLine
 10
444.7
 20
234.3
 30
0.0
 11
410.7
 21
234.3
 31
0.0
  0
LINE
  5
26D
330
1F
100
AcDbEntity
  8
0
  6
LTYPE2
 62
     2
100
AcDbLine
 10
417.7
 20
291.5
 30
0.0
 11
417.7
 21
281.1
 31
0.0
  0
LINE
  5
26E
330
1F
100
AcDbEntity
  8
0
  6
LTYPE2
 62
     2
100
AcDbLine
 10
412.7
 20
280.6
 30
0.0
 11
413.2
 21
281.1
 31
0.0
  0
LINE
  5
26F
330
1F
100
AcDbEntity
  8
0
  6
LTYPE2
 62
     2
100
AcDbLine
 10
437.7
 20
281.1
 30
0.0
 11
437.7
 21
291.5
 31
0.0
  0
LINE
  5
270
330
1F
100
AcDbEntity
  8
0
  6
LTYPE2
 62
     2
100
AcDbLine
 10
442.7
 20
280.6
 30
0.0
 11
442.2
 21
281.1
 31
0.0
  0
LINE
  5
271
330
1F
100
AcDbEntity
  8
0
  6
LTYPE2
 62
     2
100
AcDbLine
 10
442.2
 20
281.1
 30
0.0
 11
413.2
 21
281.1
 31
0.0
  0
LINE
  5
272
330
1F
100
AcDbEntity
  8
0
  6
LTYPE2
 62
     2
100
AcDbLine
 10
442.7
 20
292.0
 30
0.0
 11
442.2
 21
291.5
 31
0.0
  0
LINE
  5
273
330
1F
100
AcDbEntity
  8
0
  6
LTYPE2
 62
     2
100
AcDbLine
 10
413.2
 20
291.5
 30
0.0
 11
412.7
 21
292.0
 31
0.0
  0
LINE
  5
274
330
1F
100
AcDbEntity
  8
0
  6
LTYPE2
 62
     2
100
AcDbLine
 10
413.2
 20
291.5
 30
0.0
 11
442.2
 21
291.5
 31
0.0
  0
LINE
  5
275
330
1F
100
AcDbEntity
  8
0
  6
LTYPE2
 62
     2
100
AcDbLine
 10
442.7
 20
301.3
 30
0.0
 11
412.7
 21
301.3
 31
0.0
  0
LINE
  5
276
330
1F
100
AcDbEntity
  8
0
  6
LTYPE2
 62
     2
100
AcDbLine
 10
414.7
 20
301.3
 30
0.0
 11
412.7
 21
299.3
 31
0.0
  0
LINE
  5
277
330
1F
100
AcDbEntity
  8
0
  6
LTYPE2
 62
     2
100
AcDbLine
 10
412.7
 20
301.3
 30
0.0
 11
412.7
 21
241.3
 31
0.0
  0
LINE
  5
278
330
1F
100
AcDbEntity
  8
0
  6
LTYPE2
 62
     2
100
AcDbLine
 10
442.7
 20
299.3
 30
0.0
 11
440.7
 21
301.3
 31
0.0
  0
LINE
  5
279
330
1F
100
AcDbEntity
  8
0
  6
LTYPE2
 62
     2
100
AcDbLine
 10
442.7
 20
241.3
 30
0.0
 11
442.7
 21
301.3
 31
0.0
  0
CIRCLE
  5
27A
330
1F
100
AcDbEntity
  8
0
  6
Continuous
 62
     2
100
AcDbCircle
 10
409.7
 20
286.3
 30
0.0
 40
3.5
  0
LINE
  5
27B
330
1F
100
AcDbEntity
  8
0
  6
Continuous
 62
     2
100
AcDbLine
 10
409.7
 20
288.032050808
 30
0.0
 11
411.2
 21
287.166025404
 31
0.0
  0
LINE
  5
27C
330
1F
100
AcDbEntity
  8
0
  6
Continuous
 62
     2
100
AcDbLine
 10
411.2
 20
287.166025404
 30
0.0
 11
411.2
 21
285.433974596
 31
0.0
  0
LINE
  5
27D
330
1F
100
AcDbEntity
  8
0
  6
Continuous
 62
     2
100
AcDbLine
 10
411.2
 20
285.433974596
 30
0.0
 11
409.7
 21
284.567949192
 31
0.0
  0
CIRCLE
  5
27E
330
1F
100
AcDbEntity
  8
0
  6
Continuous
 62
     2
100
AcDbCircle
 10
409.7
 20
286.3
 30
0.0
 40
4.0
  0
LINE
  5
27F
330
1F
100
AcDbEntity
  8
0
  6
Continuous
 62
     2
100
AcDbLine
 10
409.7
 20
284.567949192
 30
0.0
 11
408.2
 21
285.433974596
 31
0.0
  0
LINE
  5
280
330
1F
100
AcDbEntity
  8
0
  6
Continuous
 62
     2
100
AcDbLine
 10
408.2
 20
285.433974596
 30
0.0
 11
408.2
 21
287.166025404
 31
0.0
  0
LINE
  5
281
330
1F
100
AcDbEntity
  8
0
  6
Continuous
 62
     2
100
AcDbLine
 10
408.2
 20
287.166025404
 30
0.0
 11
409.7
 21
288.032050808
 31
0.0
  0
CIRCLE
  5
282
330
1F
100
AcDbEntity
  8
0
  6
Continuous
 62
     2
100
AcDbCircle
 10
445.7
 20
286.3
 30
0.0
 40
3.5
  0
LINE
  5
283
330
1F
100
AcDbEntity
  8
0
  6
Continuous
 62
     2
100
AcDbLine
 10
445.7
 20
288.032050808
 30
0.0
 11
444.2
 21
287.166025404
 31
0.0
  0
LINE
  5
284
330
1F
100
AcDbEntity
  8
0
  6
Continuous
 62
     2
100
AcDbLine
 10
444.2
 20
287.166025404
 30
0.0
 11
444.2
 21
285.433974596
 31
0.0
  0
LINE
  5
285
330
1F
100
AcDbEntity
  8
0
  6
Continuous
 62
     2
100
AcDbLine
 10
444.2
 20
285.433974596
 30
0.0
 11
445.7
 21
284.567949192
 31
0.0
  0
LINE
  5
286
330
1F
100
AcDbEntity
  8
0
  6
Continuous
 62
     2
100
AcDbLine
 10
445.7
 20
284.567949192
 30
0.0
 11
447.2
 21
285.433974596
 31
0.0
  0
LINE
  5
287
330
1F
100
AcDbEntity
  8
0
  6
Continuous
 62
     2
100
AcDbLine
 10
447.2
 20
285.433974596
 30
0.0
 11
447.2
 21
287.166025404
 31
0.0
  0
LINE
  5
288
330
1F
100
AcDbEntity
  8
0
  6
Continuous
 62
     2
100
AcDbLine
 10
447.2
 20
287.166025404
 30
0.0
 11
445.7
 21
288.032050808
 31
0.0
  0
LINE
  5
289
330
1F
100
AcDbEntity
  8
0
  6
Continuous
 62
     2
100
AcDbLine
 10
450.7
 20
291.3
 30
0.0
 11
445.7
 21
291.3
 31
0.0
  0
CIRCLE
  5
28A
330
1F
100
AcDbEntity
  8
0
  6
Continuous
 62
     2
100
AcDbCircle
 10
445.7
 20
286.3
 30
0.0
 40
4.0
  0
LINE
  5
28B
330
1F
100
AcDbEntity
  8
0
  6
Continuous
 62
     2
100
AcDbLine
 10
407.7
 20
256.764101615
 30
0.0
 11
404.7
 21
255.032050808
 31
0.0
  0
LINE
  5
28C
330
1F
100
AcDbEntity
  8
0
  6
Continuous
 62
     2
100
AcDbLine
 10
404.7
 20
255.032050808
 30
0.0
 11
404.7
 21
251.567949192
 31
0.0
  0
LINE
  5
28D
330
1F
100
AcDbEntity
  8
0
  6
Continuous
 62
     2
100
AcDbLine
 10
404.7
 20
251.567949192
 30
0.0
 11
407.7
 21
249.835898385
 31
0.0
  0
CIRCLE
  5
28E
330
1F
100
AcDbEntity
  8
0
  6
Continuous
 62
     2
100
AcDbCircle
 10
407.7
 20
253.3
 30
0.0
 40
6.5
  0
CIRCLE
  5
28F
330
1F
100
AcDbEntity
  8
0
  6
Continuous
 62
     2
100
AcDbCircle
 10
407.7
 20
253.3
 30
0.0
 40
8.0
  0
ARC
  5
290
330
1F
100
AcDbEntity
  8
0
  6
Continuous
 62
     1
100
AcDbCircle
 10
405.2
 20
241.8
 30
0.0
 40
0.5
100
AcDbArc
 50
180.0
 51
270.0
  0
LINE
  5
291
330
1F
100
AcDbEntity
  8
0
  6
Continuous
 62
     2
100
AcDbLine
 10
410.7
 20
251.567949192
 30
0.0
 11
410.7
 21
255.032050808
 31
0.0
  0
LINE
  5
292
330
1F
100
AcDbEntity
  8
0
  6
Continuous
 62
     2
100
AcDbLine
 10
407.7
 20
249.835898385
 30
0.0
 11
410.7
 21
251.567949192
 31
0.0
  0
LINE
  5
293
330
1F
100
AcDbEntity
  8
0
  6
Continuous
 62
     2
100
AcDbLine
 10
410.7
 20
255.032050808
 30
0.0
 11
407.7
 21
256.764101615
 31
0.0
  0
POINT
  5
294
330
1F
100
AcDbEntity
  8
0
  6
Continuous
 62
     1
100
AcDbPoint
 10
450.7
 20
241.7
 30
0.0
  0
ARC
  5
295
330
1F
100
AcDbEntity
  8
0
  6
Continuous
 62
     1
100
AcDbCircle
 10
450.3
 20
241.7
 30
0.0
 40
0.4
100
AcDbArc
 50
270.0
 51
0.0
  0
POINT
  5
296
330
1F
100
AcDbEntity
  8
0
  6
Continuous
 62
     1
100
AcDbPoint
 10
450.7
 20
241.7
 30
0.0
  0
ARC
  5
297
330
1F
100
AcDbEntity
  8
0
  6
Continuous
 62
     1
100
AcDbCircle
 10
450.3
 20
241.7
 30
0.0
 40
0.4
100
AcDbArc
 50
270.0
 51
0.0
  0
LINE
  5
298
330
1F
100
AcDbEntity
  8
0
  6
Continuous
 62
     1
100
AcDbLine
 10
450.7
 20
278.3
 30
0.0
 11
450.7
 21
241.8
 31
0.0
  0
LINE
  5
299
330
1F
100
AcDbEntity
  8
0
  6
Continuous
 62
     1
100
AcDbLine
 10
450.3
 20
241.3
 30
0.0
 11
405.2
 21
241.3
 31
0.0
  0
LINE
  5
29A
330
1F
100
AcDbEntity
  8
0
  6
Continuous
 62
     1
100
AcDbLine
 10
404.7
 20
264.95
 30
0.0
 11
404.7
 21
278.3
 31
0.0
  0
LINE
  5
29B
330
1F
100
AcDbEntity
  8
0
  6
Continuous
 62
     1
100
AcDbLine
 10
404.7
 20
265.3
 30
0.0
 11
413.2
 21
265.3
 31
0.0
  0
ARC
  5
29C
330
1F
100
AcDbEntity
  8
0
  6
Continuous
 62
     1
100
AcDbCircle
 10
407.7
 20
253.3
 30
0.0
 40
12.0
100
AcDbArc
 50
90.0
 51
270.0
  0
CIRCLE
  5
29D
330
1F
100
AcDbEntity
  8
0
  6
Continuous
 62
     1
100
AcDbCircle
 10
407.7
 20
253.3
 30
0.0
 40
9.0
  0
ARC
  5
29E
330
1F
100
AcDbEntity
  8
0
  6
Continuous
 62
     1
100
AcDbCircle
 10
409.7
 20
286.3
 30
0.0
 40
5.0
100
AcDbArc
 50
270.0
 51
90.0
  0
LINE
  5
29F
330
1F
100
AcDbEntity
  8
0
  6
Continuous
 62
     1
100
AcDbLine
 10
404.7
 20
291.3
 30
0.0
 11
409.7
 21
291.3
 31
0.0
  0
LINE
  5
2A0
330
1F
100
AcDbEntity
  8
0
  6
Continuous
 62
     1
100
AcDbLine
 10
409.7
 20
281.3
 30
0.0
 11
404.7
 21
281.3
 31
0.0
  0
LINE
  5
2A1
330
1F
100
AcDbEntity
  8
0
  6
Continuous
 62
     1
100
AcDbLine
 10
404.7
 20
278.3
 30
0.0
 11
450.7
 21
278.3
 31
0.0
  0
ARC
  5
2A2
330
1F
100
AcDbEntity
  8
0
  6
Continuous
 62
     1
100
AcDbCircle
 10
445.7
 20
286.3
 30
0.0
 40
5.0
100
AcDbArc
 50
90.0
 51
270.0
  0
LINE
  5
2A3
330
1F
100
AcDbEntity
  8
0
  6
Continuous
 62
     1
100
AcDbLine
 10
445.7
 20
281.3
 30
0.0
 11
450.7
 21
281.3
 31
0.0
  0
ARC
  5
2A4
330
1F
100
AcDbEntity
  8
0
  6
Continuous
 62
     1
100
AcDbCircle
 10
450.15
 20
296.25
 30
0.0
 40
0.5
100
AcDbArc
 50
180.0
 51
270.0
  0
ARC
  5
2A5
330
1F
100
AcDbEntity
  8
0
  6
Continuous
 62
     1
100
AcDbCircle
 10
451.7
 20
295.15
 30
0.0
 40
1.0
100
AcDbArc
 50
90.0
 51
180.0
  0
LINE
  5
2A6
330
1F
100
AcDbEntity
  8
0
  6
Continuous
 62
     1
100
AcDbLine
 10
450.7
 20
295.3
 30
0.0
 11
450.7
 21
278.3
 31
0.0
  0
ARC
  5
2A7
330
1F
100
AcDbEntity
  8
0
  6
Continuous
 62
     1
100
AcDbCircle
 10
409.7
 20
295.75
 30
0.0
 40
0.5
100
AcDbArc
 50
270.0
 51
0.0
  0
LINE
  5
2A8
330
1F
100
AcDbEntity
  8
0
  6
Continuous
 62
     1
100
AcDbLine
 10
386.405904774
 20
301.470370869
 30
0.0
 11
409.7
 21
295.228736864
 31
0.0
  0
ARC
  5
2A9
330
1F
100
AcDbEntity
  8
0
  6
Continuous
 62
     1
100
AcDbCircle
 10
403.7
 20
295.85
 30
0.0
 40
1.0
100
AcDbArc
 50
0.0
 51
90.0
  0
LINE
  5
2AA
330
1F
100
AcDbEntity
  8
0
  6
Continuous
 62
     1
100
AcDbLine
 10
404.7
 20
278.3
 30
0.0
 11
404.7
 21
295.85
 31
0.0
  0
LINE
  5
2AB
330
1F
100
AcDbEntity
  8
0
  6
Continuous
 62
     1
100
AcDbLine
 10
450.7
 20
294.3
 30
0.0
 11
404.7
 21
294.3
 31
0.0
  0
LINE
  5
2AC
330
1F
100
AcDbEntity
  8
0
  6
Continuous
 62
     1
100
AcDbLine
 10
450.7
 20
294.5
 30
0.0
 11
404.7
 21
294.5
 31
0.0
  0
LINE
  5
2AD
330
1F
100
AcDbEntity
  8
0
  6
Continuous
 62
     1
100
AcDbLine
 10
472.7
 20
321.3
 30
0.0
 11
472.7
 21
303.3
 31
0.0
  0
ARC
  5
2AE
330
1F
100
AcDbEntity
  8
0
  6
Continuous
 62
     1
100
AcDbCircle
 10
470.7
 20
303.3
 30
0.0
 40
2.0
100
AcDbArc
 50
270.0
 51
0.0
  0
LINE
  5
2AF
330
1F
100
AcDbEntity
  8
0
  6
Continuous
 62
     1
100
AcDbLine
 10
472.7
 20
317.3
 30
0.0
 11
455.2
 21
317.3
 31
0.0
  0
LINE
  5
2B0
330
1F
100
AcDbEntity
  8
0
  6
Continuous
 62
     1
100
AcDbLine
 10
471.21763809
 20
301.368148347
 30
0.0
 11
450.15
 21
295.723091735
 31
0.0
  0
LINE
  5
2B1
330
1F
100
AcDbEntity
  8
0
  6
Continuous
 62
     1
100
AcDbLine
 10
444.7
 20
315.3
 30
0.0
 11
444.7
 21
313.8
 31
0.0
  0
ARC
  5
2B2
330
1F
100
AcDbEntity
  8
0
  6
Continuous
 62
     1
100
AcDbCircle
 10
445.7
 20
315.3
 30
0.0
 40
1.0
100
AcDbArc
 50
90.0
 51
180.0
  0
LINE
  5
2B3
330
1F
100
AcDbEntity
  8
0
  6
Continuous
 62
     1
100
AcDbLine
 10
444.7
 20
313.8
 30
0.0
 11
443.2
 21
313.8
 31
0.0
  0
LINE
  5
2B4
330
1F
100
AcDbEntity
  8
0
  6
Continuous
 62
     1
100
AcDbLine
 10
442.2
 20
312.8
 30
0.0
 11
442.2
 21
311.3
 31
0.0
  0
ARC
  5
2B5
330
1F
100
AcDbEntity
  8
0
  6
Continuous
 62
     1
100
AcDbCircle
 10
443.2
 20
312.8
 30
0.0
 40
1.0
100
AcDbArc
 50
90.0
 51
180.0
  0
LINE
  5
2B6
330
1F
100
AcDbEntity
  8
0
  6
Continuous
 62
     1
100
AcDbLine
 10
442.2
 20
311.3
 30
0.0
 11
440.7
 21
311.3
 31
0.0
  0
LINE
  5
2B7
330
1F
100
AcDbEntity
  8
0
  6
Continuous
 62
     1
100
AcDbLine
 10
449.7
 20
318.8
 30
0.0
 11
448.2
 21
318.8
 31
0.0
  0
LINE
  5
2B8
330
1F
100
AcDbEntity
  8
0
  6
Continuous
 62
     1
100
AcDbLine
 10
447.2
 20
317.8
 30
0.0
 11
447.2
 21
316.3
 31
0.0
  0
ARC
  5
2B9
330
1F
100
AcDbEntity
  8
0
  6
Continuous
 62
     1
100
AcDbCircle
 10
448.2
 20
317.8
 30
0.0
 40
1.0
100
AcDbArc
 50
90.0
 51
180.0
  0
LINE
  5
2BA
330
1F
100
AcDbEntity
  8
0
  6
Continuous
 62
     1
100
AcDbLine
 10
447.2
 20
316.3
 30
0.0
 11
445.7
 21
316.3
 31
0.0
  0
LINE
  5
2BB
330
1F
100
AcDbEntity
  8
0
  6
Continuous
 62
     1
100
AcDbLine
 10
449.7
 20
320.3
 30
0.0
 11
449.7
 21
318.8
 31
0.0
  0
ARC
  5
2BC
330
1F
100
AcDbEntity
  8
0
  6
Continuous
 62
     1
100
AcDbCircle
 10
450.7
 20
320.3
 30
0.0
 40
1.0
100
AcDbArc
 50
90.0
 51
180.0
  0
LINE
  5
2BD
330
1F
100
AcDbEntity
  8
0
  6
Continuous
 62
     1
100
AcDbLine
 10
442.549242405
 20
304.612279964
 30
0.0
 11
456.75
 21
318.813037559
 31
0.0
  0
LINE
  5
2BE
330
1F
100
AcDbEntity
  8
0
  6
Continuous
 62
     1
100
AcDbLine
 10
449.65
 20
296.25
 30
0.0
 11
449.65
 21
311.9
 31
0.0
  0
LINE
  5
2BF
330
1F
100
AcDbEntity
  8
0
  6
Continuous
 62
     1
100
AcDbLine
 10
472.7
 20
321.3
 30
0.0
 11
450.7
 21
321.3
 31
0.0
  0
LINE
  5
2C0
330
1F
100
AcDbEntity
  8
0
  6
Continuous
 62
     1
100
AcDbLine
 10
439.7
 20
308.8
 30
0.0
 11
438.2
 21
308.8
 31
0.0
  0
LINE
  5
2C1
330
1F
100
AcDbEntity
  8
0
  6
Continuous
 62
     1
100
AcDbLine
 10
439.7
 20
310.3
 30
0.0
 11
439.7
 21
308.8
 31
0.0
  0
ARC
  5
2C2
330
1F
100
AcDbEntity
  8
0
  6
Continuous
 62
     1
100
AcDbCircle
 10
440.7
 20
310.3
 30
0.0
 40
1.0
100
AcDbArc
 50
90.0
 51
180.0
  0
LINE
  5
2C3
330
1F
100
AcDbEntity
  8
0
  6
Continuous
 62
     1
100
AcDbLine
 10
415.7
 20
308.8
 30
0.0
 11
417.2
 21
308.8
 31
0.0
  0
LINE
  5
2C4
330
1F
100
AcDbEntity
  8
0
  6
Continuous
 62
     1
100
AcDbLine
 10
413.2
 20
311.3
 30
0.0
 11
414.7
 21
311.3
 31
0.0
  0
LINE
  5
2C5
330
1F
100
AcDbEntity
  8
0
  6
Continuous
 62
     1
100
AcDbLine
 10
415.7
 20
310.3
 30
0.0
 11
415.7
 21
308.8
 31
0.0
  0
ARC
  5
2C6
330
1F
100
AcDbEntity
  8
0
  6
Continuous
 62
     1
100
AcDbCircle
 10
414.7
 20
310.3
 30
0.0
 40
1.0
100
AcDbArc
 50
0.0
 51
90.0
  0
LINE
  5
2C7
330
1F
100
AcDbEntity
  8
0
  6
Continuous
 62
     1
100
AcDbLine
 10
410.2
 20
307.3
 30
0.0
 11
410.2
 21
295.75
 31
0.0
  0
ARC
  5
2C8
330
1F
100
AcDbEntity
  8
0
  6
Continuous
 62
     1
100
AcDbCircle
 10
427.7
 20
319.513203436
 30
0.0
 40
15.0
100
AcDbArc
 50
225.712541871
 51
314.424167793
  0
LINE
  5
2C9
330
1F
100
AcDbEntity
  8
0
  6
Continuous
 62
     1
100
AcDbLine
 10
405.7
 20
318.8
 30
0.0
 11
407.2
 21
318.8
 31
0.0
  0
LINE
  5
2CA
330
1F
100
AcDbEntity
  8
0
  6
Continuous
 62
     1
100
AcDbLine
 10
408.2
 20
317.8
 30
0.0
 11
408.2
 21
316.3
 31
0.0
  0
ARC
  5
2CB
330
1F
100
AcDbEntity
  8
0
  6
Continuous
 62
     1
100
AcDbCircle
 10
407.2
 20
317.8
 30
0.0
 40
1.0
100
AcDbArc
 50
0.0
 51
90.0
  0
LINE
  5
2CC
330
1F
100
AcDbEntity
  8
0
  6
Continuous
 62
     1
100
AcDbLine
 10
408.2
 20
316.3
 30
0.0
 11
409.7
 21
316.3
 31
0.0
  0
LINE
  5
2CD
330
1F
100
AcDbEntity
  8
0
  6
Continuous
 62
     1
100
AcDbLine
 10
405.7
 20
320.3
 30
0.0
 11
405.7
 21
318.8
 31
0.0
  0
ARC
  5
2CE
330
1F
100
AcDbEntity
  8
0
  6
Continuous
 62
     1
100
AcDbCircle
 10
404.7
 20
320.3
 30
0.0
 40
1.0
100
AcDbArc
 50
0.0
 51
90.0
  0
LINE
  5
2CF
330
1F
100
AcDbEntity
  8
0
  6
Continuous
 62
     1
100
AcDbLine
 10
404.7
 20
321.3
 30
0.0
 11
382.7
 21
321.3
 31
0.0
  0
ARC
  5
2D0
330
1F
100
AcDbEntity
  8
0
  6
Continuous
 62
     1
100
AcDbCircle
 10
399.7
 20
319.8
 30
0.0
 40
1.5
100
AcDbArc
 50
180.0
 51
225.0
  0
LINE
  5
2D1
330
1F
100
AcDbEntity
  8
0
  6
Continuous
 62
     1
100
AcDbLine
 10
398.2
 20
321.3
 30
0.0
 11
398.2
 21
319.8
 31
0.0
  0
LINE
  5
2D2
330
1F
100
AcDbEntity
  8
0
  6
Continuous
 62
     1
100
AcDbLine
 10
410.7
 20
315.3
 30
0.0
 11
410.7
 21
313.8
 31
0.0
  0
ARC
  5
2D3
330
1F
100
AcDbEntity
  8
0
  6
Continuous
 62
     1
100
AcDbCircle
 10
409.7
 20
315.3
 30
0.0
 40
1.0
100
AcDbArc
 50
0.0
 51
90.0
  0
LINE
  5
2D4
330
1F
100
AcDbEntity
  8
0
  6
Continuous
 62
     1
100
AcDbLine
 10
410.7
 20
313.8
 30
0.0
 11
412.2
 21
313.8
 31
0.0
  0
LINE
  5
2D5
330
1F
100
AcDbEntity
  8
0
  6
Continuous
 62
     1
100
AcDbLine
 10
413.2
 20
312.8
 30
0.0
 11
413.2
 21
311.3
 31
0.0
  0
ARC
  5
2D6
330
1F
100
AcDbEntity
  8
0
  6
Continuous
 62
     1
100
AcDbCircle
 10
412.2
 20
312.8
 30
0.0
 40
1.0
100
AcDbArc
 50
0.0
 51
90.0
  0
LINE
  5
2D7
330
1F
100
AcDbEntity
  8
0
  6
Continuous
 62
     1
100
AcDbLine
 10
398.663037559
 20
318.8
 30
0.0
 11
412.850757595
 21
304.612279964
 31
0.0
  0
LINE
  5
2D8
330
1F
100
AcDbEntity
  8
0
  6
Continuous
 62
     1
100
AcDbLine
 10
382.7
 20
321.3
 30
0.0
 11
382.7
 21
306.3
 31
0.0
  0
ARC
  5
2D9
330
1F
100
AcDbEntity
  8
0
  6
Continuous
 62
     1
100
AcDbCircle
 10
387.7
 20
306.3
 30
0.0
 40
5.0
100
AcDbArc
 50
180.0
 51
254.845931949
  0
ARC
  5
2DA
330
1F
100
AcDbEntity
  8
0
  6
Continuous
 62
     1
100
AcDbCircle
 10
379.7
 20
343.3
 30
0.0
 40
2.0
100
AcDbArc
 50
90.0
 51
180.0
  0
LINE
  5
2DB
330
1F
100
AcDbEntity
  8
0
  6
Continuous
 62
     1
100
AcDbLine
 10
377.7
 20
333.3
 30
0.0
 11
377.7
 21
343.3
 31
0.0
  0
ARC
  5
2DC
330
1F
100
AcDbEntity
  8
0
  6
Continuous
 62
     1
100
AcDbCircle
 10
379.7
 20
333.3
 30
0.0
 40
2.0
100
AcDbArc
 50
180.0
 51
270.0
  0
LINE
  5
2DD
330
1F
100
AcDbEntity
  8
0
  6
Continuous
 62
     1
100
AcDbLine
 10
379.7
 20
345.3
 30
0.0
 11
389.2
 21
345.3
 31
0.0
  0
ARC
  5
2DE
330
1F
100
AcDbEntity
  8
0
  6
Continuous
 62
     1
100
AcDbCircle
 10
409.7
 20
337.3
 30
0.0
 40
1.0
100
AcDbArc
 50
270.0
 51
0.0
  0
LINE
  5
2DF
330
1F
100
AcDbEntity
  8
0
  6
Continuous
 62
     1
100
AcDbLine
 10
405.7
 20
333.8
 30
0.0
 11
407.2
 21
333.8
 31
0.0
  0
LINE
  5
2E0
330
1F
100
AcDbEntity
  8
0
  6
Continuous
 62
     1
100
AcDbLine
 10
408.2
 20
334.8
 30
0.0
 11
408.2
 21
336.3
 31
0.0
  0
ARC
  5
2E1
330
1F
100
AcDbEntity
  8
0
  6
Continuous
 62
     1
100
AcDbCircle
 10
407.2
 20
334.8
 30
0.0
 40
1.0
100
AcDbArc
 50
270.0
 51
0.0
  0
LINE
  5
2E2
330
1F
100
AcDbEntity
  8
0
  6
Continuous
 62
     1
100
AcDbLine
 10
408.2
 20
336.3
 30
0.0
 11
409.7
 21
336.3
 31
0.0
  0
LINE
  5
2E3
330
1F
100
AcDbEntity
  8
0
  6
Continuous
 62
     1
100
AcDbLine
 10
405.7
 20
332.3
 30
0.0
 11
405.7
 21
333.8
 31
0.0
  0
ARC
  5
2E4
330
1F
100
AcDbEntity
  8
0
  6
Continuous
 62
     1
100
AcDbCircle
 10
404.7
 20
332.3
 30
0.0
 40
1.0
100
AcDbArc
 50
270.0
 51
0.0
  0
LINE
  5
2E5
330
1F
100
AcDbEntity
  8
0
  6
Continuous
 62
     1
100
AcDbLine
 10
379.7
 20
331.3
 30
0.0
 11
404.7
 21
331.3
 31
0.0
  0
LINE
  5
2E6
330
1F
100
AcDbEntity
  8
0
  6
Continuous
 62
     1
100
AcDbLine
 10
439.7
 20
343.8
 30
0.0
 11
438.2
 21
343.8
 31
0.0
  0
LINE
  5
2E7
330
1F
100
AcDbEntity
  8
0
  6
Continuous
 62
     1
100
AcDbLine
 10
439.7
 20
342.3
 30
0.0
 11
439.7
 21
343.8
 31
0.0
  0
LINE
  5
2E8
330
1F
100
AcDbEntity
  8
0
  6
Continuous
 62
     1
100
AcDbLine
 10
415.7
 20
343.8
 30
0.0
 11
417.2
 21
343.8
 31
0.0
  0
LINE
  5
2E9
330
1F
100
AcDbEntity
  8
0
  6
Continuous
 62
     1
100
AcDbLine
 10
413.2
 20
341.3
 30
0.0
 11
414.7
 21
341.3
 31
0.0
  0
LINE
  5
2EA
330
1F
100
AcDbEntity
  8
0
  6
Continuous
 62
     1
100
AcDbLine
 10
415.7
 20
342.3
 30
0.0
 11
415.7
 21
343.8
 31
0.0
  0
ARC
  5
2EB
330
1F
100
AcDbEntity
  8
0
  6
Continuous
 62
     1
100
AcDbCircle
 10
414.7
 20
342.3
 30
0.0
 40
1.0
100
AcDbArc
 50
270.0
 51
0.0
  0
ARC
  5
2EC
330
1F
100
AcDbEntity
  8
0
  6
Continuous
 62
     1
100
AcDbCircle
 10
427.7
 20
333.086796564
 30
0.0
 40
15.0
100
AcDbArc
 50
45.712541871
 51
134.424167793
  0
ARC
  5
2ED
330
1F
100
AcDbEntity
  8
0
  6
Continuous
 62
     1
100
AcDbCircle
 10
427.7
 20
333.138477631
 30
0.0
 40
21.0
100
AcDbArc
 50
45.0
 51
135.0
  0
LINE
  5
2EE
330
1F
100
AcDbEntity
  8
0
  6
Continuous
 62
     1
100
AcDbLine
 10
410.7
 20
337.3
 30
0.0
 11
410.7
 21
338.8
 31
0.0
  0
LINE
  5
2EF
330
1F
100
AcDbEntity
  8
0
  6
Continuous
 62
     1
100
AcDbLine
 10
410.7
 20
338.8
 30
0.0
 11
412.2
 21
338.8
 31
0.0
  0
LINE
  5
2F0
330
1F
100
AcDbEntity
  8
0
  6
Continuous
 62
     1
100
AcDbLine
 10
413.2
 20
339.8
 30
0.0
 11
413.2
 21
341.3
 31
0.0
  0
ARC
  5
2F1
330
1F
100
AcDbEntity
  8
0
  6
Continuous
 62
     1
100
AcDbCircle
 10
412.2
 20
339.8
 30
0.0
 40
1.0
100
AcDbArc
 50
270.0
 51
0.0
  0
LINE
  5
2F2
330
1F
100
AcDbEntity
  8
0
  6
Continuous
 62
     1
100
AcDbLine
 10
412.850757595
 20
347.987720036
 30
0.0
 11
398.65
 21
333.786962441
 31
0.0
  0
LINE
  5
2F3
330
1F
100
AcDbEntity
  8
0
  6
Continuous
 62
     1
100
AcDbLine
 10
449.7
 20
333.8
 30
0.0
 11
448.2
 21
333.8
 31
0.0
  0
LINE
  5
2F4
330
1F
100
AcDbEntity
  8
0
  6
Continuous
 62
     1
100
AcDbLine
 10
447.2
 20
334.8
 30
0.0
 11
447.2
 21
336.3
 31
0.0
  0
ARC
  5
2F5
330
1F
100
AcDbEntity
  8
0
  6
Continuous
 62
     1
100
AcDbCircle
 10
448.2
 20
334.8
 30
0.0
 40
1.0
100
AcDbArc
 50
180.0
 51
270.0
  0
LINE
  5
2F6
330
1F
100
AcDbEntity
  8
0
  6
Continuous
 62
     1
100
AcDbLine
 10
447.2
 20
336.3
 30
0.0
 11
445.7
 21
336.3
 31
0.0
  0
LINE
  5
2F7
330
1F
100
AcDbEntity
  8
0
  6
Continuous
 62
     1
100
AcDbLine
 10
444.7
 20
337.3
 30
0.0
 11
444.7
 21
338.8
 31
0.0
  0
ARC
  5
2F8
330
1F
100
AcDbEntity
  8
0
  6
Continuous
 62
     1
100
AcDbCircle
 10
445.7
 20
337.3
 30
0.0
 40
1.0
100
AcDbArc
 50
180.0
 51
270.0
  0
LINE
  5
2F9
330
1F
100
AcDbEntity
  8
0
  6
Continuous
 62
     1
100
AcDbLine
 10
444.7
 20
338.8
 30
0.0
 11
443.2
 21
338.8
 31
0.0
  0
LINE
  5
2FA
330
1F
100
AcDbEntity
  8
0
  6
Continuous
 62
     1
100
AcDbLine
 10
442.2
 20
339.8
 30
0.0
 11
442.2
 21
341.3
 31
0.0
  0
ARC
  5
2FB
330
1F
100
AcDbEntity
  8
0
  6
Continuous
 62
     1
100
AcDbCircle
 10
443.2
 20
339.8
 30
0.0
 40
1.0
100
AcDbArc
 50
180.0
 51
270.0
  0
LINE
  5
2FC
330
1F
100
AcDbEntity
  8
0
  6
Continuous
 62
     1
100
AcDbLine
 10
449.7
 20
332.3
 30
0.0
 11
449.7
 21
333.8
 31
0.0
  0
ARC
  5
2FD
330
1F
100
AcDbEntity
  8
0
  6
Continuous
 62
     1
100
AcDbCircle
 10
450.7
 20
332.3
 30
0.0
 40
1.0
100
AcDbArc
 50
180.0
 51
270.0
  0
LINE
  5
2FE
330
1F
100
AcDbEntity
  8
0
  6
Continuous
 62
     1
100
AcDbLine
 10
456.736962441
 20
333.8
 30
0.0
 11
442.549242405
 21
347.987720036
 31
0.0
  0
LINE
  5
2FF
330
1F
100
AcDbEntity
  8
0
  6
Continuous
 62
     1
100
AcDbLine
 10
442.2
 20
341.3
 30
0.0
 11
440.7
 21
341.3
 31
0.0
  0
ARC
  5
300
330
1F
100
AcDbEntity
  8
0
  6
Continuous
 62
     1
100
AcDbCircle
 10
440.7
 20
342.3
 30
0.0
 40
1.0
100
AcDbArc
 50
180.0
 51
270.0
  0
LINE
  5
301
330
1F
100
AcDbEntity
  8
0
  6
Continuous
 62
     1
100
AcDbLine
 10
450.7
 20
331.3
 30
0.0
 11
462.7
 21
331.3
 31
0.0
  0
ARC
  5
302
330
1F
100
AcDbEntity
  8
0
  6
Continuous
 62
     1
100
AcDbCircle
 10
456.1
 20
361.3
 30
0.0
 40
10.0
100
AcDbArc
 50
225.0
 51
270.0
  0
LINE
  5
303
330
1F
100
AcDbEntity
  8
0
  6
Continuous
 62
     1
100
AcDbLine
 10
448.9
 20
354.3
 30
0.0
 11
449.0
 21
354.2
 31
0.0
  0
LINE
  5
304
330
1F
100
AcDbEntity
  8
0
  6
Continuous
 62
     1
100
AcDbLine
 10
462.7
 20
351.3
 30
0.0
 11
456.225
 21
351.3
 31
0.0
  0
ARC
  5
305
330
1F
100
AcDbEntity
  8
0
  6
Continuous
 62
     1
100
AcDbCircle
 10
462.7
 20
341.3
 30
0.0
 40
10.0
100
AcDbArc
 50
270.0
 51
90.0
  0
ARC
  5
306
330
1F
100
AcDbEntity
  8
0
  6
Continuous
 62
     1
100
AcDbCircle
 10
389.2
 20
365.3
 30
0.0
 40
20.0
100
AcDbArc
 50
270.0
 51
315.0
  0
LINE
  5
307
330
1F
100
AcDbEntity
  8
0
  6
Continuous
 62
     1
100
AcDbLine
 10
406.5
 20
354.3
 30
0.0
 11
403.2
 21
351.0
 31
0.0
  0
ARC
  5
308
330
1F
100
AcDbEntity
  8
0
  6
Continuous
 62
     1
100
AcDbCircle
 10
427.7
 20
333.1
 30
0.0
 40
30.0
100
AcDbArc
 50
45.0
 51
135.13481335
  0
CIRCLE
  5
309
330
1F
100
AcDbEntity
  8
0
  6
Continuous
 62
     2
100
AcDbCircle
 10
462.7
 20
341.3
 30
0.0
 40
4.0
  0
CIRCLE
  5
30A
330
1F
100
AcDbEntity
  8
0
  6
Continuous
 62
     2
100
AcDbCircle
 10
392.7
 20
311.3
 30
0.0
 40
4.0
  0
LINE
  5
30B
330
1F
100
AcDbEntity
  8
0
  6
Continuous
 62
     2
100
AcDbLine
 10
388.7
 20
331.3
 30
0.0
 11
388.7
 21
321.3
 31
0.0
  0
LINE
  5
30C
330
1F
100
AcDbEntity
  8
0
  6
Continuous
 62
     2
100
AcDbLine
 10
396.7
 20
321.3
 30
0.0
 11
396.7
 21
331.3
 31
0.0
  0
LINE
  5
30D
330
1F
100
AcDbEntity
  8
0
  6
Continuous
 62
     2
100
AcDbLine
 10
466.7
 20
321.3
 30
0.0
 11
466.7
 21
332.3
 31
0.0
  0
LINE
  5
30E
330
1F
100
AcDbEntity
  8
0
  6
Continuous
 62
     2
100
AcDbLine
 10
458.7
 20
331.3
 30
0.0
 11
458.7
 21
321.3
 31
0.0
  0
LINE
  5
30F
330
1F
100
AcDbEntity
  8
0
  6
Continuous
 62
     2
100
AcDbLine
 10
458.7
 20
272.3
 30
0.0
 11
459.7
 21
271.3
 31
0.0
  0
LINE
  5
310
330
1F
100
AcDbEntity
  8
0
  6
Continuous
 62
     2
100
AcDbLine
 10
459.7
 20
271.3
 30
0.0
 11
465.7
 21
271.3
 31
0.0
  0
LINE
  5
311
330
1F
100
AcDbEntity
  8
0
  6
Continuous
 62
     2
100
AcDbLine
 10
465.7
 20
271.3
 30
0.0
 11
466.7
 21
272.3
 31
0.0
  0
LINE
  5
312
330
1F
100
AcDbEntity
  8
0
  6
Continuous
 62
     2
100
AcDbLine
 10
466.7
 20
272.3
 30
0.0
 11
466.7
 21
300.2
 31
0.0
  0
LINE
  5
313
330
1F
100
AcDbEntity
  8
0
  6
Continuous
 62
     2
100
AcDbLine
 10
458.7
 20
297.9
 30
0.0
 11
458.7
 21
272.3
 31
0.0
  0
LINE
  5
314
330
1F
100
AcDbEntity
  8
0
  6
Continuous
 62
     2
100
AcDbLine
 10
385.2
 20
361.3
 30
0.0
 11
384.2
 21
360.3
 31
0.0
  0
LINE
  5
315
330
1F
100
AcDbEntity
  8
0
  6
Continuous
 62
     2
100
AcDbLine
 10
385.2
 20
361.3
 30
0.0
 11
400.2
 21
361.3
 31
0.0
  0
LINE
  5
316
330
1F
100
AcDbEntity
  8
0
  6
Continuous
 62
     2
100
AcDbLine
 10
400.2
 20
361.3
 30
0.0
 11
401.2
 21
360.3
 31
0.0
  0
ARC
  5
317
330
1F
100
AcDbEntity
  8
0
  6
Continuous
 62
     2
100
AcDbCircle
 10
388.45
 20
351.76875
 30
0.0
 40
9.53125
100
AcDbArc
 50
63.51896017
 51
116.48103983
  0
ARC
  5
318
330
1F
100
AcDbEntity
  8
0
  6
Continuous
 62
     2
100
AcDbCircle
 10
396.95
 20
351.76875
 30
0.0
 40
9.53125
100
AcDbArc
 50
63.51896017
 51
116.48103983
  0
LINE
  5
319
330
1F
100
AcDbEntity
  8
0
  6
Continuous
 62
     2
100
AcDbLine
 10
384.2
 20
360.3
 30
0.0
 11
384.2
 21
345.3
 31
0.0
  0
LINE
  5
31A
330
1F
100
AcDbEntity
  8
0
  6
Continuous
 62
     2
100
AcDbLine
 10
401.2
 20
360.3
 30
0.0
 11
401.2
 21
349.5
 31
0.0
  0
LINE
  5
31B
330
1F
100
AcDbEntity
  8
0
  6
Continuous
 62
     2
100
AcDbLine
 10
392.725
 20
360.25
 30
0.0
 11
392.725
 21
345.75
 31
0.0
  0
LINE
  5
31C
330
1F
100
AcDbEntity
  8
0
  6
Continuous
 62
     2
100
AcDbLine
 10
396.7
 20
390.3
 30
0.0
 11
395.7
 21
391.3
 31
0.0
  0
LINE
  5
31D
330
1F
100
AcDbEntity
  8
0
  6
Continuous
 62
     2
100
AcDbLine
 10
395.7
 20
391.3
 30
0.0
 11
389.7
 21
391.3
 31
0.0
  0
LINE
  5
31E
330
1F
100
AcDbEntity
  8
0
  6
Continuous
 62
     2
100
AcDbLine
 10
389.7
 20
391.3
 30
0.0
 11
388.7
 21
390.3
 31
0.0
  0
LINE
  5
31F
330
1F
100
AcDbEntity
  8
0
  6
Continuous
 62
     2
100
AcDbLine
 10
392.7
 20
361.3
 30
0.0
 11
399.2
 21
361.3
 31
0.0
  0
LINE
  5
320
330
1F
100
AcDbEntity
  8
0
  6
Continuous
 62
     2
100
AcDbLine
 10
399.2
 20
361.3
 30
0.0
 11
400.2
 21
362.3
 31
0.0
  0
LINE
  5
321
330
1F
100
AcDbEntity
  8
0
  6
Continuous
 62
     2
100
AcDbLine
 10
400.2
 20
362.3
 30
0.0
 11
400.2
 21
366.8
 31
0.0
  0
LINE
  5
322
330
1F
100
AcDbEntity
  8
0
  6
Continuous
 62
     2
100
AcDbLine
 10
400.2
 20
366.8
 30
0.0
 11
399.2
 21
367.8
 31
0.0
  0
LINE
  5
323
330
1F
100
AcDbEntity
  8
0
  6
Continuous
 62
     2
100
AcDbLine
 10
399.2
 20
367.8
 30
0.0
 11
386.2
 21
367.8
 31
0.0
  0
LINE
  5
324
330
1F
100
AcDbEntity
  8
0
  6
Continuous
 62
     2
100
AcDbLine
 10
386.2
 20
367.8
 30
0.0
 11
385.2
 21
366.8
 31
0.0
  0
LINE
  5
325
330
1F
100
AcDbEntity
  8
0
  6
Continuous
 62
     2
100
AcDbLine
 10
385.2
 20
366.8
 30
0.0
 11
385.2
 21
362.3
 31
0.0
  0
LINE
  5
326
330
1F
100
AcDbEntity
  8
0
  6
Continuous
 62
     2
100
AcDbLine
 10
385.2
 20
362.3
 30
0.0
 11
386.2
 21
361.3
 31
0.0
  0
LINE
  5
327
330
1F
100
AcDbEntity
  8
0
  6
Continuous
 62
     2
100
AcDbLine
 10
388.95
 20
366.8
 30
0.0
 11
388.95
 21
362.3
 31
0.0
  0
ARC
  5
328
330
1F
100
AcDbEntity
  8
0
  6
Continuous
 62
     2
100
AcDbCircle
 10
387.075
 20
365.5421875
 30
0.0
 40
2.2578125
100
AcDbArc
 50
33.855026128
 51
146.144973871
  0
ARC
  5
329
330
1F
100
AcDbEntity
  8
0
  6
Continuous
 62
     2
100
AcDbCircle
 10
387.075
 20
363.5578125
 30
0.0
 40
2.2578125
100
AcDbArc
 50
213.855026129
 51
326.144973872
  0
LINE
  5
32A
330
1F
100
AcDbEntity
  8
0
  6
Continuous
 62
     2
100
AcDbLine
 10
396.45
 20
366.8
 30
0.0
 11
396.45
 21
362.3
 31
0.0
  0
ARC
  5
32B
330
1F
100
AcDbEntity
  8
0
  6
Continuous
 62
     2
100
AcDbCircle
 10
398.325
 20
365.5421875
 30
0.0
 40
2.2578125
100
AcDbArc
 50
33.855026129
 51
146.144973872
  0
ARC
  5
32C
330
1F
100
AcDbEntity
  8
0
  6
Continuous
 62
     2
100
AcDbCircle
 10
398.325
 20
363.5578125
 30
0.0
 40
2.2578125
100
AcDbArc
 50
213.855026128
 51
326.144973871
  0
ARC
  5
32D
330
1F
100
AcDbEntity
  8
0
  6
Continuous
 62
     2
100
AcDbCircle
 10
392.7
 20
368.83125
 30
0.0
 40
7.53125
100
AcDbArc
 50
240.137165644
 51
299.862834356
  0
ARC
  5
32E
330
1F
100
AcDbEntity
  8
0
  6
Continuous
 62
     2
100
AcDbCircle
 10
392.7
 20
360.26875
 30
0.0
 40
7.53125
100
AcDbArc
 50
60.137165644
 51
119.862834356
  0
LINE
  5
32F
330
1F
100
AcDbEntity
  8
0
  6
Continuous
 62
     2
100
AcDbLine
 10
396.7
 20
367.8
 30
0.0
 11
396.7
 21
390.3
 31
0.0
  0
LINE
  5
330
330
1F
100
AcDbEntity
  8
0
  6
Continuous
 62
     2
100
AcDbLine
 10
388.7
 20
390.3
 30
0.0
 11
388.7
 21
367.8
 31
0.0
  0
LINE
  5
332
330
1F
100
AcDbEntity
  8
0
  6
LTYPE4
 62
     2
100
AcDbLine
 10
376.779044729
 20
244.042857753
 30
0.0
 11
377.590204304
 21
242.884401822
 31
0.0
  0
LINE
  5
333
330
1F
100
AcDbEntity
  8
0
  6
LTYPE4
 62
     2
100
AcDbLine
 10
377.590204304
 20
242.884401822
 30
0.0
 11
383.499050822
 21
241.842512756
 31
0.0
  0
LINE
  5
334
330
1F
100
AcDbEntity
  8
0
  6
LTYPE4
 62
     2
100
AcDbLine
 10
383.499050822
 20
241.842512756
 30
0.0
 11
384.657506753
 21
242.653672331
 31
0.0
  0
LINE
  5
335
330
1F
100
AcDbEntity
  8
0
  6
LTYPE4
 62
     2
100
AcDbLine
 10
390.361760198
 20
254.848404499
 30
0.0
 11
391.520216129
 21
255.659564074
 31
0.0
  0
LINE
  5
336
330
1F
100
AcDbEntity
  8
0
  6
LTYPE4
 62
     2
100
AcDbLine
 10
390.361760198
 20
254.848404499
 30
0.0
 11
375.589643903
 21
257.453127164
 31
0.0
  0
LINE
  5
337
330
1F
100
AcDbEntity
  8
0
  6
LTYPE4
 62
     2
100
AcDbLine
 10
375.589643903
 20
257.453127164
 30
0.0
 11
374.778484328
 21
258.611583094
 31
0.0
  0
ARC
  5
338
330
1F
100
AcDbEntity
  8
0
  6
LTYPE4
 62
     2
100
AcDbCircle
 10
388.816219194
 20
264.799209972
 30
0.0
 40
9.53125
100
AcDbArc
 50
233.51896017
 51
286.48103983
  0
ARC
  5
339
330
1F
100
AcDbEntity
  8
0
  6
LTYPE4
 62
     2
100
AcDbCircle
 10
380.445353294
 20
266.275219482
 30
0.0
 40
9.53125
100
AcDbArc
 50
233.51896017
 51
286.48103983
  0
LINE
  5
33A
330
1F
100
AcDbEntity
  8
0
  6
LTYPE4
 62
     2
100
AcDbLine
 10
393.834723752
 20
274.544559559
 30
0.0
 11
394.645883327
 21
273.386103628
 31
0.0
  0
LINE
  5
33B
330
1F
100
AcDbEntity
  8
0
  6
LTYPE4
 62
     2
100
AcDbLine
 10
393.834723752
 20
274.544559559
 30
0.0
 11
379.062607456
 21
277.149282224
 31
0.0
  0
ARC
  5
33C
330
1F
100
AcDbEntity
  8
0
  6
LTYPE4
 62
     2
100
AcDbCircle
 10
388.979014361
 20
265.722467241
 30
0.0
 40
9.53125
100
AcDbArc
 50
53.51896017
 51
106.48103983
  0
LINE
  5
33D
330
1F
100
AcDbEntity
  8
0
  6
LTYPE4
 62
     2
100
AcDbLine
 10
379.062607456
 20
277.149282224
 30
0.0
 11
377.904151526
 21
276.338122649
 31
0.0
  0
ARC
  5
33E
330
1F
100
AcDbEntity
  8
0
  6
LTYPE4
 62
     2
100
AcDbCircle
 10
380.60814846
 20
267.198476751
 30
0.0
 40
9.53125
100
AcDbArc
 50
53.51896017
 51
106.48103983
  0
LINE
  5
33F
330
1F
100
AcDbEntity
  8
0
  6
LTYPE4
 62
     2
100
AcDbLine
 10
374.778484328
 20
258.611583094
 30
0.0
 11
377.904151526
 21
276.338122649
 31
0.0
  0
LINE
  5
340
330
1F
100
AcDbEntity
  8
0
  6
LTYPE4
 62
     2
100
AcDbLine
 10
383.149350228
 20
257.135573584
 30
0.0
 11
386.275017426
 21
274.862113139
 31
0.0
  0
LINE
  5
341
330
1F
100
AcDbEntity
  8
0
  6
LTYPE4
 62
     2
100
AcDbLine
 10
391.520216129
 20
255.659564074
 30
0.0
 11
394.645883327
 21
273.386103628
 31
0.0
  0
LINE
  5
342
330
1F
100
AcDbEntity
  8
0
  6
LTYPE4
 62
     2
100
AcDbLine
 10
379.036471039
 20
256.845358542
 30
0.0
 11
376.779044729
 21
244.042857753
 31
0.0
  0
LINE
  5
343
330
1F
100
AcDbEntity
  8
0
  6
LTYPE4
 62
     2
100
AcDbLine
 10
384.657506753
 20
242.653672331
 30
0.0
 11
386.914933063
 21
255.456173121
 31
0.0
  0
LINE
  5
344
330
1F
100
AcDbEntity
  8
0
  6
LTYPE4
 62
     2
100
AcDbLine
 10
386.937463122
 20
301.654111304
 30
0.0
 11
382.509434592
 21
276.541513602
 31
0.0
  0
LINE
  5
345
330
1F
100
AcDbEntity
  8
0
  6
LTYPE4
 62
     2
100
AcDbLine
 10
390.387896616
 20
275.152328181
 30
0.0
 11
394.451263973
 21
298.196829601
 31
0.0
  0
ARC
  5
346
330
1F
100
AcDbEntity
  8
2
  6
Continuous
 62
     2
100
AcDbCircle
 10
107.7
 20
272.8
 30
0.0
 40
5.0
100
AcDbArc
 50
270.0
 51
0.0
  0
LINE
  5
347
330
1F
100
AcDbEntity
  8
2
  6
Continuous
 62
     2
100
AcDbLine
 10
112.7
 20
272.8
 30
0.0
 11
112.7
 21
297.8
 31
0.0
  0
LINE
  5
348
330
1F
100
AcDbEntity
  8
2
  6
Continuous
 62
     2
100
AcDbLine
 10
107.7
 20
302.8
 30
0.0
 11
170.7
 21
350.8
 31
0.0
  0
LINE
  5
349
330
1F
100
AcDbEntity
  8
2
  6
Continuous
 62
     2
100
AcDbLine
 10
170.7
 20
350.8
 30
0.0
 11
112.7
 21
297.8
 31
0.0
  0
ARC
  5
34A
330
1F
100
AcDbEntity
  8
2
  6
Continuous
 62
     2
100
AcDbCircle
 10
57.7
 20
272.8
 30
0.0
 40
5.0
100
AcDbArc
 50
180.0
 51
270.0
  0
LINE
  5
34B
330
1F
100
AcDbEntity
  8
2
  6
Continuous
 62
     2
100
AcDbLine
 10
57.7
 20
267.8
 30
0.0
 11
107.7
 21
267.8
 31
0.0
  0
ARC
  5
34C
330
1F
100
AcDbEntity
  8
2
  6
Continuous
 62
     2
100
AcDbCircle
 10
57.7
 20
297.8
 30
0.0
 40
5.0
100
AcDbArc
 50
90.0
 51
180.0
  0
LINE
  5
34D
330
1F
100
AcDbEntity
  8
2
  6
Continuous
 62
     2
100
AcDbLine
 10
107.7
 20
302.8
 30
0.0
 11
57.7
 21
302.8
 31
0.0
  0
LINE
  5
34E
330
1F
100
AcDbEntity
  8
2
  6
Continuous
 62
     2
100
AcDbLine
 10
52.7
 20
297.8
 30
0.0
 11
52.7
 21
272.8
 31
0.0
  0
LINE
  5
34F
330
1F
100
AcDbEntity
  8
2
  6
Continuous
 62
     2
100
AcDbLine
 10
77.607477288
 20
294.8
 30
0.0
 11
67.792522712
 21
294.8
 31
0.0
  0
LINE
  5
350
330
1F
100
AcDbEntity
  8
2
  6
Continuous
 62
     2
100
AcDbLine
 10
67.792522712
 20
294.8
 30
0.0
 11
62.885045424
 21
286.3
 31
0.0
  0
LINE
  5
351
330
1F
100
AcDbEntity
  8
2
  6
Continuous
 62
     2
100
AcDbLine
 10
82.514954576
 20
286.3
 30
0.0
 11
77.607477288
 21
294.8
 31
0.0
  0
LINE
  5
352
330
1F
100
AcDbEntity
  8
2
  6
Continuous
 62
     2
100
AcDbLine
 10
77.607477288
 20
277.8
 30
0.0
 11
82.514954576
 21
286.3
 31
0.0
  0
CIRCLE
  5
353
330
1F
100
AcDbEntity
  8
2
  6
Continuous
 62
     2
100
AcDbCircle
 10
72.7
 20
286.3
 30
0.0
 40
3.6
  0
CIRCLE
  5
354
330
1F
100
AcDbEntity
  8
2
  6
Continuous
 62
     2
100
AcDbCircle
 10
72.7
 20
286.3
 30
0.0
 40
4.0
  0
LINE
  5
355
330
1F
100
AcDbEntity
  8
2
  6
Continuous
 62
     2
100
AcDbLine
 10
62.885045424
 20
286.3
 30
0.0
 11
67.792522712
 21
277.8
 31
0.0
  0
LINE
  5
356
330
1F
100
AcDbEntity
  8
2
  6
Continuous
 62
     2
100
AcDbLine
 10
67.792522712
 20
277.8
 30
0.0
 11
77.607477288
 21
277.8
 31
0.0
  0
CIRCLE
  5
357
330
1F
100
AcDbEntity
  8
2
  6
Continuous
 62
     2
100
AcDbCircle
 10
72.7
 20
286.3
 30
0.0
 40
8.5
  0
LINE
  5
358
330
1F
100
AcDbEntity
  8
2
  6
LTYPE3
 62
     2
100
AcDbLine
 10
87.7
 20
286.3
 30
0.0
 11
57.7
 21
286.3
 31
0.0
  0
LINE
  5
359
330
1F
100
AcDbEntity
  8
2
  6
LTYPE3
 62
     2
100
AcDbLine
 10
72.7
 20
296.3
 30
0.0
 11
72.7
 21
276.3
 31
0.0
  0
LINE
  5
35A
330
1F
100
AcDbEntity
  8
2
  6
LTYPE3
 62
     2
100
AcDbLine
 10
107.7
 20
376.3
 30
0.0
 11
77.7
 21
376.3
 31
0.0
  0
LINE
  5
35B
330
1F
100
AcDbEntity
  8
2
  6
LTYPE3
 62
     2
100
AcDbLine
 10
92.7
 20
386.3
 30
0.0
 11
92.7
 21
366.3
 31
0.0
  0
ARC
  5
35C
330
1F
100
AcDbEntity
  8
2
  6
Continuous
 62
     2
100
AcDbCircle
 10
107.7
 20
386.3
 30
0.0
 40
5.0
100
AcDbArc
 50
0.0
 51
90.0
  0
LINE
  5
35D
330
1F
100
AcDbEntity
  8
2
  6
Continuous
 62
     2
100
AcDbLine
 10
112.7
 20
382.3
 30
0.0
 11
170.2
 21
365.8
 31
0.0
  0
LINE
  5
35E
330
1F
100
AcDbEntity
  8
2
  6
Continuous
 62
     2
100
AcDbLine
 10
170.2
 20
365.8
 30
0.0
 11
112.7
 21
377.8
 31
0.0
  0
LINE
  5
35F
330
1F
100
AcDbEntity
  8
2
  6
Continuous
 62
     2
100
AcDbLine
 10
112.7
 20
382.3
 30
0.0
 11
112.7
 21
386.3
 31
0.0
  0
LINE
  5
360
330
1F
100
AcDbEntity
  8
2
  6
Continuous
 62
     2
100
AcDbLine
 10
112.7
 20
366.3
 30
0.0
 11
112.7
 21
377.8
 31
0.0
  0
ARC
  5
361
330
1F
100
AcDbEntity
  8
2
  6
Continuous
 62
     2
100
AcDbCircle
 10
107.7
 20
366.3
 30
0.0
 40
5.0
100
AcDbArc
 50
270.0
 51
0.0
  0
ARC
  5
362
330
1F
100
AcDbEntity
  8
2
  6
Continuous
 62
     2
100
AcDbCircle
 10
57.7
 20
366.3
 30
0.0
 40
5.0
100
AcDbArc
 50
180.0
 51
270.0
  0
LINE
  5
363
330
1F
100
AcDbEntity
  8
2
  6
Continuous
 62
     2
100
AcDbLine
 10
107.7
 20
391.3
 30
0.0
 11
57.7
 21
391.3
 31
0.0
  0
ARC
  5
364
330
1F
100
AcDbEntity
  8
2
  6
Continuous
 62
     2
100
AcDbCircle
 10
57.7
 20
386.3
 30
0.0
 40
5.0
100
AcDbArc
 50
90.0
 51
180.0
  0
LINE
  5
365
330
1F
100
AcDbEntity
  8
2
  6
Continuous
 62
     2
100
AcDbLine
 10
52.7
 20
386.3
 30
0.0
 11
52.7
 21
366.3
 31
0.0
  0
LINE
  5
366
330
1F
100
AcDbEntity
  8
2
  6
Continuous
 62
     2
100
AcDbLine
 10
57.7
 20
361.3
 30
0.0
 11
107.7
 21
361.3
 31
0.0
  0
LINE
  5
367
330
1F
100
AcDbEntity
  8
2
  6
Continuous
 62
     2
100
AcDbLine
 10
96.45277675
 20
369.8
 30
0.0
 11
100.205553499
 21
376.3
 31
0.0
  0
LINE
  5
368
330
1F
100
AcDbEntity
  8
2
  6
Continuous
 62
     2
100
AcDbLine
 10
96.45277675
 20
382.8
 30
0.0
 11
88.94722325
 21
382.8
 31
0.0
  0
LINE
  5
369
330
1F
100
AcDbEntity
  8
2
  6
Continuous
 62
     2
100
AcDbLine
 10
88.94722325
 20
382.8
 30
0.0
 11
85.194446501
 21
376.3
 31
0.0
  0
LINE
  5
36A
330
1F
100
AcDbEntity
  8
2
  6
Continuous
 62
     2
100
AcDbLine
 10
100.205553499
 20
376.3
 30
0.0
 11
96.45277675
 21
382.8
 31
0.0
  0
LINE
  5
36B
330
1F
100
AcDbEntity
  8
2
  6
Continuous
 62
     2
100
AcDbLine
 10
85.194446501
 20
376.3
 30
0.0
 11
88.94722325
 21
369.8
 31
0.0
  0
LINE
  5
36C
330
1F
100
AcDbEntity
  8
2
  6
Continuous
 62
     2
100
AcDbLine
 10
88.94722325
 20
369.8
 30
0.0
 11
96.45277675
 21
369.8
 31
0.0
  0
CIRCLE
  5
36D
330
1F
100
AcDbEntity
  8
2
  6
Continuous
 62
     2
100
AcDbCircle
 10
92.7
 20
376.3
 30
0.0
 40
3.6
  0
CIRCLE
  5
36E
330
1F
100
AcDbEntity
  8
2
  6
Continuous
 62
     2
100
AcDbCircle
 10
92.7
 20
376.3
 30
0.0
 40
4.0
  0
CIRCLE
  5
36F
330
1F
100
AcDbEntity
  8
2
  6
Continuous
 62
     2
100
AcDbCircle
 10
92.7
 20
376.3
 30
0.0
 40
6.5
  0
TEXT
  5
370
330
1F
100
AcDbEntity
  8
2
  6
Continuous
 62
     2
100
AcDbText
 10
20.6
 20
244.25
 30
0.0
 40
6.0
  1
注記  (  )内寸法は、バトン径%%c40
 41
0.9
  7
KANJI1
 72
     5
 11
139.9886
 21
244.25
 31
0.0
100
AcDbText
  0
TEXT
  5
372
330
1F
100
AcDbEntity
  8
2
  6
Continuous
 62
     2
100
AcDbText
 10
20.6
 20
232.25
 30
0.0
 40
6.0
  1
を使用したときの寸法をしめす。
 41
0.9
  7
KANJI1
 72
     5
 11
109.9916
 21
232.25
 31
0.0
100
AcDbText
  0
LINE
  5
373
330
1F
100
AcDbEntity
  8
1
  6
Continuous
 62
     2
100
AcDbLine
 10
449.0
 20
17.0
 30
0.0
 11
589.0
 21
17.0
 31
0.0
  0
LINE
  5
374
330
1F
100
AcDbEntity
  8
1
  6
Continuous
 62
     2
100
AcDbLine
 10
589.0
 20
29.0
 30
0.0
 11
449.0
 21
29.0
 31
0.0
  0
LINE
  5
375
330
1F
100
AcDbEntity
  8
1
  6
Continuous
 62
     2
100
AcDbLine
 10
449.0
 20
41.0
 30
0.0
 11
589.0
 21
41.0
 31
0.0
  0
LINE
  5
376
330
1F
100
AcDbEntity
  8
1
  6
Continuous
 62
     2
100
AcDbLine
 10
589.0
 20
53.0
 30
0.0
 11
449.0
 21
53.0
 31
0.0
  0
LINE
  5
377
330
1F
100
AcDbEntity
  8
1
  6
Continuous
 62
     2
100
AcDbLine
 10
449.0
 20
65.0
 30
0.0
 11
589.0
 21
65.0
 31
0.0
  0
LINE
  5
378
330
1F
100
AcDbEntity
  8
1
  6
Continuous
 62
     2
100
AcDbLine
 10
589.0
 20
77.0
 30
0.0
 11
449.0
 21
77.0
 31
0.0
  0
LINE
  5
379
330
1F
100
AcDbEntity
  8
1
  6
Continuous
 62
     2
100
AcDbLine
 10
449.0
 20
77.0
 30
0.0
 11
449.0
 21
5.0
 31
0.0
  0
TEXT
  5
37A
330
1F
100
AcDbEntity
  8
1
  6
Continuous
 62
     2
100
AcDbText
 10
454.0
 20
44.0
 30
0.0
 40
6.0
  1
黒色半艶消し焼付け塗装
 41
0.9
  7
KANJI1
 72
     5
 11
519.394
 21
44.0
 31
0.0
100
AcDbText
  0
LINE
  5
37B
330
1F
100
AcDbEntity
  8
1
  6
Continuous
 62
     2
100
AcDbLine
 10
5.0
 20
5.0
 30
0.0
 11
589.0
 21
5.0
 31
0.0
  0
LINE
  5
37C
330
1F
100
AcDbEntity
  8
1
  6
Continuous
 62
     2
100
AcDbLine
 10
589.0
 20
5.0
 30
0.0
 11
589.0
 21
415.0
 31
0.0
  0
TEXT
  5
37D
330
1F
100
AcDbEntity
  8
1
  6
Continuous
 62
     2
100
AcDbText
 10
454.0
 20
56.0
 30
0.0
 40
6.0
  1
バトンクランプハンガー
 41
0.9
  7
KANJI1
 72
     5
 11
519.394
 21
56.0
 31
0.0
100
AcDbText
  0
TEXT
  5
37E
330
1F
100
AcDbEntity
  8
1
  6
Continuous
 62
     2
100
AcDbText
 10
454.0
 20
32.0
 30
0.0
 40
6.0
  1
自重  2.3kg
 41
0.9
  7
KANJI1
 72
     5
 11
507.3952
 21
32.0
 31
0.0
100
AcDbText
  0
TEXT
  5
37F
330
1F
100
AcDbEntity
  8
1
  6
Continuous
 62
     2
100
AcDbText
 10
454.0
 20
20.0
 30
0.0
 40
6.0
  1
耐荷重  20kg(程度迄)
 41
0.9
  7
KANJI1
 72
     5
 11
537.3922
 21
20.0
 31
0.0
100
AcDbText
  0
TEXT
  5
380
330
1F
100
AcDbEntity
  8
1
  6
Continuous
 62
     2
100
AcDbText
 10
454.0
 20
67.0
 30
0.0
 40
8.0
  1
BCH-140
 41
0.9
  7
KANJI2
 72
     5
 11
509.1952
 21
67.0
 31
0.0
100
AcDbText
  0
TEXT
  5
382
330
1F
100
AcDbEntity
  8
1
  6
Continuous
 62
     2
100
AcDbText
 10
454.0
 20
8.0
 30
0.0
 40
6.0
  1
用紙 A4  尺度 1/2
 41
0.9
  7
KANJI1
 72
     5
 11
531.3928
 21
8.0
 31
0.0
100
AcDbText
  0
LINE
  5
383
330
1F
100
AcDbEntity
  8
1
  6
Continuous
 62
     2
100
AcDbLine
 10
5.0
 20
415.0
 30
0.0
 11
5.0
 21
5.0
 31
0.0
  0
LINE
  5
384
330
1F
100
AcDbEntity
  8
1
  6
Continuous
 62
     2
100
AcDbLine
 10
589.0
 20
415.0
 30
0.0
 11
5.0
 21
415.0
 31
0.0
  0
CIRCLE
  5
385
330
1F
100
AcDbEntity
  8
3
  6
Continuous
 62
     2
100
AcDbCircle
 10
427.7
 20
326.3
 30
0.0
 40
19.5
  0
CIRCLE
  5
386
330
1F
100
AcDbEntity
  8
3
  6
Continuous
 62
     2
100
AcDbCircle
 10
427.7
 20
326.3
 30
0.0
 40
20.0
  0
LINE
  5
387
330
1F
100
AcDbEntity
  8
3
  6
Continuous
 62
     2
100
AcDbLine
 10
135.2
 20
346.3
 30
0.0
 11
129.2
 21
340.3
 31
0.0
  0
LINE
  5
388
330
1F
100
AcDbEntity
  8
3
  6
Continuous
 62
     2
100
AcDbLine
 10
128.7
 20
334.8
 30
0.0
 11
140.2
 21
346.3
 31
0.0
  0
LINE
  5
389
330
1F
100
AcDbEntity
  8
3
  6
Continuous
 62
     2
100
AcDbLine
 10
145.2
 20
346.3
 30
0.0
 11
129.7
 21
330.8
 31
0.0
  0
LINE
  5
38A
330
1F
100
AcDbEntity
  8
3
  6
Continuous
 62
     2
100
AcDbLine
 10
130.7
 20
326.8
 30
0.0
 11
150.2
 21
346.3
 31
0.0
  0
LINE
  5
38B
330
1F
100
AcDbEntity
  8
3
  6
Continuous
 62
     2
100
AcDbLine
 10
154.7
 20
345.8
 30
0.0
 11
129.7
 21
320.8
 31
0.0
  0
LINE
  5
38C
330
1F
100
AcDbEntity
  8
3
  6
Continuous
 62
     2
100
AcDbLine
 10
154.7
 20
335.8
 30
0.0
 11
129.7
 21
310.8
 31
0.0
  0
LINE
  5
38D
330
1F
100
AcDbEntity
  8
3
  6
Continuous
 62
     2
100
AcDbLine
 10
130.7
 20
306.8
 30
0.0
 11
155.2
 21
331.3
 31
0.0
  0
LINE
  5
38E
330
1F
100
AcDbEntity
  8
3
  6
Continuous
 62
     2
100
AcDbLine
 10
160.2
 20
331.3
 30
0.0
 11
135.2
 21
306.3
 31
0.0
  0
LINE
  5
38F
330
1F
100
AcDbEntity
  8
3
  6
Continuous
 62
     2
100
AcDbLine
 10
140.2
 20
306.3
 30
0.0
 11
154.7
 21
320.8
 31
0.0
  0
LINE
  5
390
330
1F
100
AcDbEntity
  8
3
  6
Continuous
 62
     2
100
AcDbLine
 10
154.7
 20
315.8
 30
0.0
 11
145.2
 21
306.3
 31
0.0
  0
LINE
  5
391
330
1F
100
AcDbEntity
  8
3
  6
Continuous
 62
     2
100
AcDbLine
 10
150.2
 20
306.3
 30
0.0
 11
154.7
 21
310.8
 31
0.0
  0
LINE
  5
392
330
1F
100
AcDbEntity
  8
3
  6
Continuous
 62
     2
100
AcDbLine
 10
146.7
 20
332.8
 30
0.0
 11
154.7
 21
340.8
 31
0.0
  0
LINE
  5
393
330
1F
100
AcDbEntity
  8
3
  6
Continuous
 62
     2
100
AcDbLine
 10
155.2
 20
321.3
 30
0.0
 11
165.2
 21
331.3
 31
0.0
  0
LINE
  5
394
330
1F
100
AcDbEntity
  8
3
  6
Continuous
 62
     2
100
AcDbLine
 10
170.2
 20
331.3
 30
0.0
 11
160.2
 21
321.3
 31
0.0
  0
LINE
  5
395
330
1F
100
AcDbEntity
  8
3
  6
Continuous
 62
     2
100
AcDbLine
 10
165.2
 20
321.3
 30
0.0
 11
173.7
 21
329.8
 31
0.0
  0
LINE
  5
396
330
1F
100
AcDbEntity
  8
3
  6
Continuous
 62
     2
100
AcDbLine
 10
173.7
 20
324.8
 30
0.0
 11
170.2
 21
321.3
 31
0.0
  0
LINE
  5
397
330
1F
100
AcDbEntity
  8
3
  6
Continuous
 62
     2
100
AcDbLine
 10
181.7
 20
327.8
 30
0.0
 11
185.2
 21
331.3
 31
0.0
  0
LINE
  5
398
330
1F
100
AcDbEntity
  8
3
  6
Continuous
 62
     2
100
AcDbLine
 10
190.2
 20
331.3
 30
0.0
 11
181.7
 21
322.8
 31
0.0
  0
LINE
  5
399
330
1F
100
AcDbEntity
  8
3
  6
Continuous
 62
     2
100
AcDbLine
 10
185.2
 20
321.3
 30
0.0
 11
195.2
 21
331.3
 31
0.0
  0
LINE
  5
39A
330
1F
100
AcDbEntity
  8
3
  6
Continuous
 62
     2
100
AcDbLine
 10
200.2
 20
331.3
 30
0.0
 11
190.2
 21
321.3
 31
0.0
  0
LINE
  5
39B
330
1F
100
AcDbEntity
  8
3
  6
Continuous
 62
     2
100
AcDbLine
 10
195.2
 20
321.3
 30
0.0
 11
220.2
 21
346.3
 31
0.0
  0
LINE
  5
39C
330
1F
100
AcDbEntity
  8
3
  6
Continuous
 62
     2
100
AcDbLine
 10
225.2
 20
346.3
 30
0.0
 11
200.2
 21
321.3
 31
0.0
  0
LINE
  5
39D
330
1F
100
AcDbEntity
  8
3
  6
Continuous
 62
     2
100
AcDbLine
 10
200.7
 20
316.8
 30
0.0
 11
230.2
 21
346.3
 31
0.0
  0
LINE
  5
39E
330
1F
100
AcDbEntity
  8
3
  6
Continuous
 62
     2
100
AcDbLine
 10
228.7
 20
339.8
 30
0.0
 11
200.7
 21
311.8
 31
0.0
  0
LINE
  5
39F
330
1F
100
AcDbEntity
  8
3
  6
Continuous
 62
     2
100
AcDbLine
 10
200.7
 20
306.8
 30
0.0
 11
228.7
 21
334.8
 31
0.0
  0
LINE
  5
3A0
330
1F
100
AcDbEntity
  8
3
  6
Continuous
 62
     2
100
AcDbLine
 10
229.7
 20
330.8
 30
0.0
 11
205.2
 21
306.3
 31
0.0
  0
LINE
  5
3A1
330
1F
100
AcDbEntity
  8
3
  6
Continuous
 62
     2
100
AcDbLine
 10
210.2
 20
306.3
 30
0.0
 11
230.2
 21
326.3
 31
0.0
  0
LINE
  5
3A2
330
1F
100
AcDbEntity
  8
3
  6
Continuous
 62
     2
100
AcDbLine
 10
205.2
 20
346.3
 30
0.0
 11
200.7
 21
341.8
 31
0.0
  0
LINE
  5
3A3
330
1F
100
AcDbEntity
  8
3
  6
Continuous
 62
     2
100
AcDbLine
 10
200.7
 20
336.8
 30
0.0
 11
210.2
 21
346.3
 31
0.0
  0
LINE
  5
3A4
330
1F
100
AcDbEntity
  8
3
  6
Continuous
 62
     2
100
AcDbLine
 10
215.2
 20
346.3
 30
0.0
 11
200.7
 21
331.8
 31
0.0
  0
LINE
  5
3A5
330
1F
100
AcDbEntity
  8
3
  6
Continuous
 62
     2
100
AcDbLine
 10
229.2
 20
320.3
 30
0.0
 11
215.2
 21
306.3
 31
0.0
  0
LINE
  5
3A6
330
1F
100
AcDbEntity
  8
3
  6
Continuous
 62
     2
100
AcDbLine
 10
220.2
 20
306.3
 30
0.0
 11
228.7
 21
314.8
 31
0.0
  0
LINE
  5
3A7
330
1F
100
AcDbEntity
  8
3
  6
Continuous
 62
     2
100
AcDbLine
 10
229.2
 20
310.3
 30
0.0
 11
225.2
 21
306.3
 31
0.0
  0
LINE
  5
3A8
330
1F
100
AcDbEntity
  8
6
  6
Continuous
 62
     2
100
AcDbLine
 10
472.7
 20
341.3
 30
0.0
 11
472.7
 21
402.8
 31
0.0
  0
LINE
  5
3A9
330
1F
100
AcDbEntity
  8
6
  6
Continuous
 62
     2
100
AcDbLine
 10
377.7
 20
346.3
 30
0.0
 11
377.7
 21
402.8
 31
0.0
  0
LINE
  5
3AA
330
1F
100
AcDbEntity
  8
6
  6
Continuous
 62
     2
100
AcDbLine
 10
427.7
 20
336.3
 30
0.0
 11
427.7
 21
397.8
 31
0.0
  0
LINE
  5
3AB
330
1F
100
AcDbEntity
  8
6
  6
Continuous
 62
     2
100
AcDbLine
 10
427.7
 20
396.3
 30
0.0
 11
429.631851653
 21
395.78236191
 31
0.0
  0
LINE
  5
3AC
330
1F
100
AcDbEntity
  8
6
  6
Continuous
 62
     2
100
AcDbLine
 10
427.7
 20
396.3
 30
0.0
 11
429.631851653
 21
396.81763809
 31
0.0
  0
LINE
  5
3AD
330
1F
100
AcDbEntity
  8
6
  6
Continuous
 62
     2
100
AcDbLine
 10
427.7
 20
396.3
 30
0.0
 11
472.7
 21
396.3
 31
0.0
  0
LINE
  5
3AE
330
1F
100
AcDbEntity
  8
6
  6
Continuous
 62
     2
100
AcDbLine
 10
472.7
 20
396.3
 30
0.0
 11
470.768148347
 21
396.81763809
 31
0.0
  0
LINE
  5
3AF
330
1F
100
AcDbEntity
  8
6
  6
Continuous
 62
     2
100
AcDbLine
 10
472.7
 20
396.3
 30
0.0
 11
470.768148347
 21
395.78236191
 31
0.0
  0
TEXT
  5
3B0
330
1F
100
AcDbEntity
  8
6
  6
Continuous
 62
     2
100
AcDbText
 10
448.25
 20
397.3
 30
0.0
 40
3.0
  1
45
 41
0.6
  7
KANJI3
 72
     5
 11
452.1506
 21
397.3
 31
0.0
100
AcDbText
  0
LINE
  5
3B2
330
1F
100
AcDbEntity
  8
6
  6
Continuous
 62
     2
100
AcDbLine
 10
427.7
 20
396.3
 30
0.0
 11
425.768148347
 21
396.81763809
 31
0.0
  0
LINE
  5
3B3
330
1F
100
AcDbEntity
  8
6
  6
Continuous
 62
     2
100
AcDbLine
 10
427.7
 20
396.3
 30
0.0
 11
425.768148347
 21
395.78236191
 31
0.0
  0
LINE
  5
3B4
330
1F
100
AcDbEntity
  8
6
  6
Continuous
 62
     2
100
AcDbLine
 10
427.7
 20
396.3
 30
0.0
 11
377.7
 21
396.3
 31
0.0
  0
LINE
  5
3B5
330
1F
100
AcDbEntity
  8
6
  6
Continuous
 62
     2
100
AcDbLine
 10
377.7
 20
396.3
 30
0.0
 11
379.631851653
 21
395.78236191
 31
0.0
  0
LINE
  5
3B6
330
1F
100
AcDbEntity
  8
6
  6
Continuous
 62
     2
100
AcDbLine
 10
377.7
 20
396.3
 30
0.0
 11
379.631851653
 21
396.81763809
 31
0.0
  0
TEXT
  5
3B7
330
1F
100
AcDbEntity
  8
6
  6
Continuous
 62
     2
100
AcDbText
 10
400.75
 20
397.3
 30
0.0
 40
3.0
  1
50
 41
0.6
  7
KANJI3
 72
     5
 11
404.6506
 21
397.3
 31
0.0
100
AcDbText
  0
LINE
  5
3B8
330
1F
100
AcDbEntity
  8
6
  6
Continuous
 62
     2
100
AcDbLine
 10
377.7
 20
406.3
 30
0.0
 11
379.631851653
 21
405.78236191
 31
0.0
  0
LINE
  5
3B9
330
1F
100
AcDbEntity
  8
6
  6
Continuous
 62
     2
100
AcDbLine
 10
377.7
 20
406.3
 30
0.0
 11
379.631851653
 21
406.81763809
 31
0.0
  0
LINE
  5
3BA
330
1F
100
AcDbEntity
  8
6
  6
Continuous
 62
     2
100
AcDbLine
 10
377.7
 20
406.3
 30
0.0
 11
472.7
 21
406.3
 31
0.0
  0
LINE
  5
3BB
330
1F
100
AcDbEntity
  8
6
  6
Continuous
 62
     2
100
AcDbLine
 10
472.7
 20
406.3
 30
0.0
 11
470.768148347
 21
406.81763809
 31
0.0
  0
LINE
  5
3BC
330
1F
100
AcDbEntity
  8
6
  6
Continuous
 62
     2
100
AcDbLine
 10
472.7
 20
406.3
 30
0.0
 11
470.768148347
 21
405.78236191
 31
0.0
  0
TEXT
  5
3BD
330
1F
100
AcDbEntity
  8
6
  6
Continuous
 62
     2
100
AcDbText
 10
423.25
 20
407.3
 30
0.0
 40
3.0
  1
95
 41
0.6
  7
KANJI3
 72
     5
 11
427.1506
 21
407.3
 31
0.0
100
AcDbText
  0
LINE
  5
3BE
330
1F
100
AcDbEntity
  8
6
  6
Continuous
 62
     2
100
AcDbLine
 10
472.7
 20
401.3
 30
0.0
 11
472.7
 21
407.8
 31
0.0
  0
LINE
  5
3BF
330
1F
100
AcDbEntity
  8
6
  6
Continuous
 62
     2
100
AcDbLine
 10
377.7
 20
401.3
 30
0.0
 11
377.7
 21
407.8
 31
0.0
  0
LINE
  5
3C0
330
1F
100
AcDbEntity
  8
6
  6
Continuous
 62
     2
100
AcDbLine
 10
279.7
 20
151.7
 30
0.0
 11
280.21763809
 21
153.631851653
 31
0.0
  0
LINE
  5
3C1
330
1F
100
AcDbEntity
  8
6
  6
Continuous
 62
     2
100
AcDbLine
 10
279.7
 20
151.7
 30
0.0
 11
279.18236191
 21
153.631851653
 31
0.0
  0
LINE
  5
3C2
330
1F
100
AcDbEntity
  8
6
  6
Continuous
 62
     2
100
AcDbLine
 10
279.7
 20
151.7
 30
0.0
 11
279.7
 21
161.7
 31
0.0
  0
LINE
  5
3C3
330
1F
100
AcDbEntity
  8
6
  6
Continuous
 62
     2
100
AcDbLine
 10
279.7
 20
161.7
 30
0.0
 11
279.18236191
 21
159.768148347
 31
0.0
  0
LINE
  5
3C4
330
1F
100
AcDbEntity
  8
6
  6
Continuous
 62
     2
100
AcDbLine
 10
279.7
 20
161.7
 30
0.0
 11
280.21763809
 21
159.768148347
 31
0.0
  0
TEXT
  5
3C5
330
1F
100
AcDbEntity
  8
6
  6
Continuous
 62
     2
100
AcDbText
 10
278.7
 20
154.75
 30
0.0
 40
3.0
  1
10
 50
90.0
 41
0.6
  7
KANJI3
 72
     5
 11
278.7
 21
158.6506
 31
0.0
100
AcDbText
  0
LINE
  5
3C6
330
1F
100
AcDbEntity
  8
6
  6
Continuous
 62
     2
100
AcDbLine
 10
271.7
 20
151.7
 30
0.0
 11
271.18236191
 21
149.768148347
 31
0.0
  0
LINE
  5
3C7
330
1F
100
AcDbEntity
  8
6
  6
Continuous
 62
     2
100
AcDbLine
 10
271.7
 20
151.7
 30
0.0
 11
272.21763809
 21
149.768148347
 31
0.0
  0
LINE
  5
3C8
330
1F
100
AcDbEntity
  8
6
  6
Continuous
 62
     2
100
AcDbLine
 10
271.7
 20
141.7
 30
0.0
 11
271.7
 21
158.3
 31
0.0
  0
LINE
  5
3C9
330
1F
100
AcDbEntity
  8
6
  6
Continuous
 62
     2
100
AcDbLine
 10
271.7
 20
154.3
 30
0.0
 11
272.21763809
 21
156.231851653
 31
0.0
  0
LINE
  5
3CA
330
1F
100
AcDbEntity
  8
6
  6
Continuous
 62
     2
100
AcDbLine
 10
271.7
 20
154.3
 30
0.0
 11
271.18236191
 21
156.231851653
 31
0.0
  0
LINE
  5
3CB
330
1F
100
AcDbEntity
  8
6
  6
Continuous
 62
     2
100
AcDbLine
 10
213.7
 20
191.3
 30
0.0
 11
291.7
 21
191.3
 31
0.0
  0
LINE
  5
3CC
330
1F
100
AcDbEntity
  8
6
  6
Continuous
 62
     2
100
AcDbLine
 10
269.7
 20
154.3
 30
0.0
 11
273.2
 21
154.3
 31
0.0
  0
LINE
  5
3CD
330
1F
100
AcDbEntity
  8
6
  6
Continuous
 62
     2
100
AcDbLine
 10
267.7
 20
161.7
 30
0.0
 11
281.2
 21
161.7
 31
0.0
  0
LINE
  5
3CE
330
1F
100
AcDbEntity
  8
6
  6
Continuous
 62
     2
100
AcDbLine
 10
269.2
 20
151.7
 30
0.0
 11
291.2
 21
151.7
 31
0.0
  0
LINE
  5
3CF
330
1F
100
AcDbEntity
  8
6
  6
Continuous
 62
     2
100
AcDbLine
 10
289.7
 20
151.7
 30
0.0
 11
290.21763809
 21
153.631851653
 31
0.0
  0
LINE
  5
3D0
330
1F
100
AcDbEntity
  8
6
  6
Continuous
 62
     2
100
AcDbLine
 10
289.7
 20
151.7
 30
0.0
 11
289.18236191
 21
153.631851653
 31
0.0
  0
LINE
  5
3D1
330
1F
100
AcDbEntity
  8
6
  6
Continuous
 62
     2
100
AcDbLine
 10
289.7
 20
151.7
 30
0.0
 11
289.7
 21
191.3
 31
0.0
  0
LINE
  5
3D2
330
1F
100
AcDbEntity
  8
6
  6
Continuous
 62
     2
100
AcDbLine
 10
289.7
 20
191.3
 30
0.0
 11
289.18236191
 21
189.368148347
 31
0.0
  0
LINE
  5
3D3
330
1F
100
AcDbEntity
  8
6
  6
Continuous
 62
     2
100
AcDbLine
 10
289.7
 20
191.3
 30
0.0
 11
290.21763809
 21
189.368148347
 31
0.0
  0
LINE
  5
3D4
330
1F
100
AcDbEntity
  8
6
  6
Continuous
 62
     2
100
AcDbLine
 10
289.7
 20
191.3
 30
0.0
 11
291.2
 21
191.3
 31
0.0
  0
TEXT
  5
3D5
330
1F
100
AcDbEntity
  8
6
  6
Continuous
 62
     2
100
AcDbText
 10
288.7
 20
169.55
 30
0.0
 40
3.0
  1
40
 50
90.0
 41
0.6
  7
KANJI3
 72
     5
 11
288.7
 21
173.4506
 31
0.0
100
AcDbText
  0
LINE
  5
3D6
330
1F
100
AcDbEntity
  8
6
  6
Continuous
 62
     2
100
AcDbLine
 10
289.7
 20
191.3
 30
0.0
 11
290.21763809
 21
193.231851653
 31
0.0
  0
LINE
  5
3D7
330
1F
100
AcDbEntity
  8
6
  6
Continuous
 62
     2
100
AcDbLine
 10
289.7
 20
191.3
 30
0.0
 11
289.18236191
 21
193.231851653
 31
0.0
  0
LINE
  5
3D8
330
1F
100
AcDbEntity
  8
6
  6
Continuous
 62
     2
100
AcDbLine
 10
289.7
 20
191.3
 30
0.0
 11
289.7
 21
326.3
 31
0.0
  0
LINE
  5
3D9
330
1F
100
AcDbEntity
  8
6
  6
Continuous
 62
     2
100
AcDbLine
 10
289.7
 20
326.3
 30
0.0
 11
289.18236191
 21
324.368148347
 31
0.0
  0
LINE
  5
3DA
330
1F
100
AcDbEntity
  8
6
  6
Continuous
 62
     2
100
AcDbLine
 10
289.7
 20
326.3
 30
0.0
 11
290.21763809
 21
324.368148347
 31
0.0
  0
TEXT
  5
3DB
330
1F
100
AcDbEntity
  8
6
  6
Continuous
 62
     2
100
AcDbText
 10
288.7
 20
253.7
 30
0.0
 40
3.0
  1
(135)
 50
90.0
 41
0.6
  7
KANJI3
 72
     5
 11
288.7
 21
263.9024
 31
0.0
100
AcDbText
  0
LINE
  5
3DC
330
1F
100
AcDbEntity
  8
6
  6
Continuous
 62
     2
100
AcDbLine
 10
163.2
 20
326.3
 30
0.0
 11
291.7
 21
326.3
 31
0.0
  0
LINE
  5
3DD
330
1F
100
AcDbEntity
  8
6
  6
Continuous
 62
     2
100
AcDbLine
 10
289.7
 20
151.7
 30
0.0
 11
301.2
 21
151.7
 31
0.0
  0
LINE
  5
3DE
330
1F
100
AcDbEntity
  8
6
  6
Continuous
 62
     2
100
AcDbLine
 10
299.7
 20
151.7
 30
0.0
 11
300.21763809
 21
153.631851653
 31
0.0
  0
LINE
  5
3DF
330
1F
100
AcDbEntity
  8
6
  6
Continuous
 62
     2
100
AcDbLine
 10
299.7
 20
151.7
 30
0.0
 11
299.18236191
 21
153.631851653
 31
0.0
  0
LINE
  5
3E0
330
1F
100
AcDbEntity
  8
6
  6
Continuous
 62
     2
100
AcDbLine
 10
299.7
 20
151.7
 30
0.0
 11
299.7
 21
326.7
 31
0.0
  0
TEXT
  5
3E1
330
1F
100
AcDbEntity
  8
6
  6
Continuous
 62
     2
100
AcDbText
 10
298.7
 20
234.1
 30
0.0
 40
3.0
  1
(175)
 50
90.0
 41
0.6
  7
KANJI3
 72
     5
 11
298.7
 21
244.3024
 31
0.0
100
AcDbText
  0
LINE
  5
3E2
330
1F
100
AcDbEntity
  8
6
  6
Continuous
 62
     2
100
AcDbLine
 10
299.7
 20
326.7
 30
0.0
 11
299.7
 21
363.2
 31
0.0
  0
LINE
  5
3E3
330
1F
100
AcDbEntity
  8
6
  6
Continuous
 62
     2
100
AcDbLine
 10
299.7
 20
363.2
 30
0.0
 11
299.18236191
 21
361.268148347
 31
0.0
  0
LINE
  5
3E4
330
1F
100
AcDbEntity
  8
6
  6
Continuous
 62
     2
100
AcDbLine
 10
299.7
 20
363.2
 30
0.0
 11
300.21763809
 21
361.268148347
 31
0.0
  0
LINE
  5
3E5
330
1F
100
AcDbEntity
  8
6
  6
Continuous
 62
     2
100
AcDbLine
 10
194.7
 20
363.2
 30
0.0
 11
301.2
 21
363.2
 31
0.0
  0
TEXT
  5
3E6
330
1F
100
AcDbEntity
  8
6
  6
Continuous
 62
     2
100
AcDbText
 10
298.7
 20
340.9
 30
0.0
 40
3.0
  1
(37)
 50
90.0
 41
0.6
  7
KANJI3
 72
     5
 11
298.7
 21
349.0018
 31
0.0
100
AcDbText
  0
LINE
  5
3E7
330
1F
100
AcDbEntity
  8
6
  6
Continuous
 62
     2
100
AcDbLine
 10
299.7
 20
363.2
 30
0.0
 11
300.21763809
 21
365.131851653
 31
0.0
  0
LINE
  5
3E8
330
1F
100
AcDbEntity
  8
6
  6
Continuous
 62
     2
100
AcDbLine
 10
299.7
 20
363.2
 30
0.0
 11
299.18236191
 21
365.131851653
 31
0.0
  0
LINE
  5
3E9
330
1F
100
AcDbEntity
  8
6
  6
Continuous
 62
     2
100
AcDbLine
 10
299.7
 20
363.2
 30
0.0
 11
299.7
 21
391.2
 31
0.0
  0
LINE
  5
3EA
330
1F
100
AcDbEntity
  8
6
  6
Continuous
 62
     2
100
AcDbLine
 10
299.7
 20
391.2
 30
0.0
 11
299.18236191
 21
389.268148347
 31
0.0
  0
LINE
  5
3EB
330
1F
100
AcDbEntity
  8
6
  6
Continuous
 62
     2
100
AcDbLine
 10
299.7
 20
391.2
 30
0.0
 11
300.21763809
 21
389.268148347
 31
0.0
  0
LINE
  5
3EC
330
1F
100
AcDbEntity
  8
6
  6
Continuous
 62
     2
100
AcDbLine
 10
184.7
 20
391.2
 30
0.0
 11
301.2
 21
391.2
 31
0.0
  0
TEXT
  5
3ED
330
1F
100
AcDbEntity
  8
6
  6
Continuous
 62
     2
100
AcDbText
 10
298.7
 20
373.15
 30
0.0
 40
3.0
  1
(28)
 50
90.0
 41
0.6
  7
KANJI3
 72
     5
 11
298.7
 21
381.2518
 31
0.0
100
AcDbText
  0
LINE
  5
3EE
330
1F
100
AcDbEntity
  8
6
  6
Continuous
 62
     2
100
AcDbLine
 10
299.7
 20
363.2
 30
0.0
 11
311.2
 21
363.2
 31
0.0
  0
LINE
  5
3EF
330
1F
100
AcDbEntity
  8
6
  6
Continuous
 62
     2
100
AcDbLine
 10
309.7
 20
363.2
 30
0.0
 11
309.18236191
 21
361.268148347
 31
0.0
  0
LINE
  5
3F0
330
1F
100
AcDbEntity
  8
6
  6
Continuous
 62
     2
100
AcDbLine
 10
309.7
 20
363.2
 30
0.0
 11
310.21763809
 21
361.268148347
 31
0.0
  0
LINE
  5
3F1
330
1F
100
AcDbEntity
  8
6
  6
Continuous
 62
     2
100
AcDbLine
 10
309.7
 20
363.2
 30
0.0
 11
309.7
 21
151.7
 31
0.0
  0
LINE
  5
3F2
330
1F
100
AcDbEntity
  8
6
  6
Continuous
 62
     2
100
AcDbLine
 10
309.7
 20
151.7
 30
0.0
 11
310.21763809
 21
153.631851653
 31
0.0
  0
LINE
  5
3F3
330
1F
100
AcDbEntity
  8
6
  6
Continuous
 62
     2
100
AcDbLine
 10
309.7
 20
151.7
 30
0.0
 11
309.18236191
 21
153.631851653
 31
0.0
  0
LINE
  5
3F4
330
1F
100
AcDbEntity
  8
6
  6
Continuous
 62
     2
100
AcDbLine
 10
299.7
 20
151.7
 30
0.0
 11
311.2
 21
151.7
 31
0.0
  0
TEXT
  5
3F5
330
1F
100
AcDbEntity
  8
6
  6
Continuous
 62
     2
100
AcDbText
 10
308.7
 20
252.35
 30
0.0
 40
3.0
  1
(212)
 50
90.0
 41
0.6
  7
KANJI3
 72
     5
 11
308.7
 21
262.5524
 31
0.0
100
AcDbText
  0
LINE
  5
3F6
330
1F
100
AcDbEntity
  8
6
  6
Continuous
 62
     2
100
AcDbLine
 10
299.7
 20
326.3
 30
0.0
 11
299.18236191
 21
324.368148347
 31
0.0
  0
LINE
  5
3F7
330
1F
100
AcDbEntity
  8
6
  6
Continuous
 62
     2
100
AcDbLine
 10
289.7
 20
326.3
 30
0.0
 11
301.2
 21
326.3
 31
0.0
  0
LINE
  5
3F8
330
1F
100
AcDbEntity
  8
6
  6
Continuous
 62
     2
100
AcDbLine
 10
299.7
 20
326.3
 30
0.0
 11
299.18236191
 21
328.231851653
 31
0.0
  0
LINE
  5
3F9
330
1F
100
AcDbEntity
  8
6
  6
Continuous
 62
     2
100
AcDbLine
 10
299.7
 20
326.25
 30
0.0
 11
300.21763809
 21
324.318148347
 31
0.0
  0
LINE
  5
3FA
330
1F
100
AcDbEntity
  8
6
  6
Continuous
 62
     2
100
AcDbLine
 10
299.7
 20
326.25
 30
0.0
 11
300.21763809
 21
328.181851653
 31
0.0
  0
LINE
  5
3FB
330
1F
100
AcDbEntity
  8
6
  6
Continuous
 62
     2
100
AcDbLine
 10
309.7
 20
151.7
 30
0.0
 11
321.2
 21
151.7
 31
0.0
  0
LINE
  5
3FC
330
1F
100
AcDbEntity
  8
6
  6
Continuous
 62
     2
100
AcDbLine
 10
319.7
 20
151.7
 30
0.0
 11
320.21763809
 21
153.631851653
 31
0.0
  0
LINE
  5
3FD
330
1F
100
AcDbEntity
  8
6
  6
Continuous
 62
     2
100
AcDbLine
 10
319.7
 20
151.7
 30
0.0
 11
319.18236191
 21
153.631851653
 31
0.0
  0
LINE
  5
3FE
330
1F
100
AcDbEntity
  8
6
  6
Continuous
 62
     2
100
AcDbLine
 10
319.7
 20
151.7
 30
0.0
 11
319.7
 21
391.2
 31
0.0
  0
LINE
  5
3FF
330
1F
100
AcDbEntity
  8
6
  6
Continuous
 62
     2
100
AcDbLine
 10
319.7
 20
391.2
 30
0.0
 11
319.18236191
 21
389.268148347
 31
0.0
  0
LINE
  5
400
330
1F
100
AcDbEntity
  8
6
  6
Continuous
 62
     2
100
AcDbLine
 10
319.7
 20
391.2
 30
0.0
 11
320.21763809
 21
389.268148347
 31
0.0
  0
LINE
  5
401
330
1F
100
AcDbEntity
  8
6
  6
Continuous
 62
     2
100
AcDbLine
 10
299.7
 20
391.2
 30
0.0
 11
321.2
 21
391.2
 31
0.0
  0
TEXT
  5
402
330
1F
100
AcDbEntity
  8
6
  6
Continuous
 62
     2
100
AcDbText
 10
318.7
 20
268.45
 30
0.0
 40
3.0
  1
240
 50
90.0
 41
0.6
  7
KANJI3
 72
     5
 11
318.7
 21
274.4512
 31
0.0
100
AcDbText
  0
TEXT
  5
403
330
1F
100
AcDbEntity
  8
6
  6
Continuous
 62
     2
100
AcDbText
 10
270.7
 20
141.7
 30
0.0
 40
3.0
  1
2.6
 50
90.0
 41
0.6
  7
KANJI3
 72
     5
 11
270.7
 21
147.7012
 31
0.0
100
AcDbText
  0
LINE
  5
404
330
1F
100
AcDbEntity
  8
6
  6
Continuous
 62
     2
100
AcDbLine
 10
233.7
 20
306.3
 30
0.0
 11
247.2
 21
306.3
 31
0.0
  0
LINE
  5
405
330
1F
100
AcDbEntity
  8
6
  6
Continuous
 62
     2
100
AcDbLine
 10
233.7
 20
346.3
 30
0.0
 11
247.2
 21
346.3
 31
0.0
  0
LINE
  5
406
330
1F
100
AcDbEntity
  8
6
  6
Continuous
 62
     2
100
AcDbLine
 10
245.7
 20
346.3
 30
0.0
 11
245.18236191
 21
344.368148347
 31
0.0
  0
LINE
  5
407
330
1F
100
AcDbEntity
  8
6
  6
Continuous
 62
     2
100
AcDbLine
 10
245.7
 20
346.3
 30
0.0
 11
246.21763809
 21
344.368148347
 31
0.0
  0
LINE
  5
408
330
1F
100
AcDbEntity
  8
6
  6
Continuous
 62
     2
100
AcDbLine
 10
245.7
 20
346.3
 30
0.0
 11
245.7
 21
306.3
 31
0.0
  0
LINE
  5
409
330
1F
100
AcDbEntity
  8
6
  6
Continuous
 62
     2
100
AcDbLine
 10
245.7
 20
306.3
 30
0.0
 11
246.21763809
 21
308.231851653
 31
0.0
  0
LINE
  5
40A
330
1F
100
AcDbEntity
  8
6
  6
Continuous
 62
     2
100
AcDbLine
 10
245.7
 20
306.3
 30
0.0
 11
245.18236191
 21
308.231851653
 31
0.0
  0
TEXT
  5
40B
330
1F
100
AcDbEntity
  8
6
  6
Continuous
 62
     2
100
AcDbText
 10
244.7
 20
314.2
 30
0.0
 40
3.0
  1
(%%c40)
 50
90.0
 41
0.6
  7
KANJI3
 72
     5
 11
244.7
 21
324.4024
 31
0.0
100
AcDbText
  0
LINE
  5
40C
330
1F
100
AcDbEntity
  8
6
  6
Continuous
 62
     2
100
AcDbLine
 10
154.7
 20
396.3
 30
0.0
 11
156.631851653
 21
395.78236191
 31
0.0
  0
LINE
  5
40D
330
1F
100
AcDbEntity
  8
6
  6
Continuous
 62
     2
100
AcDbLine
 10
154.7
 20
396.3
 30
0.0
 11
156.631851653
 21
396.81763809
 31
0.0
  0
LINE
  5
40E
330
1F
100
AcDbEntity
  8
6
  6
Continuous
 62
     2
100
AcDbLine
 10
154.7
 20
396.3
 30
0.0
 11
200.7
 21
396.3
 31
0.0
  0
LINE
  5
40F
330
1F
100
AcDbEntity
  8
6
  6
Continuous
 62
     2
100
AcDbLine
 10
200.7
 20
396.3
 30
0.0
 11
198.768148347
 21
396.81763809
 31
0.0
  0
LINE
  5
410
330
1F
100
AcDbEntity
  8
6
  6
Continuous
 62
     2
100
AcDbLine
 10
200.7
 20
396.3
 30
0.0
 11
198.768148347
 21
395.78236191
 31
0.0
  0
TEXT
  5
411
330
1F
100
AcDbEntity
  8
6
  6
Continuous
 62
     2
100
AcDbText
 10
175.75
 20
397.3
 30
0.0
 40
3.0
  1
46
 41
0.6
  7
KANJI3
 72
     5
 11
179.6506
 21
397.3
 31
0.0
100
AcDbText
  0
LINE
  5
412
330
1F
100
AcDbEntity
  8
6
  6
Continuous
 62
     2
100
AcDbLine
 10
200.7
 20
356.3
 30
0.0
 11
200.7
 21
397.8
 31
0.0
  0
LINE
  5
413
330
1F
100
AcDbEntity
  8
6
  6
Continuous
 62
     2
100
AcDbLine
 10
154.7
 20
356.3
 30
0.0
 11
154.7
 21
397.8
 31
0.0
  0
LINE
  5
414
330
1F
100
AcDbEntity
  8
6
  6
Continuous
 62
     2
100
AcDbLine
 10
87.7
 20
14.5
 30
0.0
 11
89.631851653
 21
13.98236191
 31
0.0
  0
LINE
  5
415
330
1F
100
AcDbEntity
  8
6
  6
Continuous
 62
     2
100
AcDbLine
 10
87.7
 20
14.5
 30
0.0
 11
89.631851653
 21
15.01763809
 31
0.0
  0
LINE
  5
416
330
1F
100
AcDbEntity
  8
6
  6
Continuous
 62
     2
100
AcDbLine
 10
87.7
 20
14.5
 30
0.0
 11
267.7
 21
14.5
 31
0.0
  0
LINE
  5
417
330
1F
100
AcDbEntity
  8
6
  6
Continuous
 62
     2
100
AcDbLine
 10
267.7
 20
14.5
 30
0.0
 11
265.768148347
 21
15.01763809
 31
0.0
  0
LINE
  5
418
330
1F
100
AcDbEntity
  8
6
  6
Continuous
 62
     2
100
AcDbLine
 10
267.7
 20
14.5
 30
0.0
 11
265.768148347
 21
13.98236191
 31
0.0
  0
TEXT
  5
419
330
1F
100
AcDbEntity
  8
6
  6
Continuous
 62
     2
100
AcDbText
 10
174.7
 20
15.5
 30
0.0
 40
3.0
  1
180
 41
0.6
  7
KANJI3
 72
     5
 11
180.7012
 21
15.5
 31
0.0
100
AcDbText
  0
LINE
  5
41A
330
1F
100
AcDbEntity
  8
6
  6
Continuous
 62
     2
100
AcDbLine
 10
267.7
 20
28.5
 30
0.0
 11
267.7
 21
13.3
 31
0.0
  0
LINE
  5
41B
330
1F
100
AcDbEntity
  8
6
  6
Continuous
 62
     2
100
AcDbLine
 10
87.7
 20
28.5
 30
0.0
 11
87.7
 21
12.5
 31
0.0
  0
LINE
  5
41C
330
1F
100
AcDbEntity
  8
6
  6
Continuous
 62
     2
100
AcDbLine
 10
255.7
 20
78.0
 30
0.0
 11
291.7
 21
78.0
 31
0.0
  0
LINE
  5
41D
330
1F
100
AcDbEntity
  8
6
  6
Continuous
 62
     2
100
AcDbLine
 10
289.7
 20
78.0
 30
0.0
 11
289.052952387
 21
75.585185434
 31
0.0
  0
LINE
  5
41E
330
1F
100
AcDbEntity
  8
6
  6
Continuous
 62
     2
100
AcDbLine
 10
289.7
 20
78.0
 30
0.0
 11
290.347047613
 21
75.585185434
 31
0.0
  0
LINE
  5
41F
330
1F
100
AcDbEntity
  8
6
  6
Continuous
 62
     2
100
AcDbLine
 10
289.7
 20
78.0
 30
0.0
 11
289.7
 21
69.0
 31
0.0
  0
LINE
  5
420
330
1F
100
AcDbEntity
  8
6
  6
Continuous
 62
     2
100
AcDbLine
 10
289.7
 20
69.0
 30
0.0
 11
290.347047613
 21
71.414814566
 31
0.0
  0
LINE
  5
421
330
1F
100
AcDbEntity
  8
6
  6
Continuous
 62
     2
100
AcDbLine
 10
289.7
 20
69.0
 30
0.0
 11
289.052952387
 21
71.414814566
 31
0.0
  0
LINE
  5
422
330
1F
100
AcDbEntity
  8
6
  6
Continuous
 62
     2
100
AcDbLine
 10
255.7
 20
69.0
 30
0.0
 11
291.7
 21
69.0
 31
0.0
  0
TEXT
  5
423
330
1F
100
AcDbEntity
  8
6
  6
Continuous
 62
     2
100
AcDbText
 10
288.7
 20
72.6
 30
0.0
 40
3.0
  1
9
 50
90.0
 41
0.6
  7
KANJI3
100
AcDbText
  0
LINE
  5
424
330
1F
100
AcDbEntity
  8
6
  6
Continuous
 62
     2
100
AcDbLine
 10
269.7
 20
32.5
 30
0.0
 11
301.2
 21
32.5
 31
0.0
  0
LINE
  5
425
330
1F
100
AcDbEntity
  8
6
  6
Continuous
 62
     2
100
AcDbLine
 10
269.7
 20
114.5
 30
0.0
 11
301.2
 21
114.5
 31
0.0
  0
LINE
  5
426
330
1F
100
AcDbEntity
  8
6
  6
Continuous
 62
     2
100
AcDbLine
 10
269.7
 20
117.1
 30
0.0
 11
311.2
 21
117.1
 31
0.0
  0
LINE
  5
427
330
1F
100
AcDbEntity
  8
6
  6
Continuous
 62
     2
100
AcDbLine
 10
269.7
 20
29.9
 30
0.0
 11
311.2
 21
29.9
 31
0.0
  0
LINE
  5
428
330
1F
100
AcDbEntity
  8
6
  6
Continuous
 62
     2
100
AcDbLine
 10
309.2
 20
117.1
 30
0.0
 11
308.68236191
 21
115.168148347
 31
0.0
  0
LINE
  5
429
330
1F
100
AcDbEntity
  8
6
  6
Continuous
 62
     2
100
AcDbLine
 10
309.2
 20
117.1
 30
0.0
 11
309.71763809
 21
115.168148347
 31
0.0
  0
LINE
  5
42A
330
1F
100
AcDbEntity
  8
6
  6
Continuous
 62
     2
100
AcDbLine
 10
309.2
 20
117.1
 30
0.0
 11
309.2
 21
29.9
 31
0.0
  0
LINE
  5
42B
330
1F
100
AcDbEntity
  8
6
  6
Continuous
 62
     2
100
AcDbLine
 10
309.2
 20
29.9
 30
0.0
 11
309.71763809
 21
31.831851653
 31
0.0
  0
LINE
  5
42C
330
1F
100
AcDbEntity
  8
6
  6
Continuous
 62
     2
100
AcDbLine
 10
309.2
 20
29.9
 30
0.0
 11
308.68236191
 21
31.831851653
 31
0.0
  0
TEXT
  5
42D
330
1F
100
AcDbEntity
  8
6
  6
Continuous
 62
     2
100
AcDbText
 10
308.2
 20
71.55
 30
0.0
 40
3.0
  1
88
 50
90.0
 41
0.6
  7
KANJI3
 72
     5
 11
308.2
 21
75.4506
 31
0.0
100
AcDbText
  0
LINE
  5
42E
330
1F
100
AcDbEntity
  8
6
  6
Continuous
 62
     2
100
AcDbLine
 10
238.2
 20
41.5
 30
0.0
 11
300.7
 21
41.5
 31
0.0
  0
LINE
  5
42F
330
1F
100
AcDbEntity
  8
6
  6
Continuous
 62
     2
100
AcDbLine
 10
299.2
 20
41.5
 30
0.0
 11
299.71763809
 21
43.431851653
 31
0.0
  0
LINE
  5
430
330
1F
100
AcDbEntity
  8
6
  6
Continuous
 62
     2
100
AcDbLine
 10
299.2
 20
41.5
 30
0.0
 11
298.68236191
 21
43.431851653
 31
0.0
  0
LINE
  5
431
330
1F
100
AcDbEntity
  8
6
  6
Continuous
 62
     2
100
AcDbLine
 10
299.2
 20
41.5
 30
0.0
 11
299.2
 21
105.5
 31
0.0
  0
LINE
  5
432
330
1F
100
AcDbEntity
  8
6
  6
Continuous
 62
     2
100
AcDbLine
 10
299.2
 20
105.5
 30
0.0
 11
298.68236191
 21
103.568148347
 31
0.0
  0
LINE
  5
433
330
1F
100
AcDbEntity
  8
6
  6
Continuous
 62
     2
100
AcDbLine
 10
299.2
 20
105.5
 30
0.0
 11
299.71763809
 21
103.568148347
 31
0.0
  0
LINE
  5
434
330
1F
100
AcDbEntity
  8
6
  6
Continuous
 62
     2
100
AcDbLine
 10
238.2
 20
105.5
 30
0.0
 11
300.7
 21
105.5
 31
0.0
  0
TEXT
  5
435
330
1F
100
AcDbEntity
  8
6
  6
Continuous
 62
     2
100
AcDbText
 10
298.2
 20
71.55
 30
0.0
 40
3.0
  1
64
 50
90.0
 41
0.6
  7
KANJI3
 72
     5
 11
298.2
 21
75.4506
 31
0.0
100
AcDbText
  0
LINE
  5
436
330
1F
100
AcDbEntity
  8
6
  6
Continuous
 62
     2
100
AcDbLine
 10
299.2
 20
114.5
 30
0.0
 11
298.68236191
 21
112.568148347
 31
0.0
  0
LINE
  5
437
330
1F
100
AcDbEntity
  8
6
  6
Continuous
 62
     2
100
AcDbLine
 10
299.2
 20
114.5
 30
0.0
 11
299.71763809
 21
112.568148347
 31
0.0
  0
LINE
  5
438
330
1F
100
AcDbEntity
  8
6
  6
Continuous
 62
     2
100
AcDbLine
 10
299.2
 20
110.5
 30
0.0
 11
299.2
 21
127.1
 31
0.0
  0
LINE
  5
439
330
1F
100
AcDbEntity
  8
6
  6
Continuous
 62
     2
100
AcDbLine
 10
299.2
 20
117.1
 30
0.0
 11
299.71763809
 21
119.031851653
 31
0.0
  0
LINE
  5
43A
330
1F
100
AcDbEntity
  8
6
  6
Continuous
 62
     2
100
AcDbLine
 10
299.2
 20
117.1
 30
0.0
 11
298.68236191
 21
119.031851653
 31
0.0
  0
TEXT
  5
43B
330
1F
100
AcDbEntity
  8
6
  6
Continuous
 62
     2
100
AcDbText
 10
298.2
 20
121.1
 30
0.0
 40
3.0
  1
2.6
 50
90.0
 41
0.6
  7
KANJI3
 72
     5
 11
298.2
 21
127.1012
 31
0.0
100
AcDbText
  0
LINE
  5
43C
330
1F
100
AcDbEntity
  8
6
  6
Continuous
 62
     2
100
AcDbLine
 10
299.2
 20
32.5
 30
0.0
 11
299.71763809
 21
34.431851653
 31
0.0
  0
LINE
  5
43D
330
1F
100
AcDbEntity
  8
6
  6
Continuous
 62
     2
100
AcDbLine
 10
299.2
 20
32.5
 30
0.0
 11
298.68236191
 21
34.431851653
 31
0.0
  0
LINE
  5
43E
330
1F
100
AcDbEntity
  8
6
  6
Continuous
 62
     2
100
AcDbLine
 10
299.2
 20
36.5
 30
0.0
 11
299.2
 21
19.9
 31
0.0
  0
LINE
  5
43F
330
1F
100
AcDbEntity
  8
6
  6
Continuous
 62
     2
100
AcDbLine
 10
299.2
 20
29.9
 30
0.0
 11
298.68236191
 21
27.968148347
 31
0.0
  0
LINE
  5
440
330
1F
100
AcDbEntity
  8
6
  6
Continuous
 62
     2
100
AcDbLine
 10
299.2
 20
29.9
 30
0.0
 11
299.71763809
 21
27.968148347
 31
0.0
  0
TEXT
  5
441
330
1F
100
AcDbEntity
  8
6
  6
Continuous
 62
     2
100
AcDbText
 10
298.2
 20
19.9
 30
0.0
 40
3.0
  1
2.6
 50
90.0
 41
0.6
  7
KANJI3
 72
     5
 11
298.2
 21
25.9012
 31
0.0
100
AcDbText
  0
LINE
  5
442
330
1F
100
AcDbEntity
  8
6
  6
Continuous
 62
     2
100
AcDbLine
 10
117.7
 20
63.5
 30
0.0
 11
117.7
 21
125.5
 31
0.0
  0
LINE
  5
443
330
1F
100
AcDbEntity
  8
6
  6
Continuous
 62
     2
100
AcDbLine
 10
117.7
 20
123.5
 30
0.0
 11
120.114814566
 21
122.852952387
 31
0.0
  0
LINE
  5
444
330
1F
100
AcDbEntity
  8
6
  6
Continuous
 62
     2
100
AcDbLine
 10
117.7
 20
123.5
 30
0.0
 11
120.114814566
 21
124.147047613
 31
0.0
  0
LINE
  5
445
330
1F
100
AcDbEntity
  8
6
  6
Continuous
 62
     2
100
AcDbLine
 10
117.7
 20
123.5
 30
0.0
 11
237.7
 21
123.5
 31
0.0
  0
LINE
  5
446
330
1F
100
AcDbEntity
  8
6
  6
Continuous
 62
     2
100
AcDbLine
 10
237.7
 20
123.5
 30
0.0
 11
235.285185434
 21
124.147047613
 31
0.0
  0
LINE
  5
447
330
1F
100
AcDbEntity
  8
6
  6
Continuous
 62
     2
100
AcDbLine
 10
237.7
 20
123.5
 30
0.0
 11
235.285185434
 21
122.852952387
 31
0.0
  0
LINE
  5
448
330
1F
100
AcDbEntity
  8
6
  6
Continuous
 62
     2
100
AcDbLine
 10
237.7
 20
63.5
 30
0.0
 11
237.7
 21
125.5
 31
0.0
  0
TEXT
  5
449
330
1F
100
AcDbEntity
  8
6
  6
Continuous
 62
     2
100
AcDbText
 10
174.7
 20
124.5
 30
0.0
 40
3.0
  1
120
 41
0.6
  7
KANJI3
 72
     5
 11
180.7012
 21
124.5
 31
0.0
100
AcDbText
  0
LINE
  5
44A
330
1F
100
AcDbEntity
  8
6
  6
Continuous
 62
     2
100
AcDbLine
 10
252.7
 20
139.5
 30
0.0
 11
250.285185434
 21
140.147047613
 31
0.0
  0
LINE
  5
44B
330
1F
100
AcDbEntity
  8
6
  6
Continuous
 62
     2
100
AcDbLine
 10
252.7
 20
139.5
 30
0.0
 11
250.285185434
 21
138.852952387
 31
0.0
  0
LINE
  5
44C
330
1F
100
AcDbEntity
  8
6
  6
Continuous
 62
     2
100
AcDbLine
 10
252.7
 20
139.5
 30
0.0
 11
102.7
 21
139.5
 31
0.0
  0
LINE
  5
44D
330
1F
100
AcDbEntity
  8
6
  6
Continuous
 62
     2
100
AcDbLine
 10
102.7
 20
139.5
 30
0.0
 11
105.114814566
 21
138.852952387
 31
0.0
  0
LINE
  5
44E
330
1F
100
AcDbEntity
  8
6
  6
Continuous
 62
     2
100
AcDbLine
 10
102.7
 20
139.5
 30
0.0
 11
105.114814566
 21
140.147047613
 31
0.0
  0
TEXT
  5
44F
330
1F
100
AcDbEntity
  8
6
  6
Continuous
 62
     2
100
AcDbText
 10
174.7
 20
140.5
 30
0.0
 40
3.0
  1
150
 41
0.6
  7
KANJI3
 72
     5
 11
180.7012
 21
140.5
 31
0.0
100
AcDbText
  0
LINE
  5
450
330
1F
100
AcDbEntity
  8
6
  6
Continuous
 62
     2
100
AcDbLine
 10
112.7
 20
101.5
 30
0.0
 11
112.7
 21
133.0
 31
0.0
  0
LINE
  5
451
330
1F
100
AcDbEntity
  8
6
  6
Continuous
 62
     2
100
AcDbLine
 10
112.7
 20
131.5
 30
0.0
 11
114.631851653
 21
130.98236191
 31
0.0
  0
LINE
  5
452
330
1F
100
AcDbEntity
  8
6
  6
Continuous
 62
     2
100
AcDbLine
 10
112.7
 20
131.5
 30
0.0
 11
114.631851653
 21
132.01763809
 31
0.0
  0
LINE
  5
453
330
1F
100
AcDbEntity
  8
6
  6
Continuous
 62
     2
100
AcDbLine
 10
112.7
 20
131.5
 30
0.0
 11
242.7
 21
131.5
 31
0.0
  0
LINE
  5
454
330
1F
100
AcDbEntity
  8
6
  6
Continuous
 62
     2
100
AcDbLine
 10
242.7
 20
131.5
 30
0.0
 11
240.768148347
 21
132.01763809
 31
0.0
  0
LINE
  5
455
330
1F
100
AcDbEntity
  8
6
  6
Continuous
 62
     2
100
AcDbLine
 10
242.7
 20
131.5
 30
0.0
 11
240.768148347
 21
130.98236191
 31
0.0
  0
LINE
  5
456
330
1F
100
AcDbEntity
  8
6
  6
Continuous
 62
     2
100
AcDbLine
 10
242.7
 20
101.5
 30
0.0
 11
242.7
 21
133.0
 31
0.0
  0
TEXT
  5
457
330
1F
100
AcDbEntity
  8
6
  6
Continuous
 62
     2
100
AcDbText
 10
174.7
 20
132.5
 30
0.0
 40
3.0
  1
130
 41
0.6
  7
KANJI3
 72
     5
 11
180.7012
 21
132.5
 31
0.0
100
AcDbText
  0
LINE
  5
458
330
1F
100
AcDbEntity
  8
6
  6
Continuous
 62
     2
100
AcDbLine
 10
252.7
 20
63.8
 30
0.0
 11
252.7
 21
141.5
 31
0.0
  0
LINE
  5
459
330
1F
100
AcDbEntity
  8
6
  6
Continuous
 62
     2
100
AcDbLine
 10
102.7
 20
63.8
 30
0.0
 11
102.7
 21
141.5
 31
0.0
  0
LINE
  5
45A
330
1F
100
AcDbEntity
  8
6
  6
Continuous
 62
     2
100
AcDbLine
 10
245.2
 20
108.5
 30
0.0
 11
246.932050808
 21
109.5
 31
0.0
  0
LINE
  5
45B
330
1F
100
AcDbEntity
  8
6
  6
Continuous
 62
     2
100
AcDbLine
 10
245.2
 20
108.5
 30
0.0
 11
262.2
 21
125.5
 31
0.0
  0
LINE
  5
45C
330
1F
100
AcDbEntity
  8
6
  6
Continuous
 62
     2
100
AcDbLine
 10
245.2
 20
108.5
 30
0.0
 11
246.2
 21
110.232050808
 31
0.0
  0
LINE
  5
45D
330
1F
100
AcDbEntity
  8
6
  6
Continuous
 62
     2
100
AcDbLine
 10
262.2
 20
125.5
 30
0.0
 11
273.9
 21
125.5
 31
0.0
  0
TEXT
  5
45E
330
1F
100
AcDbEntity
  8
6
  6
Continuous
 62
     2
100
AcDbText
 10
262.2
 20
126.5
 30
0.0
 40
3.0
  1
6-%%c7
 41
0.9
  7
KANJI0
 72
     5
 11
273.8991
 21
126.5
 31
0.0
100
AcDbText
  0
LINE
  5
45F
330
1F
100
AcDbEntity
  8
6
  6
Continuous
 62
     2
100
AcDbLine
 10
347.7
 20
191.3
 30
0.0
 11
347.052952387
 21
188.885185434
 31
0.0
  0
LINE
  5
460
330
1F
100
AcDbEntity
  8
6
  6
Continuous
 62
     2
100
AcDbLine
 10
347.7
 20
191.3
 30
0.0
 11
348.347047613
 21
188.885185434
 31
0.0
  0
TEXT
  5
461
330
1F
100
AcDbEntity
  8
6
  6
Continuous
 62
     2
100
AcDbText
 10
372.545671067
 20
131.90303038
 30
0.0
 40
3.0
  1
90゜
 50
135.0
 41
0.6
  7
KANJI3
 72
     5
 11
368.302181852
 21
136.146519595
 31
0.0
100
AcDbText
  0
LINE
  5
462
330
1F
100
AcDbEntity
  8
6
  6
Continuous
 62
     2
100
AcDbLine
 10
412.7
 20
191.3
 30
0.0
 11
345.7
 21
191.3
 31
0.0
  0
ARC
  5
463
330
1F
100
AcDbEntity
  8
6
  6
Continuous
 62
     2
100
AcDbCircle
 10
427.7
 20
191.3
 30
0.0
 40
80.0
100
AcDbArc
 50
180.0
 51
270.0
  0
LINE
  5
464
330
1F
100
AcDbEntity
  8
6
  6
Continuous
 62
     2
100
AcDbLine
 10
420.7
 20
79.3
 30
0.0
 11
422.7
 21
77.3
 31
0.0
  0
LINE
  5
465
330
1F
100
AcDbEntity
  8
6
  6
Continuous
 62
     2
100
AcDbLine
 10
422.7
 20
77.3
 30
0.0
 11
419.7
 21
76.3
 31
0.0
  0
LINE
  5
466
330
1F
100
AcDbEntity
  8
6
  6
Continuous
 62
     2
100
AcDbLine
 10
432.7
 20
77.3
 30
0.0
 11
434.7
 21
79.3
 31
0.0
  0
LINE
  5
467
330
1F
100
AcDbEntity
  8
6
  6
Continuous
 62
     2
100
AcDbLine
 10
432.7
 20
77.3
 30
0.0
 11
435.7
 21
76.3
 31
0.0
  0
ARC
  5
468
330
1F
100
AcDbEntity
  8
6
  6
Continuous
 62
     2
100
AcDbCircle
 10
428.926659083
 20
99.115177819
 30
0.0
 40
22.208952207
100
AcDbArc
 50
279.900056831
 51
293.677495283
  0
ARC
  5
469
330
1F
100
AcDbEntity
  8
6
  6
Continuous
 62
     2
100
AcDbCircle
 10
433.105644408
 20
89.406635103
 30
0.0
 40
11.639660432
100
AcDbArc
 50
294.030118606
 51
315.067626494
  0
ARC
  5
46A
330
1F
100
AcDbEntity
  8
6
  6
Continuous
 62
     2
100
AcDbCircle
 10
437.727345221
 20
84.631111197
 30
0.0
 40
4.996313148
100
AcDbArc
 50
316.405011535
 51
353.749503104
  0
ARC
  5
46B
330
1F
100
AcDbEntity
  8
6
  6
Continuous
 62
     2
100
AcDbCircle
 10
438.534749052
 20
84.289796496
 30
0.0
 40
4.16414271
100
AcDbArc
 50
357.210415025
 51
41.004569535
  0
ARC
  5
46C
330
1F
100
AcDbEntity
  8
6
  6
Continuous
 62
     2
100
AcDbCircle
 10
434.703670127
 20
81.379919378
 30
0.0
 40
8.970147801
100
AcDbArc
 50
38.974971354
 51
65.271401282
  0
ARC
  5
46D
330
1F
100
AcDbEntity
  8
6
  6
Continuous
 62
     2
100
AcDbCircle
 10
429.940803675
 20
72.650978711
 30
0.0
 40
18.903086481
100
AcDbArc
 50
63.226192093
 51
79.028506466
  0
ARC
  5
46E
330
1F
100
AcDbEntity
  8
6
  6
Continuous
 62
     2
100
AcDbCircle
 10
427.808470134
 20
63.757930412
 30
0.0
 40
28.042279375
100
AcDbArc
 50
78.209508485
 51
90.221625935
  0
ARC
  5
46F
330
1F
100
AcDbEntity
  8
6
  6
Continuous
 62
     2
100
AcDbCircle
 10
427.678088532
 20
62.903467161
 30
0.0
 40
28.896541146
100
AcDbArc
 50
89.956554151
 51
101.612311429
  0
ARC
  5
470
330
1F
100
AcDbEntity
  8
6
  6
Continuous
 62
     2
100
AcDbCircle
 10
426.049164129
 20
70.925136015
 30
0.0
 40
20.71118485
100
AcDbArc
 50
101.665109338
 51
116.080192103
  0
ARC
  5
471
330
1F
100
AcDbEntity
  8
6
  6
Continuous
 62
     2
100
AcDbCircle
 10
421.560890775
 20
80.268414334
 30
0.0
 40
10.346350347
100
AcDbArc
 50
116.502714556
 51
139.250912806
  0
ARC
  5
472
330
1F
100
AcDbEntity
  8
6
  6
Continuous
 62
     2
100
AcDbCircle
 10
417.248030929
 20
84.157190985
 30
0.0
 40
4.542528425
100
AcDbArc
 50
140.901352472
 51
180.883662969
  0
ARC
  5
473
330
1F
100
AcDbEntity
  8
6
  6
Continuous
 62
     2
100
AcDbCircle
 10
417.178454688
 20
84.401472676
 30
0.0
 40
4.483444735
100
AcDbArc
 50
184.020346781
 51
225.825138579
  0
ARC
  5
474
330
1F
100
AcDbEntity
  8
6
  6
Continuous
 62
     2
100
AcDbCircle
 10
421.426551123
 20
88.146276229
 30
0.0
 40
10.138999542
100
AcDbArc
 50
223.353536982
 51
247.548717918
  0
ARC
  5
475
330
1F
100
AcDbEntity
  8
6
  6
Continuous
 62
     2
100
AcDbCircle
 10
425.960806391
 20
97.416378924
 30
0.0
 40
20.44843735
100
AcDbArc
 50
245.726158095
 51
260.696289791
  0
LINE
  5
476
330
1F
100
AcDbEntity
  8
6
  6
Continuous
 62
     2
100
AcDbLine
 10
427.7
 20
111.3
 30
0.0
 11
425.285185434
 21
111.947047613
 31
0.0
  0
LINE
  5
477
330
1F
100
AcDbEntity
  8
6
  6
Continuous
 62
     2
100
AcDbLine
 10
427.7
 20
111.3
 30
0.0
 11
425.285185434
 21
110.652952387
 31
0.0
  0
LINE
  5
478
330
1F
100
AcDbEntity
  8
6
  6
Continuous
 62
     2
100
AcDbLine
 10
427.7
 20
176.3
 30
0.0
 11
427.7
 21
68.6
 31
0.0
  0
LINE
  5
479
330
1F
100
AcDbEntity
  8
6
  6
Continuous
 62
     2
100
AcDbLine
 10
405.49
 20
249.81
 30
0.0
 11
403.324936491
 21
248.56
 31
0.0
  0
LINE
  5
47A
330
1F
100
AcDbEntity
  8
6
  6
Continuous
 62
     2
100
AcDbLine
 10
405.49
 20
249.81
 30
0.0
 11
404.24
 21
247.644936491
 31
0.0
  0
LINE
  5
47B
330
1F
100
AcDbEntity
  8
6
  6
Continuous
 62
     2
100
AcDbLine
 10
432.2
 20
279.8
 30
0.0
 11
433.45
 21
277.634936491
 31
0.0
  0
LINE
  5
47C
330
1F
100
AcDbEntity
  8
6
  6
Continuous
 62
     2
100
AcDbLine
 10
432.2
 20
279.8
 30
0.0
 11
434.365063509
 21
278.55
 31
0.0
  0
LINE
  5
47D
330
1F
100
AcDbEntity
  8
6
  6
Continuous
 62
     2
100
AcDbLine
 10
432.2
 20
279.8
 30
0.0
 11
467.2
 21
244.8
 31
0.0
  0
LINE
  5
47E
330
1F
100
AcDbEntity
  8
6
  6
Continuous
 62
     2
100
AcDbLine
 10
447.546
 20
282.538
 30
0.0
 11
448.796
 21
280.372936491
 31
0.0
  0
LINE
  5
47F
330
1F
100
AcDbEntity
  8
6
  6
Continuous
 62
     2
100
AcDbLine
 10
447.546
 20
282.538
 30
0.0
 11
449.711063509
 21
281.288
 31
0.0
  0
LINE
  5
480
330
1F
100
AcDbEntity
  8
6
  6
Continuous
 62
     2
100
AcDbLine
 10
447.546
 20
282.538
 30
0.0
 11
467.546
 21
262.538
 31
0.0
  0
LINE
  5
481
330
1F
100
AcDbEntity
  8
6
  6
Continuous
 62
     2
100
AcDbLine
 10
467.2
 20
244.8
 30
0.0
 11
508.85
 21
244.8
 31
0.0
  0
TEXT
  5
482
330
1F
100
AcDbEntity
  8
6
  6
Continuous
 62
     2
100
AcDbText
 10
467.2
 20
245.8
 30
0.0
 40
3.5
  1
ジョイント軸 抜け止め爪
 41
0.9
  7
KANJI4
 72
     5
 11
508.84615
 21
245.8
 31
0.0
100
AcDbText
  0
TEXT
  5
484
330
1F
100
AcDbEntity
  8
6
  6
Continuous
 62
     2
100
AcDbText
 10
467.2
 20
263.3
 30
0.0
 40
3.5
  1
六角穴付ボルト M4X15
 41
0.9
  7
KANJI4
 72
     5
 11
512.3458
 21
263.3
 31
0.0
100
AcDbText
  0
LINE
  5
485
330
1F
100
AcDbEntity
  8
6
  6
Continuous
 62
     2
100
AcDbLine
 10
102.7
 20
294.8
 30
0.0
 11
102.052952387
 21
292.385185434
 31
0.0
  0
LINE
  5
486
330
1F
100
AcDbEntity
  8
6
  6
Continuous
 62
     2
100
AcDbLine
 10
102.7
 20
294.8
 30
0.0
 11
103.347047613
 21
292.385185434
 31
0.0
  0
LINE
  5
487
330
1F
100
AcDbEntity
  8
6
  6
Continuous
 62
     2
100
AcDbLine
 10
102.7
 20
294.8
 30
0.0
 11
102.7
 21
277.8
 31
0.0
  0
LINE
  5
488
330
1F
100
AcDbEntity
  8
6
  6
Continuous
 62
     2
100
AcDbLine
 10
102.7
 20
277.8
 30
0.0
 11
103.347047613
 21
280.214814566
 31
0.0
  0
LINE
  5
489
330
1F
100
AcDbEntity
  8
6
  6
Continuous
 62
     2
100
AcDbLine
 10
102.7
 20
277.8
 30
0.0
 11
102.052952387
 21
280.214814566
 31
0.0
  0
TEXT
  5
48A
330
1F
100
AcDbEntity
  8
6
  6
Continuous
 62
     2
100
AcDbText
 10
101.7
 20
284.35
 30
0.0
 40
3.0
  1
17
 50
90.0
 41
0.6
  7
KANJI3
 72
     5
 11
101.7
 21
288.2506
 31
0.0
100
AcDbText
  0
LINE
  5
48B
330
1F
100
AcDbEntity
  8
6
  6
Continuous
 62
     2
100
AcDbLine
 10
92.7
 20
290.3
 30
0.0
 11
92.052952387
 21
287.885185434
 31
0.0
  0
LINE
  5
48C
330
1F
100
AcDbEntity
  8
6
  6
Continuous
 62
     2
100
AcDbLine
 10
92.7
 20
290.3
 30
0.0
 11
93.347047613
 21
287.885185434
 31
0.0
  0
LINE
  5
48D
330
1F
100
AcDbEntity
  8
6
  6
Continuous
 62
     2
100
AcDbLine
 10
92.7
 20
290.3
 30
0.0
 11
92.7
 21
282.3
 31
0.0
  0
LINE
  5
48E
330
1F
100
AcDbEntity
  8
6
  6
Continuous
 62
     2
100
AcDbLine
 10
92.7
 20
282.3
 30
0.0
 11
93.347047613
 21
284.714814566
 31
0.0
  0
LINE
  5
48F
330
1F
100
AcDbEntity
  8
6
  6
Continuous
 62
     2
100
AcDbLine
 10
92.7
 20
282.3
 30
0.0
 11
92.052952387
 21
284.714814566
 31
0.0
  0
TEXT
  5
490
330
1F
100
AcDbEntity
  8
6
  6
Continuous
 62
     2
100
AcDbText
 10
91.7
 20
284.35
 30
0.0
 40
3.0
  1
M8
 50
90.0
 41
0.6
  7
KANJI3
 72
     5
 11
91.7
 21
288.2506
 31
0.0
100
AcDbText
  0
LINE
  5
491
330
1F
100
AcDbEntity
  8
6
  6
Continuous
 62
     2
100
AcDbLine
 10
72.7
 20
290.3
 30
0.0
 11
94.7
 21
290.3
 31
0.0
  0
LINE
  5
492
330
1F
100
AcDbEntity
  8
6
  6
Continuous
 62
     2
100
AcDbLine
 10
72.7
 20
282.3
 30
0.0
 11
94.7
 21
282.3
 31
0.0
  0
LINE
  5
493
330
1F
100
AcDbEntity
  8
6
  6
Continuous
 62
     2
100
AcDbLine
 10
80.2
 20
294.8
 30
0.0
 11
104.7
 21
294.8
 31
0.0
  0
LINE
  5
494
330
1F
100
AcDbEntity
  8
6
  6
Continuous
 62
     2
100
AcDbLine
 10
80.2
 20
277.8
 30
0.0
 11
104.7
 21
277.8
 31
0.0
  0
LINE
  5
495
330
1F
100
AcDbEntity
  8
6
  6
Continuous
 62
     2
100
AcDbLine
 10
92.7
 20
380.3
 30
0.0
 11
71.2
 21
380.3
 31
0.0
  0
LINE
  5
496
330
1F
100
AcDbEntity
  8
6
  6
Continuous
 62
     2
100
AcDbLine
 10
72.7
 20
380.3
 30
0.0
 11
72.18236191
 21
378.368148347
 31
0.0
  0
LINE
  5
497
330
1F
100
AcDbEntity
  8
6
  6
Continuous
 62
     2
100
AcDbLine
 10
72.7
 20
380.3
 30
0.0
 11
73.21763809
 21
378.368148347
 31
0.0
  0
LINE
  5
498
330
1F
100
AcDbEntity
  8
6
  6
Continuous
 62
     2
100
AcDbLine
 10
72.7
 20
380.3
 30
0.0
 11
72.7
 21
372.3
 31
0.0
  0
LINE
  5
499
330
1F
100
AcDbEntity
  8
6
  6
Continuous
 62
     2
100
AcDbLine
 10
72.7
 20
372.3
 30
0.0
 11
73.21763809
 21
374.231851653
 31
0.0
  0
LINE
  5
49A
330
1F
100
AcDbEntity
  8
6
  6
Continuous
 62
     2
100
AcDbLine
 10
72.7
 20
372.3
 30
0.0
 11
72.18236191
 21
374.231851653
 31
0.0
  0
LINE
  5
49B
330
1F
100
AcDbEntity
  8
6
  6
Continuous
 62
     2
100
AcDbLine
 10
92.7
 20
372.3
 30
0.0
 11
71.2
 21
372.3
 31
0.0
  0
TEXT
  5
49C
330
1F
100
AcDbEntity
  8
6
  6
Continuous
 62
     2
100
AcDbText
 10
71.7
 20
374.35
 30
0.0
 40
3.0
  1
M8
 50
90.0
 41
0.6
  7
KANJI3
 72
     5
 11
71.7
 21
378.2506
 31
0.0
100
AcDbText
  0
LINE
  5
49D
330
1F
100
AcDbEntity
  8
6
  6
Continuous
 62
     2
100
AcDbLine
 10
87.7
 20
369.8
 30
0.0
 11
61.2
 21
369.8
 31
0.0
  0
LINE
  5
49E
330
1F
100
AcDbEntity
  8
6
  6
Continuous
 62
     2
100
AcDbLine
 10
62.7
 20
369.8
 30
0.0
 11
63.21763809
 21
371.731851653
 31
0.0
  0
LINE
  5
49F
330
1F
100
AcDbEntity
  8
6
  6
Continuous
 62
     2
100
AcDbLine
 10
62.7
 20
369.8
 30
0.0
 11
62.18236191
 21
371.731851653
 31
0.0
  0
LINE
  5
4A0
330
1F
100
AcDbEntity
  8
6
  6
Continuous
 62
     2
100
AcDbLine
 10
62.7
 20
369.8
 30
0.0
 11
62.7
 21
382.8
 31
0.0
  0
LINE
  5
4A1
330
1F
100
AcDbEntity
  8
6
  6
Continuous
 62
     2
100
AcDbLine
 10
62.7
 20
382.8
 30
0.0
 11
62.18236191
 21
380.868148347
 31
0.0
  0
LINE
  5
4A2
330
1F
100
AcDbEntity
  8
6
  6
Continuous
 62
     2
100
AcDbLine
 10
62.7
 20
382.8
 30
0.0
 11
63.21763809
 21
380.868148347
 31
0.0
  0
LINE
  5
4A3
330
1F
100
AcDbEntity
  8
6
  6
Continuous
 62
     2
100
AcDbLine
 10
87.7
 20
382.8
 30
0.0
 11
61.2
 21
382.8
 31
0.0
  0
TEXT
  5
4A4
330
1F
100
AcDbEntity
  8
6
  6
Continuous
 62
     2
100
AcDbText
 10
61.7
 20
374.35
 30
0.0
 40
3.0
  1
13
 50
90.0
 41
0.6
  7
KANJI3
 72
     5
 11
61.7
 21
378.2506
 31
0.0
100
AcDbText
  0
LINE
  5
4A5
330
1F
100
AcDbEntity
  8
6
  6
Continuous
 62
     2
100
AcDbLine
 10
467.2
 20
262.3
 30
0.0
 11
511.951
 21
262.3
 31
0.0
  0
TEXT
  5
4A6
330
1F
100
AcDbEntity
  8
6
  6
Continuous
 62
     2
100
AcDbText
 10
342.79
 20
233.81
 30
0.0
 40
3.5
  1
六角穴付ボルト M8x30
 41
0.9
  7
KANJI4
 72
     5
 11
387.9358
 21
233.81
 31
0.0
100
AcDbText
  0
LINE
  5
4A7
330
1F
100
AcDbEntity
  8
6
  6
Continuous
 62
     2
100
AcDbLine
 10
388.49
 20
232.81
 30
0.0
 11
342.79
 21
232.81
 31
0.0
  0
LINE
  5
4A8
330
1F
100
AcDbEntity
  8
6
  6
Continuous
 62
     2
100
AcDbLine
 10
405.49
 20
249.81
 30
0.0
 11
388.49
 21
232.81
 31
0.0
  0
ENDSEC
  0
SECTION
  2
OBJECTS
  0
DICTIONARY
  5
C
330
0
100
AcDbDictionary
280
     0
281
     1
  3
ACAD_GROUP
350
D
  3
ACAD_LAYOUT
350
1A
  3
ACAD_MLINESTYLE
350
17
  3
ACAD_PLOTSETTINGS
350
19
  3
ACAD_PLOTSTYLENAME
350
E
  0
DICTIONARY
  5
D
102
{ACAD_REACTORS
330
C
102
}
330
C
100
AcDbDictionary
280
     0
281
     1
  0
DICTIONARY
  5
1A
102
{ACAD_REACTORS
330
C
102
}
330
C
100
AcDbDictionary
280
     0
281
     1
  3
Model
350
22
  3
ﾚｲｱｳﾄ1
350
1E
  3
ﾚｲｱｳﾄ2
350
26
  0
LAYOUT
  5
22
102
{ACAD_REACTORS
330
1A
102
}
330
1A
100
AcDbPlotSettings
  1

  2

  4

  6

 40
0.0
 41
0.0
 42
0.0
 43
0.0
 44
0.0
 45
0.0
 46
0.0
 47
0.0
 48
0.0
 49
0.0
140
0.0
141
0.0
142
1.0
143
1.0
 70
  1712
 72
     0
 73
     0
 74
     0
  7

 75
     0
147
1.0
148
0.0
149
0.0
100
AcDbLayout
  1
Model
 70
     1
 71
     0
 10
0.0
 20
0.0
 11
0.0
 21
0.0
 12
0.0
 22
0.0
 32
0.0
 14
0.0
 24
0.0
 34
0.0
 15
0.0
 25
0.0
 35
0.0
146
0.0
 13
0.0
 23
0.0
 33
0.0
 16
1.0
 26
0.0
 36
0.0
 17
0.0
 27
1.0
 37
0.0
 76
     0
330
1F
331
0
345
0
346
0
  0
LAYOUT
  5
1E
102
{ACAD_REACTORS
330
1A
102
}
330
1A
100
AcDbPlotSettings
  1

  2

  4

  6

 40
0.0
 41
0.0
 42
0.0
 43
0.0
 44
0.0
 45
0.0
 46
0.0
 47
0.0
 48
0.0
 49
0.0
140
0.0
141
0.0
142
1.0
143
1.0
 70
   688
 72
     0
 73
     0
 74
     5
  7

 75
    16
147
1.0
148
0.0
149
0.0
100
AcDbLayout
  1
ﾚｲｱｳﾄ1
 70
     1
 71
     1
 10
0.0
 20
0.0
 11
0.0
 21
0.0
 12
0.0
 22
0.0
 32
0.0
 14
0.0
 24
0.0
 34
0.0
 15
0.0
 25
0.0
 35
0.0
146
0.0
 13
0.0
 23
0.0
 33
0.0
 16
1.0
 26
0.0
 36
0.0
 17
0.0
 27
1.0
 37
0.0
 76
     0
330
1B
331
0
345
0
346
0
  0
LAYOUT
  5
26
102
{ACAD_REACTORS
330
1A
102
}
330
1A
100
AcDbPlotSettings
  1

  2

  4

  6

 40
0.0
 41
0.0
 42
0.0
 43
0.0
 44
0.0
 45
0.0
 46
0.0
 47
0.0
 48
0.0
 49
0.0
140
0.0
141
0.0
142
1.0
143
1.0
 70
   688
 72
     0
 73
     0
 74
     5
  7

 75
    16
147
1.0
148
0.0
149
0.0
100
AcDbLayout
  1
ﾚｲｱｳﾄ2
 70
     1
 71
     2
 10
0.0
 20
0.0
 11
0.0
 21
0.0
 12
0.0
 22
0.0
 32
0.0
 14
0.0
 24
0.0
 34
0.0
 15
0.0
 25
0.0
 35
0.0
146
0.0
 13
0.0
 23
0.0
 33
0.0
 16
1.0
 26
0.0
 36
0.0
 17
0.0
 27
1.0
 37
0.0
 76
     0
330
23
331
0
345
0
346
0
  0
DICTIONARY
  5
17
102
{ACAD_REACTORS
330
C
102
}
330
C
100
AcDbDictionary
280
     0
281
     1
  3
Standard
350
18
  0
MLINESTYLE
  5
18
102
{ACAD_REACTORS
330
17
102
}
330
17
100
AcDbMlineStyle
  2
STANDARD
 70
     0
  3

 62
   256
 51
90.0
 52
90.0
 71
     2
 49
0.5
 62
   256
  6
ByLayer
 49
-0.5
 62
   256
  6
ByLayer
  0
DICTIONARY
  5
19
102
{ACAD_REACTORS
330
C
102
}
330
C
100
AcDbDictionary
280
     0
281
     1
  0
ACDBDICTIONARYWDFLT
  5
E
330
C
100
AcDbDictionary
281
     0
  3
Normal
350
F
100
AcDbDictionaryWithDefault
340
F
  0
ACDBPLACEHOLDER
  5
F
102
{ACAD_REACTORS
330
E
102
}
330
E
  0
ENDSEC
  0
EOF
