  0
SECTION
  2
HEADER
  9
$EXTMIN
 10
0.0
 20
0.0
 30
0.0
  9
$EXTMAX
 10
1485.0
 20
1050.0
 30
0.0
  9
$LIMMIN
 10
0.0
 20
0.0
  9
$LIMMAX
 10
1485.0
 20
1050.0
  9
$LTSCALE
 40
1.0
  9
$PDMODE
 70
     0
  0
ENDSEC
  0
SECTION
  2
TABLES
  0
TABLE
  2
LTYPE
 70
     2
  0
LTYPE
  2
CONTINUOUS
 70
    64
  3
Solid line
 72
    65
 73
     0
 40
0.0
  0
LTYPE
  2
LTYPE1
 70
    64
  3
PHANTOM
 72
    65
 73
     6
 40
50.0
 49
37.5
 49
-2.5
 49
2.5
 49
-2.5
 49
2.5
 49
-2.5
  0
ENDTAB
  0
TABLE
  2
LAYER
 70
   128
  0
LAYER
  2
0
 70
     0
 62
     7
  6
CONTINUOUS
  0
LAYER
  2
2
 70
     0
 62
     7
  6
CONTINUOUS
  0
LAYER
  2
3
 70
     0
 62
     7
  6
CONTINUOUS
  0
LAYER
  2
4
 70
     0
 62
     7
  6
CONTINUOUS
  0
LAYER
  2
5
 70
     0
 62
     7
  6
CONTINUOUS
  0
LAYER
  2
6
 70
     0
 62
     7
  6
CONTINUOUS
  0
LAYER
  2
7
 70
     0
 62
     7
  6
CONTINUOUS
  0
LAYER
  2
8
 70
     0
 62
     7
  6
CONTINUOUS
  0
LAYER
  2
9
 70
     0
 62
     7
  6
CONTINUOUS
  0
LAYER
  2
10
 70
     0
 62
     7
  6
CONTINUOUS
  0
LAYER
  2
11
 70
     0
 62
     7
  6
CONTINUOUS
  0
LAYER
  2
12
 70
     0
 62
     7
  6
CONTINUOUS
  0
LAYER
  2
13
 70
     0
 62
     7
  6
CONTINUOUS
  0
LAYER
  2
14
 70
     0
 62
     7
  6
CONTINUOUS
  0
LAYER
  2
15
 70
     0
 62
     7
  6
CONTINUOUS
  0
LAYER
  2
16
 70
     0
 62
     7
  6
CONTINUOUS
  0
LAYER
  2
17
 70
     0
 62
     7
  6
CONTINUOUS
  0
LAYER
  2
18
 70
     0
 62
     7
  6
CONTINUOUS
  0
LAYER
  2
19
 70
     0
 62
     7
  6
CONTINUOUS
  0
LAYER
  2
20
 70
     0
 62
     7
  6
CONTINUOUS
  0
LAYER
  2
21
 70
     0
 62
     7
  6
CONTINUOUS
  0
LAYER
  2
22
 70
     0
 62
     7
  6
CONTINUOUS
  0
LAYER
  2
23
 70
     0
 62
     7
  6
CONTINUOUS
  0
LAYER
  2
24
 70
     0
 62
     7
  6
CONTINUOUS
  0
LAYER
  2
25
 70
     0
 62
     7
  6
CONTINUOUS
  0
LAYER
  2
26
 70
     0
 62
     7
  6
CONTINUOUS
  0
LAYER
  2
27
 70
     0
 62
     7
  6
CONTINUOUS
  0
LAYER
  2
28
 70
     0
 62
     7
  6
CONTINUOUS
  0
LAYER
  2
29
 70
     0
 62
     7
  6
CONTINUOUS
  0
LAYER
  2
30
 70
     0
 62
     7
  6
CONTINUOUS
  0
LAYER
  2
31
 70
     0
 62
     7
  6
CONTINUOUS
  0
LAYER
  2
32
 70
     0
 62
     7
  6
CONTINUOUS
  0
LAYER
  2
33
 70
     0
 62
     7
  6
CONTINUOUS
  0
LAYER
  2
34
 70
     0
 62
     7
  6
CONTINUOUS
  0
LAYER
  2
35
 70
     0
 62
     7
  6
CONTINUOUS
  0
LAYER
  2
36
 70
     0
 62
     7
  6
CONTINUOUS
  0
LAYER
  2
37
 70
     0
 62
     7
  6
CONTINUOUS
  0
LAYER
  2
38
 70
     0
 62
     7
  6
CONTINUOUS
  0
LAYER
  2
39
 70
     0
 62
     7
  6
CONTINUOUS
  0
LAYER
  2
40
 70
     0
 62
     7
  6
CONTINUOUS
  0
LAYER
  2
41
 70
     0
 62
     7
  6
CONTINUOUS
  0
LAYER
  2
42
 70
     0
 62
     7
  6
CONTINUOUS
  0
LAYER
  2
43
 70
     0
 62
     7
  6
CONTINUOUS
  0
LAYER
  2
44
 70
     0
 62
     7
  6
CONTINUOUS
  0
LAYER
  2
45
 70
     0
 62
     7
  6
CONTINUOUS
  0
LAYER
  2
46
 70
     0
 62
     7
  6
CONTINUOUS
  0
LAYER
  2
47
 70
     0
 62
     7
  6
CONTINUOUS
  0
LAYER
  2
48
 70
     0
 62
     7
  6
CONTINUOUS
  0
LAYER
  2
49
 70
     0
 62
     7
  6
CONTINUOUS
  0
LAYER
  2
50
 70
     0
 62
     7
  6
CONTINUOUS
  0
LAYER
  2
51
 70
     0
 62
     7
  6
CONTINUOUS
  0
LAYER
  2
52
 70
     0
 62
     7
  6
CONTINUOUS
  0
LAYER
  2
53
 70
     0
 62
     7
  6
CONTINUOUS
  0
LAYER
  2
54
 70
     0
 62
     7
  6
CONTINUOUS
  0
LAYER
  2
55
 70
     0
 62
     7
  6
CONTINUOUS
  0
LAYER
  2
56
 70
     0
 62
     7
  6
CONTINUOUS
  0
LAYER
  2
57
 70
     0
 62
     7
  6
CONTINUOUS
  0
LAYER
  2
58
 70
     0
 62
     7
  6
CONTINUOUS
  0
LAYER
  2
59
 70
     0
 62
     7
  6
CONTINUOUS
  0
LAYER
  2
60
 70
     0
 62
     7
  6
CONTINUOUS
  0
LAYER
  2
61
 70
     0
 62
     7
  6
CONTINUOUS
  0
LAYER
  2
62
 70
     0
 62
     7
  6
CONTINUOUS
  0
LAYER
  2
63
 70
     0
 62
     7
  6
CONTINUOUS
  0
LAYER
  2
64
 70
     0
 62
     7
  6
CONTINUOUS
  0
LAYER
  2
65
 70
     0
 62
     7
  6
CONTINUOUS
  0
LAYER
  2
66
 70
     0
 62
     7
  6
CONTINUOUS
  0
LAYER
  2
67
 70
     0
 62
     7
  6
CONTINUOUS
  0
LAYER
  2
68
 70
     0
 62
     7
  6
CONTINUOUS
  0
LAYER
  2
69
 70
     0
 62
     7
  6
CONTINUOUS
  0
LAYER
  2
70
 70
     0
 62
     7
  6
CONTINUOUS
  0
LAYER
  2
71
 70
     0
 62
     7
  6
CONTINUOUS
  0
LAYER
  2
72
 70
     0
 62
     7
  6
CONTINUOUS
  0
LAYER
  2
73
 70
     0
 62
     7
  6
CONTINUOUS
  0
LAYER
  2
74
 70
     0
 62
     7
  6
CONTINUOUS
  0
LAYER
  2
75
 70
     0
 62
     7
  6
CONTINUOUS
  0
LAYER
  2
76
 70
     0
 62
     7
  6
CONTINUOUS
  0
LAYER
  2
77
 70
     0
 62
     7
  6
CONTINUOUS
  0
LAYER
  2
78
 70
     0
 62
     7
  6
CONTINUOUS
  0
LAYER
  2
79
 70
     0
 62
     7
  6
CONTINUOUS
  0
LAYER
  2
80
 70
     0
 62
     7
  6
CONTINUOUS
  0
LAYER
  2
81
 70
     0
 62
     7
  6
CONTINUOUS
  0
LAYER
  2
82
 70
     0
 62
     7
  6
CONTINUOUS
  0
LAYER
  2
83
 70
     0
 62
     7
  6
CONTINUOUS
  0
LAYER
  2
84
 70
     0
 62
     7
  6
CONTINUOUS
  0
LAYER
  2
85
 70
     0
 62
     7
  6
CONTINUOUS
  0
LAYER
  2
86
 70
     0
 62
     7
  6
CONTINUOUS
  0
LAYER
  2
87
 70
     0
 62
     7
  6
CONTINUOUS
  0
LAYER
  2
88
 70
     0
 62
     7
  6
CONTINUOUS
  0
LAYER
  2
89
 70
     0
 62
     7
  6
CONTINUOUS
  0
LAYER
  2
90
 70
     0
 62
     7
  6
CONTINUOUS
  0
LAYER
  2
91
 70
     0
 62
     7
  6
CONTINUOUS
  0
LAYER
  2
92
 70
     0
 62
     7
  6
CONTINUOUS
  0
LAYER
  2
93
 70
     0
 62
     7
  6
CONTINUOUS
  0
LAYER
  2
94
 70
     0
 62
     7
  6
CONTINUOUS
  0
LAYER
  2
95
 70
     0
 62
     7
  6
CONTINUOUS
  0
LAYER
  2
96
 70
     0
 62
     7
  6
CONTINUOUS
  0
LAYER
  2
97
 70
     0
 62
     7
  6
CONTINUOUS
  0
LAYER
  2
98
 70
     0
 62
     7
  6
CONTINUOUS
  0
LAYER
  2
99
 70
     0
 62
     7
  6
CONTINUOUS
  0
LAYER
  2
100
 70
     0
 62
     7
  6
CONTINUOUS
  0
LAYER
  2
101
 70
     0
 62
     7
  6
CONTINUOUS
  0
LAYER
  2
102
 70
     0
 62
     7
  6
CONTINUOUS
  0
LAYER
  2
103
 70
     0
 62
     7
  6
CONTINUOUS
  0
LAYER
  2
104
 70
     0
 62
     7
  6
CONTINUOUS
  0
LAYER
  2
105
 70
     0
 62
     7
  6
CONTINUOUS
  0
LAYER
  2
106
 70
     0
 62
     7
  6
CONTINUOUS
  0
LAYER
  2
107
 70
     0
 62
     7
  6
CONTINUOUS
  0
LAYER
  2
108
 70
     0
 62
     7
  6
CONTINUOUS
  0
LAYER
  2
109
 70
     0
 62
     7
  6
CONTINUOUS
  0
LAYER
  2
110
 70
     0
 62
     7
  6
CONTINUOUS
  0
LAYER
  2
111
 70
     0
 62
     7
  6
CONTINUOUS
  0
LAYER
  2
112
 70
     0
 62
     7
  6
CONTINUOUS
  0
LAYER
  2
113
 70
     0
 62
     7
  6
CONTINUOUS
  0
LAYER
  2
114
 70
     0
 62
     7
  6
CONTINUOUS
  0
LAYER
  2
115
 70
     0
 62
     7
  6
CONTINUOUS
  0
LAYER
  2
116
 70
     0
 62
     7
  6
CONTINUOUS
  0
LAYER
  2
117
 70
     0
 62
     7
  6
CONTINUOUS
  0
LAYER
  2
118
 70
     0
 62
     7
  6
CONTINUOUS
  0
LAYER
  2
119
 70
     0
 62
     7
  6
CONTINUOUS
  0
LAYER
  2
120
 70
     0
 62
     7
  6
CONTINUOUS
  0
LAYER
  2
121
 70
     0
 62
     7
  6
CONTINUOUS
  0
LAYER
  2
122
 70
     0
 62
     7
  6
CONTINUOUS
  0
LAYER
  2
123
 70
     0
 62
     7
  6
CONTINUOUS
  0
LAYER
  2
124
 70
     0
 62
     7
  6
CONTINUOUS
  0
LAYER
  2
125
 70
     0
 62
     7
  6
CONTINUOUS
  0
LAYER
  2
126
 70
     0
 62
     7
  6
CONTINUOUS
  0
LAYER
  2
127
 70
     0
 62
     7
  6
CONTINUOUS
  0
LAYER
  2
128
 70
     0
 62
     7
  6
CONTINUOUS
  0
ENDTAB
  0
TABLE
  2
STYLE
 70
     3
  0
STYLE
  2
STANDARD
 70
     0
 40
0.0
 41
1.0
 50
0.0
 71
     0
 42
0.2
  3
txt
  4

  0
STYLE
  2
KANJI0
 70
     0
 40
15.0
 41
0.433333333
 50
0.0
 71
     0
 42
15.0
  3

  4
bigfont
  0
STYLE
  2
KANJI1
 70
     0
 40
25.0
 41
0.47
 50
0.0
 71
     0
 42
25.0
  3

  4
bigfont
  0
ENDTAB
  0
TABLE
  2
VIEW
 70
     0
  0
ENDTAB
  0
ENDSEC
  0
SECTION
  2
BLOCKS
  0
ENDSEC
  0
SECTION
  2
ENTITIES
  0
CIRCLE
  8
0
  6
CONTINUOUS
 62
     2
 10
878.396673549
 20
265.6
 40
30.0
  0
CIRCLE
  8
0
  6
CONTINUOUS
 62
     2
 10
1364.396673549
 20
265.6
 40
30.0
  0
LINE
  8
0
  6
CONTINUOUS
 62
     1
 10
869.896673549
 20
311.6
 11
920.896673549
 21
311.6
  0
LINE
  8
0
  6
CONTINUOUS
 62
     2
 10
902.896673549
 20
311.6
 11
902.896673549
 21
282.913289693
  0
LINE
  8
0
  6
CONTINUOUS
 62
     2
 10
887.896673549
 20
311.6
 11
887.896673549
 21
294.05610655
  0
LINE
  8
0
  6
CONTINUOUS
 62
     2
 10
1354.896673549
 20
311.6
 11
1354.896673549
 21
294.05610655
  0
LINE
  8
0
  6
CONTINUOUS
 62
     2
 10
1339.896673549
 20
311.6
 11
1339.896673549
 21
282.913289693
  0
LINE
  8
0
  6
CONTINUOUS
 62
     1
 10
1273.686144003
 20
258.6
 11
969.107203096
 21
258.6
  0
LINE
  8
0
  6
CONTINUOUS
 62
     1
 10
1313.03780765
 20
314.8
 11
1273.686144003
 21
258.6
  0
LINE
  8
0
  6
CONTINUOUS
 62
     1
 10
929.755539448
 20
314.8
 11
969.107203096
 21
258.6
  0
LINE
  8
0
  6
CONTINUOUS
 62
     1
 10
867.796673549
 20
311.6
 11
867.796673549
 21
338.772642517
  0
LINE
  8
0
  6
CONTINUOUS
 62
     1
 10
870.580578407
 20
351.522653831
 11
867.796673549
 21
338.772642517
  0
LINE
  8
0
  6
CONTINUOUS
 62
     1
 10
867.796673549
 20
311.6
 11
879.796673549
 21
311.6
  0
LINE
  8
0
  6
CONTINUOUS
 62
     1
 10
1372.996673549
 20
807.35
 11
1372.996673549
 21
783.95
  0
LINE
  8
0
  6
CONTINUOUS
 62
     1
 10
980.685239555
 20
808.913171981
 11
970.915414673
 21
811.046367182
  0
LINE
  8
0
  6
CONTINUOUS
 62
     1
 10
970.915414673
 20
811.046367182
 11
965.582426671
 21
786.621804976
  0
LINE
  8
0
  6
CONTINUOUS
 62
     1
 10
1372.996673549
 20
807.35
 11
980.343928323
 21
807.35
  0
LINE
  8
0
  6
CONTINUOUS
 62
     1
 10
980.685239555
 20
808.913171981
 11
980.343928323
 21
807.35
  0
LINE
  8
0
  6
CONTINUOUS
 62
     1
 10
967.145598652
 20
786.280493743
 11
965.582426671
 21
786.621804976
  0
LINE
  8
0
  6
CONTINUOUS
 62
     1
 10
1372.996673549
 20
783.95
 11
1371.396673549
 21
783.95
  0
LINE
  8
0
  6
CONTINUOUS
 62
     1
 10
1371.396673549
 20
783.95
 11
1371.396673549
 21
338.6
  0
LINE
  8
0
  6
CONTINUOUS
 62
     1
 10
1371.396673549
 20
338.6
 11
1373.396673549
 21
338.6
  0
LINE
  8
0
  6
CONTINUOUS
 62
     1
 10
1321.996673549
 20
311.6
 11
1373.396673549
 21
311.6
  0
LINE
  8
0
  6
CONTINUOUS
 62
     1
 10
1373.396673549
 20
311.6
 11
1373.396673549
 21
338.6
  0
LINE
  8
0
  6
CONTINUOUS
 62
     1
 10
967.145598652
 20
786.280493743
 11
872.143750388
 21
351.181342599
  0
LINE
  8
0
  6
CONTINUOUS
 62
     1
 10
872.143750388
 20
351.181342599
 11
870.580578407
 21
351.522653831
  0
LINE
  8
0
  6
CONTINUOUS
 62
     1
 10
920.896673549
 20
314.8
 11
920.896673549
 21
311.6
  0
LINE
  8
0
  6
CONTINUOUS
 62
     1
 10
1313.03780765
 20
314.8
 11
1275.086559079
 21
260.6
  0
LINE
  8
0
  6
CONTINUOUS
 62
     1
 10
1321.996673549
 20
314.8
 11
1321.996673549
 21
311.6
  0
LINE
  8
0
  6
CONTINUOUS
 62
     1
 10
920.896673549
 20
314.8
 11
1321.996673549
 21
314.8
  0
LINE
  8
0
  6
LTYPE1
 62
     2
 10
872.234411184
 20
351.596560157
 11
1263.027406486
 21
266.268752128
  0
LINE
  8
0
  6
LTYPE1
 62
     2
 10
1357.847933158
 20
700.537468157
 11
1263.027406486
 21
266.268752128
  0
LINE
  8
0
  6
LTYPE1
 62
     2
 10
967.054937856
 20
785.865276186
 11
1357.847933158
 21
700.537468157
  0
LINE
  8
6
  6
CONTINUOUS
 62
     2
 10
1372.996673549
 20
817.35
 11
1372.996673549
 21
921.046367182
  0
LINE
  8
6
  6
CONTINUOUS
 62
     2
 10
1372.996673549
 20
911.046367182
 11
1363.337415286
 21
913.634557633
  0
LINE
  8
6
  6
CONTINUOUS
 62
     2
 10
1372.996673549
 20
911.046367182
 11
1363.337415286
 21
908.458176731
  0
LINE
  8
6
  6
CONTINUOUS
 62
     2
 10
1372.996673549
 20
911.046367182
 11
970.915414673
 21
911.046367182
  0
LINE
  8
6
  6
CONTINUOUS
 62
     2
 10
970.915414673
 20
911.046367182
 11
980.574672936
 21
908.458176731
  0
LINE
  8
6
  6
CONTINUOUS
 62
     2
 10
970.915414673
 20
911.046367182
 11
980.574672936
 21
913.634557633
  0
LINE
  8
6
  6
CONTINUOUS
 62
     2
 10
970.915414673
 20
821.046367182
 11
970.915414673
 21
921.046367182
  0
TEXT
  8
6
  6
CONTINUOUS
 62
     2
 10
1160.706044111
 20
916.046367182
 30
1.5
 40
15.0
  1
４００
 50
0.0
 41
0.433333333
 51
0.0
  7
KANJI0
  0
LINE
  8
6
  6
CONTINUOUS
 62
     2
 10
1373.396673549
 20
301.6
 11
1373.396673549
 21
125.6
  0
LINE
  8
6
  6
CONTINUOUS
 62
     2
 10
1373.396673549
 20
135.6
 11
1363.737415286
 21
138.188190451
  0
LINE
  8
6
  6
CONTINUOUS
 62
     2
 10
1373.396673549
 20
135.6
 11
1363.737415286
 21
133.011809549
  0
LINE
  8
6
  6
CONTINUOUS
 62
     2
 10
1373.396673549
 20
135.6
 11
867.796673549
 21
135.6
  0
LINE
  8
6
  6
CONTINUOUS
 62
     2
 10
867.796673549
 20
135.6
 11
877.455931812
 21
133.011809549
  0
LINE
  8
6
  6
CONTINUOUS
 62
     2
 10
867.796673549
 20
135.6
 11
877.455931812
 21
138.188190451
  0
LINE
  8
6
  6
CONTINUOUS
 62
     2
 10
867.796673549
 20
301.6
 11
867.796673549
 21
125.6
  0
TEXT
  8
6
  6
CONTINUOUS
 62
     2
 10
1109.346673549
 20
140.6
 30
1.5
 40
15.0
  1
５００
 50
0.0
 41
0.433333333
 51
0.0
  7
KANJI0
  0
LINE
  8
6
  6
CONTINUOUS
 62
     2
 10
1121.396673549
 20
258.6
 11
1123.984864
 21
268.259258263
  0
LINE
  8
6
  6
CONTINUOUS
 62
     2
 10
1121.396673549
 20
258.6
 11
1118.808483098
 21
268.259258263
  0
LINE
  8
6
  6
CONTINUOUS
 62
     2
 10
1121.396673549
 20
273.6
 11
1121.396673549
 21
258.6
  0
LINE
  8
6
  6
CONTINUOUS
 62
     2
 10
1121.396673549
 20
258.6
 11
1121.396673549
 21
235.6
  0
LINE
  8
6
  6
CONTINUOUS
 62
     2
 10
1121.396673549
 20
235.6
 11
1121.396673549
 21
206.1
  0
LINE
  8
6
  6
CONTINUOUS
 62
     2
 10
1121.396673549
 20
235.6
 11
1118.808483098
 21
225.940741737
  0
LINE
  8
6
  6
CONTINUOUS
 62
     2
 10
1121.396673549
 20
235.6
 11
1123.984864
 21
225.940741737
  0
TEXT
  8
6
  6
CONTINUOUS
 62
     2
 10
1116.396673549
 20
206.1
 30
1.5
 40
15.0
  1
２３
 50
90.0
 41
0.433333333
 51
0.0
  7
KANJI0
  0
LINE
  8
0
  6
CONTINUOUS
 62
     1
 10
595.896673549
 20
314.8
 11
595.896673549
 21
311.6
  0
LINE
  8
0
  6
CONTINUOUS
 62
     1
 10
95.896673549
 20
314.8
 11
95.896673549
 21
311.6
  0
CIRCLE
  8
0
  6
CONTINUOUS
 62
     2
 10
108.896673549
 20
265.6
 40
30.0
  0
LINE
  8
0
  6
CONTINUOUS
 62
     2
 10
133.396673549
 20
311.6
 11
133.396673549
 21
282.913289693
  0
LINE
  8
0
  6
CONTINUOUS
 62
     2
 10
118.396673549
 20
311.6
 11
118.396673549
 21
294.05610655
  0
LINE
  8
0
  6
CONTINUOUS
 62
     2
 10
543.396673549
 20
295.6
 11
543.396673549
 21
235.6
  0
LINE
  8
0
  6
CONTINUOUS
 62
     2
 10
588.396673549
 20
295.6
 11
543.396673549
 21
295.6
  0
LINE
  8
0
  6
CONTINUOUS
 62
     2
 10
588.396673549
 20
295.6
 11
588.396673549
 21
235.6
  0
LINE
  8
0
  6
CONTINUOUS
 62
     2
 10
558.396673549
 20
311.6
 11
558.396673549
 21
295.6
  0
LINE
  8
0
  6
CONTINUOUS
 62
     2
 10
573.396673549
 20
311.6
 11
573.396673549
 21
295.6
  0
LINE
  8
0
  6
CONTINUOUS
 62
     1
 10
535.896673549
 20
311.6
 11
595.896673549
 21
311.6
  0
LINE
  8
0
  6
CONTINUOUS
 62
     1
 10
155.896673549
 20
311.6
 11
95.896673549
 21
311.6
  0
LINE
  8
0
  6
CONTINUOUS
 62
     1
 10
95.896673549
 20
351.522653831
 11
595.896673549
 21
351.522653831
  0
LINE
  8
0
  6
CONTINUOUS
 62
     1
 10
595.896673549
 20
351.522653831
 11
595.896673549
 21
314.8
  0
LINE
  8
0
  6
CONTINUOUS
 62
     1
 10
95.896673549
 20
351.522653831
 11
95.896673549
 21
314.8
  0
LINE
  8
0
  6
CONTINUOUS
 62
     1
 10
574.896673549
 20
258.6
 11
549.896673549
 21
258.6
  0
LINE
  8
0
  6
CONTINUOUS
 62
     1
 10
116.896673549
 20
258.6
 11
141.896673549
 21
258.6
  0
LINE
  8
0
  6
CONTINUOUS
 62
     1
 10
95.896673549
 20
311.6
 11
595.896673549
 21
311.6
  0
LINE
  8
0
  6
CONTINUOUS
 62
     1
 10
595.896673549
 20
316.8
 11
595.896673549
 21
805.75
  0
LINE
  8
0
  6
CONTINUOUS
 62
     1
 10
95.896673549
 20
316.8
 11
95.896673549
 21
805.75
  0
LINE
  8
0
  6
CONTINUOUS
 62
     1
 10
595.896673549
 20
805.75
 11
595.896673549
 21
807.35
  0
LINE
  8
0
  6
CONTINUOUS
 62
     1
 10
95.896673549
 20
805.75
 11
95.896673549
 21
807.35
  0
LINE
  8
0
  6
CONTINUOUS
 62
     1
 10
95.896673549
 20
786.621804976
 11
595.896673549
 21
786.621804976
  0
LINE
  8
0
  6
CONTINUOUS
 62
     1
 10
595.896673549
 20
786.621804976
 11
595.896673549
 21
811.046367182
  0
LINE
  8
0
  6
CONTINUOUS
 62
     1
 10
95.896673549
 20
811.046367182
 11
595.896673549
 21
811.046367182
  0
LINE
  8
0
  6
CONTINUOUS
 62
     1
 10
95.896673549
 20
786.621804976
 11
95.896673549
 21
811.046367182
  0
LINE
  8
0
  6
CONTINUOUS
 62
     1
 10
571.396673549
 20
351.522653831
 11
571.396673549
 21
786.621804976
  0
LINE
  8
0
  6
CONTINUOUS
 62
     1
 10
116.896673549
 20
258.6
 11
116.896673549
 21
311.6
  0
LINE
  8
0
  6
CONTINUOUS
 62
     1
 10
141.896673549
 20
258.6
 11
141.896673549
 21
260.6
  0
LINE
  8
0
  6
CONTINUOUS
 62
     1
 10
574.896673549
 20
258.6
 11
574.896673549
 21
311.6
  0
LINE
  8
0
  6
CONTINUOUS
 62
     1
 10
549.896673549
 20
260.6
 11
141.896673549
 21
260.6
  0
LINE
  8
0
  6
CONTINUOUS
 62
     1
 10
549.896673549
 20
258.6
 11
549.896673549
 21
260.6
  0
LINE
  8
0
  6
CONTINUOUS
 62
     1
 10
120.396673549
 20
351.522653831
 11
120.396673549
 21
786.621804976
  0
LINE
  8
6
  6
CONTINUOUS
 62
     2
 10
605.896673549
 20
811.046367182
 11
705.896673549
 21
811.046367182
  0
LINE
  8
6
  6
CONTINUOUS
 62
     2
 10
695.896673549
 20
811.046367182
 11
693.308483098
 21
801.387108919
  0
LINE
  8
6
  6
CONTINUOUS
 62
     2
 10
695.896673549
 20
811.046367182
 11
698.484864
 21
801.387108919
  0
LINE
  8
6
  6
CONTINUOUS
 62
     2
 10
695.896673549
 20
811.046367182
 11
695.896673549
 21
235.600000182
  0
LINE
  8
6
  6
CONTINUOUS
 62
     2
 10
695.896673549
 20
235.600000182
 11
698.484864
 21
245.259258445
  0
LINE
  8
6
  6
CONTINUOUS
 62
     2
 10
695.896673549
 20
235.600000182
 11
693.308483098
 21
245.259258445
  0
TEXT
  8
6
  6
CONTINUOUS
 62
     2
 10
690.896673549
 20
512.073183682
 30
1.5
 40
15.0
  1
５７６
 50
90.0
 41
0.433333333
 51
0.0
  7
KANJI0
  0
LINE
  8
6
  6
CONTINUOUS
 62
     2
 10
595.896673549
 20
821.046367182
 11
595.896673549
 21
921.046367182
  0
LINE
  8
6
  6
CONTINUOUS
 62
     2
 10
595.896673549
 20
911.046367182
 11
586.237415286
 21
913.634557633
  0
LINE
  8
6
  6
CONTINUOUS
 62
     2
 10
595.896673549
 20
911.046367182
 11
586.237415286
 21
908.458176731
  0
LINE
  8
6
  6
CONTINUOUS
 62
     2
 10
595.896673549
 20
911.046367182
 11
95.896673549
 21
911.046367182
  0
LINE
  8
6
  6
CONTINUOUS
 62
     2
 10
95.896673549
 20
911.046367182
 11
105.555931812
 21
908.458176731
  0
LINE
  8
6
  6
CONTINUOUS
 62
     2
 10
95.896673549
 20
911.046367182
 11
105.555931812
 21
913.634557633
  0
LINE
  8
6
  6
CONTINUOUS
 62
     2
 10
95.896673549
 20
821.046367182
 11
95.896673549
 21
921.046367182
  0
TEXT
  8
6
  6
CONTINUOUS
 62
     2
 10
334.646673549
 20
916.046367182
 30
1.5
 40
15.0
  1
５００
 50
0.0
 41
0.433333333
 51
0.0
  7
KANJI0
  0
LINE
  8
0
  6
CONTINUOUS
 62
     2
 10
1412.846673549
 20
235.6
 11
60.0
 21
235.6
  0
LINE
  8
6
  6
CONTINUOUS
 62
     2
 10
957.37577377
 20
788.413688944
 11
853.664585803
 21
811.058537863
  0
LINE
  8
6
  6
CONTINUOUS
 62
     2
 10
863.434410685
 20
808.925342663
 11
858.845285601
 21
800.040528035
  0
LINE
  8
6
  6
CONTINUOUS
 62
     2
 10
863.434410685
 20
808.925342663
 11
863.902519095
 21
798.936304945
  0
LINE
  8
6
  6
CONTINUOUS
 62
     2
 10
863.434410685
 20
808.925342663
 11
768.432562421
 21
373.826191519
  0
LINE
  8
6
  6
CONTINUOUS
 62
     2
 10
768.432562421
 20
373.826191519
 11
773.021687505
 21
382.711006146
  0
LINE
  8
6
  6
CONTINUOUS
 62
     2
 10
768.432562421
 20
373.826191519
 11
767.964454011
 21
383.815229236
  0
LINE
  8
6
  6
CONTINUOUS
 62
     2
 10
862.373925505
 20
353.3145378
 11
758.662737538
 21
375.959386719
  0
TEXT
  8
6
  6
CONTINUOUS
 62
     2
 10
808.648721871
 20
581.451317306
 30
1.5
 40
15.0
  1
１０Ｕ
 50
77.683
 41
0.433333333
 51
0.0
  7
KANJI0
  0
LINE
  8
6
  6
CONTINUOUS
 62
     2
 10
917.511479319
 20
558.961093289
 11
915.790130599
 21
551.077484908
  0
LINE
  8
6
  6
CONTINUOUS
 62
     2
 10
917.923325799
 20
560.84730979
 11
926.808140427
 21
556.258184706
  0
LINE
  8
6
  6
CONTINUOUS
 62
     2
 10
917.923325799
 20
560.84730979
 11
927.912363517
 21
561.3154182
  0
LINE
  8
6
  6
CONTINUOUS
 62
     2
 10
917.923325799
 20
560.84730979
 11
1308.716321101
 21
475.519501761
  0
LINE
  8
6
  6
CONTINUOUS
 62
     2
 10
1308.716321101
 20
475.519501761
 11
1299.831506474
 21
480.108626845
  0
LINE
  8
6
  6
CONTINUOUS
 62
     2
 10
1308.716321101
 20
475.519501761
 11
1298.727283384
 21
475.051393351
  0
LINE
  8
6
  6
CONTINUOUS
 62
     2
 10
1308.304474621
 20
473.63328526
 11
1306.5831259
 21
465.749676879
  0
TEXT
  8
6
  6
CONTINUOUS
 62
     2
 10
1103.395373666
 20
525.468170458
 30
1.5
 40
15.0
  1
奥行き４００ｍｍ
 50
347.683
 41
0.433333333
 51
0.0
  7
KANJI0
  0
LINE
  8
6
  6
CONTINUOUS
 62
     2
 10
1029.989761153
 20
314.8
 11
1027.401570702
 21
324.459258263
  0
LINE
  8
6
  6
CONTINUOUS
 62
     2
 10
1029.989761153
 20
314.8
 11
1032.577951604
 21
324.459258263
  0
ARC
  8
6
  6
CONTINUOUS
 62
     2
 10
864.200055761
 20
314.8
 40
165.789705393
 50
0.0
 51
77.683044106
  0
LINE
  8
6
  6
CONTINUOUS
 62
     2
 10
899.566236148
 20
476.773638901
 11
908.451050775
 21
472.184513818
  0
LINE
  8
6
  6
CONTINUOUS
 62
     2
 10
899.566236148
 20
476.773638901
 11
909.555273865
 21
477.241747311
  0
TEXT
  8
6
  6
CONTINUOUS
 62
     2
 10
990.169722209
 20
430.676352648
 30
1.5
 40
15.0
  1
（７７．５゜）
 50
308.841522053
 41
0.433333333
 51
0.0
  7
KANJI0
  0
TEXT
  8
0
  6
CONTINUOUS
 62
     1
 10
74.4
 20
151.25
 30
1.5
 40
25.0
  1
ＡＬＪ－０５０
 50
0.0
 41
0.47
 51
0.0
  7
KANJI1
  0
TEXT
  8
0
  6
CONTINUOUS
 62
     1
 10
81.95
 20
60.5
 30
1.5
 40
25.0
  1
Ａ４　１／５
 50
0.0
 41
0.47
 51
0.0
  7
KANJI1
  0
ENDSEC
  0
EOF
