  0
SECTION
  2
HEADER
  9
$EXTMIN
 10
0.0
 20
0.0
 30
0.0
  9
$EXTMAX
 10
2100.0
 20
1485.0
 30
0.0
  9
$LIMMIN
 10
0.0
 20
0.0
  9
$LIMMAX
 10
2100.0
 20
1485.0
  9
$LTSCALE
 40
1.0
  9
$PDMODE
 70
     0
  0
ENDSEC
  0
SECTION
  2
TABLES
  0
TABLE
  2
LTYPE
 70
     4
  0
LTYPE
  2
CONTINUOUS
 70
    64
  3
Solid line
 72
    65
 73
     0
 40
0.0
  0
LTYPE
  2
LTYPE1
 70
    64
  3
CENTER
 72
    65
 73
     4
 40
60.0
 49
42.0
 49
-6.0
 49
6.0
 49
-6.0
  0
LTYPE
  2
LTYPE2
 70
    64
  3
HIDDEN
 72
    65
 73
     2
 40
10.0
 49
6.0
 49
-4.0
  0
LTYPE
  2
LTYPE3
 70
    64
  3
CENTER
 72
    65
 73
     4
 40
50.0
 49
35.0
 49
-5.0
 49
5.0
 49
-5.0
  0
ENDTAB
  0
TABLE
  2
LAYER
 70
   128
  0
LAYER
  2
0
 70
     0
 62
     7
  6
CONTINUOUS
  0
LAYER
  2
2
 70
     0
 62
     7
  6
CONTINUOUS
  0
LAYER
  2
3
 70
     0
 62
     7
  6
CONTINUOUS
  0
LAYER
  2
4
 70
     0
 62
     7
  6
CONTINUOUS
  0
LAYER
  2
5
 70
     0
 62
     7
  6
CONTINUOUS
  0
LAYER
  2
6
 70
     0
 62
     7
  6
CONTINUOUS
  0
LAYER
  2
7
 70
     0
 62
     7
  6
CONTINUOUS
  0
LAYER
  2
8
 70
     0
 62
     7
  6
CONTINUOUS
  0
LAYER
  2
9
 70
     0
 62
     7
  6
CONTINUOUS
  0
LAYER
  2
10
 70
     0
 62
     7
  6
CONTINUOUS
  0
LAYER
  2
11
 70
     0
 62
     7
  6
CONTINUOUS
  0
LAYER
  2
12
 70
     0
 62
     7
  6
CONTINUOUS
  0
LAYER
  2
13
 70
     0
 62
     7
  6
CONTINUOUS
  0
LAYER
  2
14
 70
     0
 62
     7
  6
CONTINUOUS
  0
LAYER
  2
15
 70
     0
 62
     7
  6
CONTINUOUS
  0
LAYER
  2
16
 70
     0
 62
     7
  6
CONTINUOUS
  0
LAYER
  2
17
 70
     0
 62
     7
  6
CONTINUOUS
  0
LAYER
  2
18
 70
     0
 62
     7
  6
CONTINUOUS
  0
LAYER
  2
19
 70
     0
 62
     7
  6
CONTINUOUS
  0
LAYER
  2
20
 70
     0
 62
     7
  6
CONTINUOUS
  0
LAYER
  2
21
 70
     0
 62
     7
  6
CONTINUOUS
  0
LAYER
  2
22
 70
     0
 62
     7
  6
CONTINUOUS
  0
LAYER
  2
23
 70
     0
 62
     7
  6
CONTINUOUS
  0
LAYER
  2
24
 70
     0
 62
     7
  6
CONTINUOUS
  0
LAYER
  2
25
 70
     0
 62
     7
  6
CONTINUOUS
  0
LAYER
  2
26
 70
     0
 62
     7
  6
CONTINUOUS
  0
LAYER
  2
27
 70
     0
 62
     7
  6
CONTINUOUS
  0
LAYER
  2
28
 70
     0
 62
     7
  6
CONTINUOUS
  0
LAYER
  2
29
 70
     0
 62
     7
  6
CONTINUOUS
  0
LAYER
  2
30
 70
     0
 62
     7
  6
CONTINUOUS
  0
LAYER
  2
31
 70
     0
 62
     7
  6
CONTINUOUS
  0
LAYER
  2
32
 70
     0
 62
     7
  6
CONTINUOUS
  0
LAYER
  2
33
 70
     0
 62
     7
  6
CONTINUOUS
  0
LAYER
  2
34
 70
     0
 62
     7
  6
CONTINUOUS
  0
LAYER
  2
35
 70
     0
 62
     7
  6
CONTINUOUS
  0
LAYER
  2
36
 70
     0
 62
     7
  6
CONTINUOUS
  0
LAYER
  2
37
 70
     0
 62
     7
  6
CONTINUOUS
  0
LAYER
  2
38
 70
     0
 62
     7
  6
CONTINUOUS
  0
LAYER
  2
39
 70
     0
 62
     7
  6
CONTINUOUS
  0
LAYER
  2
40
 70
     0
 62
     7
  6
CONTINUOUS
  0
LAYER
  2
41
 70
     0
 62
     7
  6
CONTINUOUS
  0
LAYER
  2
42
 70
     0
 62
     7
  6
CONTINUOUS
  0
LAYER
  2
43
 70
     0
 62
     7
  6
CONTINUOUS
  0
LAYER
  2
44
 70
     0
 62
     7
  6
CONTINUOUS
  0
LAYER
  2
45
 70
     0
 62
     7
  6
CONTINUOUS
  0
LAYER
  2
46
 70
     0
 62
     7
  6
CONTINUOUS
  0
LAYER
  2
47
 70
     0
 62
     7
  6
CONTINUOUS
  0
LAYER
  2
48
 70
     0
 62
     7
  6
CONTINUOUS
  0
LAYER
  2
49
 70
     0
 62
     7
  6
CONTINUOUS
  0
LAYER
  2
50
 70
     0
 62
     7
  6
CONTINUOUS
  0
LAYER
  2
51
 70
     0
 62
     7
  6
CONTINUOUS
  0
LAYER
  2
52
 70
     0
 62
     7
  6
CONTINUOUS
  0
LAYER
  2
53
 70
     0
 62
     7
  6
CONTINUOUS
  0
LAYER
  2
54
 70
     0
 62
     7
  6
CONTINUOUS
  0
LAYER
  2
55
 70
     0
 62
     7
  6
CONTINUOUS
  0
LAYER
  2
56
 70
     0
 62
     7
  6
CONTINUOUS
  0
LAYER
  2
57
 70
     0
 62
     7
  6
CONTINUOUS
  0
LAYER
  2
58
 70
     0
 62
     7
  6
CONTINUOUS
  0
LAYER
  2
59
 70
     0
 62
     7
  6
CONTINUOUS
  0
LAYER
  2
60
 70
     0
 62
     7
  6
CONTINUOUS
  0
LAYER
  2
61
 70
     0
 62
     7
  6
CONTINUOUS
  0
LAYER
  2
62
 70
     0
 62
     7
  6
CONTINUOUS
  0
LAYER
  2
63
 70
     0
 62
     7
  6
CONTINUOUS
  0
LAYER
  2
64
 70
     0
 62
     7
  6
CONTINUOUS
  0
LAYER
  2
65
 70
     0
 62
     7
  6
CONTINUOUS
  0
LAYER
  2
66
 70
     0
 62
     7
  6
CONTINUOUS
  0
LAYER
  2
67
 70
     0
 62
     7
  6
CONTINUOUS
  0
LAYER
  2
68
 70
     0
 62
     7
  6
CONTINUOUS
  0
LAYER
  2
69
 70
     0
 62
     7
  6
CONTINUOUS
  0
LAYER
  2
70
 70
     0
 62
     7
  6
CONTINUOUS
  0
LAYER
  2
71
 70
     0
 62
     7
  6
CONTINUOUS
  0
LAYER
  2
72
 70
     0
 62
     7
  6
CONTINUOUS
  0
LAYER
  2
73
 70
     0
 62
     7
  6
CONTINUOUS
  0
LAYER
  2
74
 70
     0
 62
     7
  6
CONTINUOUS
  0
LAYER
  2
75
 70
     0
 62
     7
  6
CONTINUOUS
  0
LAYER
  2
76
 70
     0
 62
     7
  6
CONTINUOUS
  0
LAYER
  2
77
 70
     0
 62
     7
  6
CONTINUOUS
  0
LAYER
  2
78
 70
     0
 62
     7
  6
CONTINUOUS
  0
LAYER
  2
79
 70
     0
 62
     7
  6
CONTINUOUS
  0
LAYER
  2
80
 70
     0
 62
     7
  6
CONTINUOUS
  0
LAYER
  2
81
 70
     0
 62
     7
  6
CONTINUOUS
  0
LAYER
  2
82
 70
     0
 62
     7
  6
CONTINUOUS
  0
LAYER
  2
83
 70
     0
 62
     7
  6
CONTINUOUS
  0
LAYER
  2
84
 70
     0
 62
     7
  6
CONTINUOUS
  0
LAYER
  2
85
 70
     0
 62
     7
  6
CONTINUOUS
  0
LAYER
  2
86
 70
     0
 62
     7
  6
CONTINUOUS
  0
LAYER
  2
87
 70
     0
 62
     7
  6
CONTINUOUS
  0
LAYER
  2
88
 70
     0
 62
     7
  6
CONTINUOUS
  0
LAYER
  2
89
 70
     0
 62
     7
  6
CONTINUOUS
  0
LAYER
  2
90
 70
     0
 62
     7
  6
CONTINUOUS
  0
LAYER
  2
91
 70
     0
 62
     7
  6
CONTINUOUS
  0
LAYER
  2
92
 70
     0
 62
     7
  6
CONTINUOUS
  0
LAYER
  2
93
 70
     0
 62
     7
  6
CONTINUOUS
  0
LAYER
  2
94
 70
     0
 62
     7
  6
CONTINUOUS
  0
LAYER
  2
95
 70
     0
 62
     7
  6
CONTINUOUS
  0
LAYER
  2
96
 70
     0
 62
     7
  6
CONTINUOUS
  0
LAYER
  2
97
 70
     0
 62
     7
  6
CONTINUOUS
  0
LAYER
  2
98
 70
     0
 62
     7
  6
CONTINUOUS
  0
LAYER
  2
99
 70
     0
 62
     7
  6
CONTINUOUS
  0
LAYER
  2
100
 70
     0
 62
     7
  6
CONTINUOUS
  0
LAYER
  2
101
 70
     0
 62
     7
  6
CONTINUOUS
  0
LAYER
  2
102
 70
     0
 62
     7
  6
CONTINUOUS
  0
LAYER
  2
103
 70
     0
 62
     7
  6
CONTINUOUS
  0
LAYER
  2
104
 70
     0
 62
     7
  6
CONTINUOUS
  0
LAYER
  2
105
 70
     0
 62
     7
  6
CONTINUOUS
  0
LAYER
  2
106
 70
     0
 62
     7
  6
CONTINUOUS
  0
LAYER
  2
107
 70
     0
 62
     7
  6
CONTINUOUS
  0
LAYER
  2
108
 70
     0
 62
     7
  6
CONTINUOUS
  0
LAYER
  2
109
 70
     0
 62
     7
  6
CONTINUOUS
  0
LAYER
  2
110
 70
     0
 62
     7
  6
CONTINUOUS
  0
LAYER
  2
111
 70
     0
 62
     7
  6
CONTINUOUS
  0
LAYER
  2
112
 70
     0
 62
     7
  6
CONTINUOUS
  0
LAYER
  2
113
 70
     0
 62
     7
  6
CONTINUOUS
  0
LAYER
  2
114
 70
     0
 62
     7
  6
CONTINUOUS
  0
LAYER
  2
115
 70
     0
 62
     7
  6
CONTINUOUS
  0
LAYER
  2
116
 70
     0
 62
     7
  6
CONTINUOUS
  0
LAYER
  2
117
 70
     0
 62
     7
  6
CONTINUOUS
  0
LAYER
  2
118
 70
     0
 62
     7
  6
CONTINUOUS
  0
LAYER
  2
119
 70
     0
 62
     7
  6
CONTINUOUS
  0
LAYER
  2
120
 70
     0
 62
     7
  6
CONTINUOUS
  0
LAYER
  2
121
 70
     0
 62
     7
  6
CONTINUOUS
  0
LAYER
  2
122
 70
     0
 62
     7
  6
CONTINUOUS
  0
LAYER
  2
123
 70
     0
 62
     7
  6
CONTINUOUS
  0
LAYER
  2
124
 70
     0
 62
     7
  6
CONTINUOUS
  0
LAYER
  2
125
 70
     0
 62
     7
  6
CONTINUOUS
  0
LAYER
  2
126
 70
     0
 62
     7
  6
CONTINUOUS
  0
LAYER
  2
127
 70
     0
 62
     7
  6
CONTINUOUS
  0
LAYER
  2
128
 70
     0
 62
     7
  6
CONTINUOUS
  0
ENDTAB
  0
TABLE
  2
STYLE
 70
     4
  0
STYLE
  2
STANDARD
 70
     0
 40
0.0
 41
1.0
 50
0.0
 71
     0
 42
0.2
  3
txt
  4

  0
STYLE
  2
KANJI0
 70
     0
 40
25.0
 41
0.94
 50
0.0
 71
     0
 42
25.0
  3

  4
bigfont
  0
STYLE
  2
KANJI1
 70
     0
 40
25.0
 41
0.47
 50
0.0
 71
     0
 42
25.0
  3

  4
bigfont
  0
STYLE
  2
KANJI2
 70
     0
 40
15.0
 41
0.6
 50
0.0
 71
     0
 42
15.0
  3

  4
bigfont
  0
ENDTAB
  0
TABLE
  2
VIEW
 70
     0
  0
ENDTAB
  0
ENDSEC
  0
SECTION
  2
BLOCKS
  0
ENDSEC
  0
SECTION
  2
ENTITIES
  0
TEXT
  8
6
  6
CONTINUOUS
 62
     2
 10
668.893347099
 20
1365.699999667
 30
1.5
 40
25.0
  1
構成商品
 50
0.0
 41
0.94
 51
0.0
  7
KANJI0
  0
TEXT
  8
6
  6
CONTINUOUS
 62
     2
 10
1603.793347099
 20
1262.949999667
 30
1.5
 40
25.0
  1
Ａ３　１／５
 50
0.0
 41
0.94
 51
0.0
  7
KANJI0
  0
LINE
  8
0
  6
CONTINUOUS
 62
     1
 10
1317.996673549
 20
980.2
 11
1317.996673549
 21
956.8
  0
LINE
  8
0
  6
CONTINUOUS
 62
     1
 10
816.396673549
 20
489.65
 11
816.396673549
 21
511.45
  0
CIRCLE
  8
0
  6
CONTINUOUS
 62
     1
 10
838.034432146
 20
935.854087255
 40
3.1
  0
CIRCLE
  8
0
  6
CONTINUOUS
 62
     1
 10
841.426212515
 20
951.388108818
 40
3.1
  0
CIRCLE
  8
0
  6
CONTINUOUS
 62
     1
 10
844.817992884
 20
966.922130381
 40
3.1
  0
ARC
  8
0
  6
CONTINUOUS
 62
     1
 10
829.787689814
 20
931.180708828
 40
1.7
 50
257.683044106
 51
77.683044106
  0
LINE
  8
0
  6
CONTINUOUS
 62
     1
 10
838.907099297
 20
972.946710201
 11
830.150332998
 21
932.841579058
  0
CIRCLE
  8
0
  6
CONTINUOUS
 62
     1
 10
828.552379478
 20
892.427215652
 40
3.1
  0
CIRCLE
  8
0
  6
CONTINUOUS
 62
     1
 10
831.944159847
 20
907.961237215
 40
3.1
  0
CIRCLE
  8
0
  6
CONTINUOUS
 62
     1
 10
835.335940217
 20
923.495258779
 40
3.1
  0
ARC
  8
0
  6
CONTINUOUS
 62
     1
 10
820.305637147
 20
887.753837226
 40
1.7
 50
257.683044106
 51
77.683044106
  0
LINE
  8
0
  6
CONTINUOUS
 62
     1
 10
829.42504663
 20
929.519838598
 11
820.668280331
 21
889.414707456
  0
CIRCLE
  8
0
  6
CONTINUOUS
 62
     1
 10
819.070326811
 20
849.000344049
 40
3.1
  0
CIRCLE
  8
0
  6
CONTINUOUS
 62
     1
 10
822.46210718
 20
864.534365612
 40
3.1
  0
CIRCLE
  8
0
  6
CONTINUOUS
 62
     1
 10
825.853887549
 20
880.068387176
 40
3.1
  0
ARC
  8
0
  6
CONTINUOUS
 62
     1
 10
810.82358448
 20
844.326965623
 40
1.7
 50
257.683044106
 51
77.683044106
  0
LINE
  8
0
  6
CONTINUOUS
 62
     1
 10
819.942993963
 20
886.092966995
 11
811.186227664
 21
845.987835853
  0
CIRCLE
  8
0
  6
CONTINUOUS
 62
     1
 10
809.588274144
 20
805.573472446
 40
3.1
  0
CIRCLE
  8
0
  6
CONTINUOUS
 62
     1
 10
812.980054513
 20
821.107494009
 40
3.1
  0
CIRCLE
  8
0
  6
CONTINUOUS
 62
     1
 10
816.371834882
 20
836.641515573
 40
3.1
  0
ARC
  8
0
  6
CONTINUOUS
 62
     1
 10
801.341531812
 20
800.90009402
 40
1.7
 50
257.683044106
 51
77.683044106
  0
LINE
  8
0
  6
CONTINUOUS
 62
     1
 10
810.460941295
 20
842.666095393
 11
801.704174996
 21
802.56096425
  0
CIRCLE
  8
0
  6
CONTINUOUS
 62
     1
 10
800.106221477
 20
762.146600843
 40
3.1
  0
CIRCLE
  8
0
  6
CONTINUOUS
 62
     1
 10
803.498001846
 20
777.680622407
 40
3.1
  0
CIRCLE
  8
0
  6
CONTINUOUS
 62
     1
 10
806.889782215
 20
793.21464397
 40
3.1
  0
ARC
  8
0
  6
CONTINUOUS
 62
     1
 10
791.859479145
 20
757.473222417
 40
1.7
 50
257.683044106
 51
77.683044106
  0
LINE
  8
0
  6
CONTINUOUS
 62
     1
 10
800.978888628
 20
799.23922379
 11
792.222122329
 21
759.134092647
  0
CIRCLE
  8
0
  6
CONTINUOUS
 62
     1
 10
790.624168809
 20
718.71972924
 40
3.1
  0
CIRCLE
  8
0
  6
CONTINUOUS
 62
     1
 10
794.015949179
 20
734.253750804
 40
3.1
  0
CIRCLE
  8
0
  6
CONTINUOUS
 62
     1
 10
797.407729548
 20
749.787772367
 40
3.1
  0
ARC
  8
0
  6
CONTINUOUS
 62
     1
 10
782.377426478
 20
714.046350814
 40
1.7
 50
257.683044106
 51
77.683044106
  0
LINE
  8
0
  6
CONTINUOUS
 62
     1
 10
791.496835961
 20
755.812352187
 11
782.740069662
 21
715.707221044
  0
CIRCLE
  8
0
  6
CONTINUOUS
 62
     1
 10
781.142116142
 20
675.292857637
 40
3.1
  0
CIRCLE
  8
0
  6
CONTINUOUS
 62
     1
 10
784.533896511
 20
690.826879201
 40
3.1
  0
CIRCLE
  8
0
  6
CONTINUOUS
 62
     1
 10
787.92567688
 20
706.360900764
 40
3.1
  0
ARC
  8
0
  6
CONTINUOUS
 62
     1
 10
772.895373811
 20
670.619479211
 40
1.7
 50
257.683044106
 51
77.683044106
  0
LINE
  8
0
  6
CONTINUOUS
 62
     1
 10
782.014783294
 20
712.385480584
 11
773.258016995
 21
672.280349441
  0
CIRCLE
  8
0
  6
CONTINUOUS
 62
     1
 10
771.660063475
 20
631.865986035
 40
3.1
  0
CIRCLE
  8
0
  6
CONTINUOUS
 62
     1
 10
775.051843844
 20
647.400007598
 40
3.1
  0
CIRCLE
  8
0
  6
CONTINUOUS
 62
     1
 10
778.443624213
 20
662.934029161
 40
3.1
  0
ARC
  8
0
  6
CONTINUOUS
 62
     1
 10
763.413321143
 20
627.192607608
 40
1.7
 50
257.683044106
 51
77.683044106
  0
LINE
  8
0
  6
CONTINUOUS
 62
     1
 10
772.532730627
 20
668.958608981
 11
763.775964328
 21
628.853477838
  0
CIRCLE
  8
0
  6
CONTINUOUS
 62
     1
 10
762.178010808
 20
588.439114432
 40
3.1
  0
CIRCLE
  8
0
  6
CONTINUOUS
 62
     1
 10
765.569791177
 20
603.973135995
 40
3.1
  0
CIRCLE
  8
0
  6
CONTINUOUS
 62
     1
 10
768.961571546
 20
619.507157558
 40
3.1
  0
ARC
  8
0
  6
CONTINUOUS
 62
     1
 10
753.931268476
 20
583.765736005
 40
1.7
 50
257.683044106
 51
77.683044106
  0
LINE
  8
0
  6
CONTINUOUS
 62
     1
 10
763.050677959
 20
625.531737378
 11
754.29391166
 21
585.426606235
  0
CIRCLE
  8
0
  6
CONTINUOUS
 62
     1
 10
752.69595814
 20
545.012242829
 40
3.1
  0
CIRCLE
  8
0
  6
CONTINUOUS
 62
     1
 10
756.08773851
 20
560.546264392
 40
3.1
  0
CIRCLE
  8
0
  6
CONTINUOUS
 62
     1
 10
759.479518879
 20
576.080285955
 40
3.1
  0
ARC
  8
0
  6
CONTINUOUS
 62
     1
 10
744.449215809
 20
540.338864402
 40
1.7
 50
257.683044106
 51
77.683044106
  0
LINE
  8
0
  6
CONTINUOUS
 62
     1
 10
753.568625292
 20
582.104865775
 11
744.811858993
 21
541.999734632
  0
LINE
  8
0
  6
CONTINUOUS
 62
     1
 10
1416.396673549
 20
978.6
 11
1416.396673549
 21
489.65
  0
CIRCLE
  8
0
  6
CONTINUOUS
 62
     1
 10
1433.836673549
 20
711.9
 40
3.1
  0
CIRCLE
  8
0
  6
CONTINUOUS
 62
     1
 10
1433.836673549
 20
727.8
 40
3.1
  0
CIRCLE
  8
0
  6
CONTINUOUS
 62
     1
 10
1433.836673549
 20
696.0
 40
3.1
  0
CIRCLE
  8
0
  6
CONTINUOUS
 62
     1
 10
1433.836673549
 20
667.45
 40
3.1
  0
CIRCLE
  8
0
  6
CONTINUOUS
 62
     1
 10
1433.836673549
 20
683.35
 40
3.1
  0
CIRCLE
  8
0
  6
CONTINUOUS
 62
     1
 10
1433.836673549
 20
651.55
 40
3.1
  0
ARC
  8
0
  6
CONTINUOUS
 62
     1
 10
1440.896673549
 20
689.675
 40
1.7
 50
90.0
 51
270.0
  0
ARC
  8
0
  6
CONTINUOUS
 62
     1
 10
1440.896673549
 20
645.225
 40
1.7
 50
90.0
 51
270.0
  0
LINE
  8
0
  6
CONTINUOUS
 62
     1
 10
1440.896673549
 20
687.975
 11
1440.896673549
 21
646.925
  0
ARC
  8
0
  6
CONTINUOUS
 62
     1
 10
1440.896673549
 20
734.125
 40
1.7
 50
90.0
 51
270.0
  0
LINE
  8
0
  6
CONTINUOUS
 62
     1
 10
1440.896673549
 20
732.425
 11
1440.896673549
 21
691.375
  0
CIRCLE
  8
0
  6
CONTINUOUS
 62
     1
 10
1433.836673549
 20
756.35
 40
3.1
  0
CIRCLE
  8
0
  6
CONTINUOUS
 62
     1
 10
1433.836673549
 20
772.25
 40
3.1
  0
CIRCLE
  8
0
  6
CONTINUOUS
 62
     1
 10
1433.836673549
 20
740.45
 40
3.1
  0
ARC
  8
0
  6
CONTINUOUS
 62
     1
 10
1440.896673549
 20
778.575
 40
1.7
 50
90.0
 51
270.0
  0
LINE
  8
0
  6
CONTINUOUS
 62
     1
 10
1440.896673549
 20
776.875
 11
1440.896673549
 21
735.825
  0
CIRCLE
  8
0
  6
CONTINUOUS
 62
     1
 10
1433.836673549
 20
800.8
 40
3.1
  0
CIRCLE
  8
0
  6
CONTINUOUS
 62
     1
 10
1433.836673549
 20
816.7
 40
3.1
  0
CIRCLE
  8
0
  6
CONTINUOUS
 62
     1
 10
1433.836673549
 20
784.9
 40
3.1
  0
ARC
  8
0
  6
CONTINUOUS
 62
     1
 10
1440.896673549
 20
823.025
 40
1.7
 50
90.0
 51
270.0
  0
LINE
  8
0
  6
CONTINUOUS
 62
     1
 10
1440.896673549
 20
821.325
 11
1440.896673549
 21
780.275
  0
CIRCLE
  8
0
  6
CONTINUOUS
 62
     1
 10
1433.836673549
 20
845.25
 40
3.1
  0
CIRCLE
  8
0
  6
CONTINUOUS
 62
     1
 10
1433.836673549
 20
861.15
 40
3.1
  0
CIRCLE
  8
0
  6
CONTINUOUS
 62
     1
 10
1433.836673549
 20
829.35
 40
3.1
  0
ARC
  8
0
  6
CONTINUOUS
 62
     1
 10
1440.896673549
 20
867.475
 40
1.7
 50
90.0
 51
270.0
  0
LINE
  8
0
  6
CONTINUOUS
 62
     1
 10
1440.896673549
 20
865.775
 11
1440.896673549
 21
824.725
  0
CIRCLE
  8
0
  6
CONTINUOUS
 62
     1
 10
1433.836673549
 20
889.7
 40
3.1
  0
CIRCLE
  8
0
  6
CONTINUOUS
 62
     1
 10
1433.836673549
 20
905.6
 40
3.1
  0
CIRCLE
  8
0
  6
CONTINUOUS
 62
     1
 10
1433.836673549
 20
873.8
 40
3.1
  0
ARC
  8
0
  6
CONTINUOUS
 62
     1
 10
1440.896673549
 20
911.925
 40
1.7
 50
90.0
 51
270.0
  0
LINE
  8
0
  6
CONTINUOUS
 62
     1
 10
1440.896673549
 20
910.225
 11
1440.896673549
 21
869.175
  0
CIRCLE
  8
0
  6
CONTINUOUS
 62
     1
 10
1433.836673549
 20
934.15
 40
3.1
  0
CIRCLE
  8
0
  6
CONTINUOUS
 62
     1
 10
1433.836673549
 20
950.05
 40
3.1
  0
CIRCLE
  8
0
  6
CONTINUOUS
 62
     1
 10
1433.836673549
 20
918.25
 40
3.1
  0
CIRCLE
  8
0
  6
CONTINUOUS
 62
     1
 10
1433.836673549
 20
623.0
 40
3.1
  0
CIRCLE
  8
0
  6
CONTINUOUS
 62
     1
 10
1433.836673549
 20
638.9
 40
3.1
  0
CIRCLE
  8
0
  6
CONTINUOUS
 62
     1
 10
1433.836673549
 20
607.1
 40
3.1
  0
ARC
  8
0
  6
CONTINUOUS
 62
     1
 10
1440.896673549
 20
600.775
 40
1.7
 50
90.0
 51
270.0
  0
LINE
  8
0
  6
CONTINUOUS
 62
     1
 10
1440.896673549
 20
643.525
 11
1440.896673549
 21
602.475
  0
CIRCLE
  8
0
  6
CONTINUOUS
 62
     1
 10
1433.836673549
 20
578.55
 40
3.1
  0
CIRCLE
  8
0
  6
CONTINUOUS
 62
     1
 10
1433.836673549
 20
594.45
 40
3.1
  0
CIRCLE
  8
0
  6
CONTINUOUS
 62
     1
 10
1433.836673549
 20
562.65
 40
3.1
  0
ARC
  8
0
  6
CONTINUOUS
 62
     1
 10
1440.896673549
 20
556.325
 40
1.7
 50
90.0
 51
270.0
  0
LINE
  8
0
  6
CONTINUOUS
 62
     1
 10
1440.896673549
 20
599.075
 11
1440.896673549
 21
558.025
  0
CIRCLE
  8
0
  6
CONTINUOUS
 62
     1
 10
1433.836673549
 20
534.1
 40
3.1
  0
CIRCLE
  8
0
  6
CONTINUOUS
 62
     1
 10
1433.836673549
 20
550.0
 40
3.1
  0
CIRCLE
  8
0
  6
CONTINUOUS
 62
     1
 10
1433.836673549
 20
518.2
 40
3.1
  0
LINE
  8
0
  6
CONTINUOUS
 62
     1
 10
1440.896673549
 20
554.625
 11
1440.896673549
 21
513.575
  0
LINE
  8
0
  6
CONTINUOUS
 62
     1
 10
1440.896673549
 20
954.675
 11
1440.896673549
 21
913.625
  0
LINE
  8
0
  6
CONTINUOUS
 62
     1
 10
620.896673549
 20
489.65
 11
620.896673549
 21
978.6
  0
LINE
  8
0
  6
CONTINUOUS
 62
     1
 10
120.896673549
 20
489.65
 11
120.896673549
 21
978.6
  0
LINE
  8
0
  6
CONTINUOUS
 62
     1
 10
1316.396673549
 20
978.6
 11
916.396673549
 21
978.6
  0
LINE
  8
0
  6
CONTINUOUS
 62
     1
 10
916.396673549
 20
978.6
 11
816.396673549
 21
520.609803922
  0
LINE
  8
0
  6
CONTINUOUS
 62
     1
 10
816.396673549
 20
511.45
 11
816.396673549
 21
520.609803922
  0
LINE
  8
0
  6
CONTINUOUS
 62
     1
 10
1316.396673549
 20
978.6
 11
1316.396673549
 21
489.65
  0
LINE
  8
0
  6
CONTINUOUS
 62
     1
 10
816.396673549
 20
489.65
 11
1316.396673549
 21
489.65
  0
LINE
  8
2
  6
CONTINUOUS
 62
     1
 10
925.685239555
 20
981.763171981
 11
915.915414673
 21
983.896367182
  0
LINE
  8
2
  6
CONTINUOUS
 62
     1
 10
925.685239555
 20
981.763171981
 11
925.343928323
 21
980.2
  0
LINE
  8
2
  6
CONTINUOUS
 62
     1
 10
925.343928323
 20
980.2
 11
917.137275422
 21
981.991883969
  0
LINE
  8
2
  6
CONTINUOUS
 62
     1
 10
915.915414673
 20
983.896367182
 11
910.582426671
 21
959.471804976
  0
LINE
  8
0
  6
CONTINUOUS
 62
     1
 10
1317.996673549
 20
956.8
 11
1316.396673549
 21
956.8
  0
LINE
  8
0
  6
CONTINUOUS
 62
     1
 10
1317.996673549
 20
980.2
 11
916.746026006
 21
980.2
  0
LINE
  8
2
  6
CONTINUOUS
 62
     1
 10
120.896673549
 20
959.471804976
 11
620.896673549
 21
959.471804976
  0
LINE
  8
2
  6
CONTINUOUS
 62
     1
 10
620.896673549
 20
959.471804976
 11
620.896673549
 21
983.896367182
  0
ARC
  8
2
  6
CONTINUOUS
 62
     1
 10
603.660498925
 20
965.235997273
 40
2.846174624
 50
0.000088224
 51
5.176056592
  0
ARC
  8
2
  6
CONTINUOUS
 62
     1
 10
603.656261331
 20
965.235622369
 40
2.850428761
 50
5.175877195
 51
10.346924083
  0
ARC
  8
2
  6
CONTINUOUS
 62
     1
 10
603.647621948
 20
965.234089799
 40
2.859202914
 50
10.346041279
 51
15.506719382
  0
ARC
  8
2
  6
CONTINUOUS
 62
     1
 10
603.635035147
 20
965.230678367
 40
2.872243596
 50
15.505166505
 51
20.650406907
  0
ARC
  8
2
  6
CONTINUOUS
 62
     1
 10
603.619155054
 20
965.224810256
 40
2.889172866
 50
20.648239938
 51
25.773528721
  0
ARC
  8
2
  6
CONTINUOUS
 62
     1
 10
603.600792603
 20
965.216096381
 40
2.909497543
 50
25.77082581
 51
30.872352544
  0
ARC
  8
2
  6
CONTINUOUS
 62
     1
 10
603.580863009
 20
965.204369316
 40
2.932620844
 50
30.869208436
 51
35.943982082
  0
ARC
  8
2
  6
CONTINUOUS
 62
     1
 10
603.560324916
 20
965.189700024
 40
2.957859099
 50
35.940502976
 51
40.986428485
  0
ARC
  8
2
  6
CONTINUOUS
 62
     1
 10
603.540119109
 20
965.172398913
 40
2.984459218
 50
40.982731186
 51
45.998650968
  0
ARC
  8
2
  6
CONTINUOUS
 62
     1
 10
603.521107166
 20
965.152999684
 40
3.011620672
 50
45.994854163
 51
50.98055264
  0
ARC
  8
2
  6
CONTINUOUS
 62
     1
 10
603.504016952
 20
965.132228025
 40
3.038518579
 50
50.976773186
 51
55.932950718
  0
ARC
  8
2
  6
CONTINUOUS
 62
     1
 10
603.489397414
 20
965.110956665
 40
3.06432873
 50
55.929301888
 51
60.857522015
  0
ARC
  8
2
  6
CONTINUOUS
 62
     1
 10
603.477585737
 20
965.090150025
 40
3.08825358
 50
60.854108791
 51
65.756724019
  0
ARC
  8
2
  6
CONTINUOUS
 62
     1
 10
603.468689335
 20
965.070801973
 40
3.109548303
 50
65.753641574
 51
70.633702667
  0
ARC
  8
2
  6
CONTINUOUS
 62
     1
 10
603.462584047
 20
965.05387181
 40
3.127545076
 50
70.631033661
 51
75.492187895
  0
ARC
  8
2
  6
CONTINUOUS
 62
     1
 10
603.458927914
 20
965.04022096
 40
3.141676555
 50
75.490002156
 51
80.336382944
  0
ARC
  8
2
  6
CONTINUOUS
 62
     1
 10
603.457190495
 20
965.030557345
 40
3.151494696
 50
80.334735819
 51
85.170848492
  0
ARC
  8
2
  6
CONTINUOUS
 62
     1
 10
603.45669474
 20
965.025387893
 40
3.156687533
 50
85.169781135
 51
90.00038463
  0
ARC
  8
2
  6
CONTINUOUS
 62
     1
 10
603.456669308
 20
965.024986099
 40
3.157089327
 50
89.999923026
 51
94.82991136
  0
ARC
  8
2
  6
CONTINUOUS
 62
     1
 10
603.45630721
 20
965.029373005
 40
3.152687511
 50
94.830066881
 51
99.664348749
  0
ARC
  8
2
  6
CONTINUOUS
 62
     1
 10
603.454826967
 20
965.038316688
 40
3.143622259
 50
99.665117781
 51
104.508497159
  0
ARC
  8
2
  6
CONTINUOUS
 62
     1
 10
603.451531993
 20
965.051346981
 40
3.130182028
 50
104.509860757
 51
109.366917382
  0
ARC
  8
2
  6
CONTINUOUS
 62
     1
 10
603.445864106
 20
965.067786849
 40
3.112792858
 50
109.368842081
 51
114.243813454
  0
ARC
  8
2
  6
CONTINUOUS
 62
     1
 10
603.437447537
 20
965.086796591
 40
3.092003642
 50
114.246250309
 51
119.142915911
  0
ARC
  8
2
  6
CONTINUOUS
 62
     1
 10
603.426120511
 20
965.10742892
 40
3.068467065
 50
119.145803048
 51
124.067372565
  0
ARC
  8
2
  6
CONTINUOUS
 62
     1
 10
603.411951499
 20
965.128691315
 40
3.042916719
 50
124.070633433
 51
129.019642981
  0
ARC
  8
2
  6
CONTINUOUS
 62
     1
 10
603.395240267
 20
965.14960988
 40
3.016143289
 50
129.023187552
 51
134.001405413
  0
ARC
  8
2
  6
CONTINUOUS
 62
     1
 10
603.376502309
 20
965.16929267
 40
2.988968206
 50
134.005134235
 51
139.01348246
  0
ARC
  8
2
  6
CONTINUOUS
 62
     1
 10
603.356438461
 20
965.18698615
 40
2.96221791
 50
139.017286376
 51
144.055782183
  0
ARC
  8
2
  6
CONTINUOUS
 62
     1
 10
603.335891817
 20
965.2021218
 40
2.936698997
 50
144.059544338
 51
149.127266107
  0
ARC
  8
2
  6
CONTINUOUS
 62
     1
 10
603.315793831
 20
965.214350612
 40
2.91317371
 50
149.130868554
 51
154.225953364
  0
ARC
  8
2
  6
CONTINUOUS
 62
     1
 10
603.29710445
 20
965.223561337
 40
2.892338595
 50
154.229277921
 51
159.348953222
  0
ARC
  8
2
  6
CONTINUOUS
 62
     1
 10
603.280750673
 20
965.229882299
 40
2.874806375
 50
159.351887703
 51
164.49253824
  0
ARC
  8
2
  6
CONTINUOUS
 62
     1
 10
603.267564612
 20
965.233667611
 40
2.861088291
 50
164.494982065
 51
169.652257126
  0
ARC
  8
2
  6
CONTINUOUS
 62
     1
 10
603.258229768
 20
965.235466444
 40
2.851582163
 50
169.654122383
 51
174.823076275
  0
ARC
  8
2
  6
CONTINUOUS
 62
     1
 10
603.253236307
 20
965.235979718
 40
2.846562758
 50
174.824296297
 51
179.999558428
  0
ARC
  8
2
  6
CONTINUOUS
 62
     1
 10
603.252848157
 20
965.236006048
 40
2.846174608
 50
180.00008841
 51
185.17605678
  0
ARC
  8
2
  6
CONTINUOUS
 62
     1
 10
603.257085795
 20
965.236380945
 40
2.850428788
 50
185.175877156
 51
190.346923996
  0
ARC
  8
2
  6
CONTINUOUS
 62
     1
 10
603.265725138
 20
965.237913509
 40
2.8592029
 50
190.346041236
 51
195.506719382
  0
ARC
  8
2
  6
CONTINUOUS
 62
     1
 10
603.278311952
 20
965.241324962
 40
2.8722436
 50
195.505166823
 51
200.650407216
  0
ARC
  8
2
  6
CONTINUOUS
 62
     1
 10
603.294192034
 20
965.24719306
 40
2.889172857
 50
200.648240092
 51
205.773528872
  0
ARC
  8
2
  6
CONTINUOUS
 62
     1
 10
603.312554466
 20
965.255906933
 40
2.909497516
 50
205.770826097
 51
210.872352894
  0
ARC
  8
2
  6
CONTINUOUS
 62
     1
 10
603.332484039
 20
965.267633917
 40
2.93262076
 50
210.869207628
 51
215.943981396
  0
ARC
  8
2
  6
CONTINUOUS
 62
     1
 10
603.353022154
 20
965.282303277
 40
2.95785907
 50
215.940503106
 51
220.986428677
  0
ARC
  8
2
  6
CONTINUOUS
 62
     1
 10
603.373227978
 20
965.299604405
 40
2.984459212
 50
220.982731425
 51
225.998651216
  0
ARC
  8
2
  6
CONTINUOUS
 62
     1
 10
603.392239939
 20
965.319003642
 40
3.011620685
 50
225.994854238
 51
230.980552693
  0
ARC
  8
2
  6
CONTINUOUS
 62
     1
 10
603.409330125
 20
965.339775261
 40
3.038518544
 50
230.97677319
 51
235.932950764
  0
ARC
  8
2
  6
CONTINUOUS
 62
     1
 10
603.42394967
 20
965.361046613
 40
3.064328694
 50
235.929301729
 51
240.857521915
  0
ARC
  8
2
  6
CONTINUOUS
 62
     1
 10
603.435761369
 20
965.381853343
 40
3.088253632
 50
240.854109174
 51
245.756724343
  0
ARC
  8
2
  6
CONTINUOUS
 62
     1
 10
603.444657763
 20
965.401201389
 40
3.109548349
 50
245.753641962
 51
250.633702966
  0
ARC
  8
2
  6
CONTINUOUS
 62
     1
 10
603.450763043
 20
965.418131538
 40
3.127545107
 50
250.63103401
 51
255.492188207
  0
ARC
  8
2
  6
CONTINUOUS
 62
     1
 10
603.454419189
 20
965.431782326
 40
3.14167653
 50
255.490001953
 51
260.336382766
  0
ARC
  8
2
  6
CONTINUOUS
 62
     1
 10
603.456156595
 20
965.441445945
 40
3.151494673
 50
260.334735894
 51
265.170848621
  0
ARC
  8
2
  6
CONTINUOUS
 62
     1
 10
603.456652361
 20
965.446615362
 40
3.156687476
 50
265.16978102
 51
270.000384584
  0
ARC
  8
2
  6
CONTINUOUS
 62
     1
 10
603.456677789
 20
965.44701732
 40
3.157089434
 50
269.99992305
 51
274.829911239
  0
ARC
  8
2
  6
CONTINUOUS
 62
     1
 10
603.457039888
 20
965.442630325
 40
3.152687529
 50
274.83006687
 51
279.664348693
  0
ARC
  8
2
  6
CONTINUOUS
 62
     1
 10
603.458520122
 20
965.433686614
 40
3.143622251
 50
279.665117973
 51
284.508497386
  0
ARC
  8
2
  6
CONTINUOUS
 62
     1
 10
603.461815114
 20
965.420656307
 40
3.130182002
 50
284.509860734
 51
289.366917376
  0
ARC
  8
2
  6
CONTINUOUS
 62
     1
 10
603.467482988
 20
965.404216473
 40
3.112792869
 50
289.368842083
 51
294.243813456
  0
ARC
  8
2
  6
CONTINUOUS
 62
     1
 10
603.475899537
 20
965.385206677
 40
3.092003612
 50
294.246251068
 51
299.142916706
  0
ARC
  8
2
  6
CONTINUOUS
 62
     1
 10
603.487226602
 20
965.364574321
 40
3.068466995
 50
299.145803462
 51
304.06737309
  0
ARC
  8
2
  6
CONTINUOUS
 62
     1
 10
603.501395595
 20
965.343312018
 40
3.042916738
 50
304.070633294
 51
309.019642827
  0
ARC
  8
2
  6
CONTINUOUS
 62
     1
 10
603.518106841
 20
965.322393407
 40
3.016143264
 50
309.023187718
 51
314.00140562
  0
ARC
  8
2
  6
CONTINUOUS
 62
     1
 10
603.536844784
 20
965.302710596
 40
2.988968175
 50
314.005134935
 51
319.013483209
  0
ARC
  8
2
  6
CONTINUOUS
 62
     1
 10
603.55690867
 20
965.285017155
 40
2.962217881
 50
319.017286093
 51
324.055781939
  0
ARC
  8
2
  6
CONTINUOUS
 62
     1
 10
603.577455274
 20
965.269881551
 40
2.936699025
 50
324.059543809
 51
329.127265525
  0
ARC
  8
2
  6
CONTINUOUS
 62
     1
 10
603.597553273
 20
965.257652701
 40
2.913173707
 50
329.130868481
 51
334.225953314
  0
ARC
  8
2
  6
CONTINUOUS
 62
     1
 10
603.616242634
 20
965.248441984
 40
2.892338613
 50
334.229277905
 51
339.348953157
  0
ARC
  8
2
  6
CONTINUOUS
 62
     1
 10
603.632596448
 20
965.242120996
 40
2.874806349
 50
339.351887858
 51
344.492538442
  0
ARC
  8
2
  6
CONTINUOUS
 62
     1
 10
603.64578255
 20
965.238335683
 40
2.861088225
 50
344.494982072
 51
349.652257271
  0
ARC
  8
2
  6
CONTINUOUS
 62
     1
 10
603.655117276
 20
965.236536867
 40
2.851582217
 50
349.654122616
 51
354.823076411
  0
ARC
  8
2
  6
CONTINUOUS
 62
     1
 10
603.660110806
 20
965.236023581
 40
2.846562743
 50
354.824296562
 51
359.999558698
  0
LINE
  8
2
  6
CONTINUOUS
 62
     1
 10
120.896673549
 20
983.896367182
 11
620.896673549
 21
983.896367182
  0
LINE
  8
2
  6
CONTINUOUS
 62
     1
 10
120.896673549
 20
959.471804976
 11
120.896673549
 21
983.896367182
  0
ARC
  8
2
  6
CONTINUOUS
 62
     1
 10
138.132848167
 20
965.235997263
 40
2.846174618
 50
174.823943193
 51
179.999911565
  0
ARC
  8
2
  6
CONTINUOUS
 62
     1
 10
138.137085804
 20
965.235622367
 40
2.850428796
 50
169.653076007
 51
174.824122831
  0
ARC
  8
2
  6
CONTINUOUS
 62
     1
 10
138.145725102
 20
965.234089805
 40
2.859202865
 50
164.493280475
 51
169.653958666
  0
ARC
  8
2
  6
CONTINUOUS
 62
     1
 10
138.158311962
 20
965.230678357
 40
2.872243608
 50
159.349592982
 51
164.494833361
  0
ARC
  8
2
  6
CONTINUOUS
 62
     1
 10
138.174192006
 20
965.22481025
 40
2.889172832
 50
154.226470844
 51
159.351759687
  0
ARC
  8
2
  6
CONTINUOUS
 62
     1
 10
138.192554478
 20
965.216096396
 40
2.909497519
 50
149.127647526
 51
154.229174301
  0
ARC
  8
2
  6
CONTINUOUS
 62
     1
 10
138.212484076
 20
965.20436934
 40
2.93262082
 50
144.056018142
 51
149.130791818
  0
ARC
  8
2
  6
CONTINUOUS
 62
     1
 10
138.233022142
 20
965.189700033
 40
2.957859062
 50
139.01357111
 51
144.059496694
  0
ARC
  8
2
  6
CONTINUOUS
 62
     1
 10
138.253227995
 20
965.172398903
 40
2.984459228
 50
134.001348961
 51
139.017268727
  0
ARC
  8
2
  6
CONTINUOUS
 62
     1
 10
138.272239941
 20
965.152999712
 40
3.011620657
 50
129.019447818
 51
134.005146321
  0
ARC
  8
2
  6
CONTINUOUS
 62
     1
 10
138.289330129
 20
965.132228065
 40
3.038518537
 50
124.067049443
 51
129.023227029
  0
ARC
  8
2
  6
CONTINUOUS
 62
     1
 10
138.303949671
 20
965.110956686
 40
3.064328706
 50
119.142477966
 51
124.070698132
  0
ARC
  8
2
  6
CONTINUOUS
 62
     1
 10
138.315761356
 20
965.090149977
 40
3.088253619
 50
114.2432755
 51
119.145890681
  0
ARC
  8
2
  6
CONTINUOUS
 62
     1
 10
138.324657759
 20
965.07080197
 40
3.109548304
 50
109.366297248
 51
114.246358324
  0
ARC
  8
2
  6
CONTINUOUS
 62
     1
 10
138.330763055
 20
965.053871787
 40
3.127545099
 50
104.507812059
 51
109.368966274
  0
ARC
  8
2
  6
CONTINUOUS
 62
     1
 10
138.334419182
 20
965.040220994
 40
3.141676521
 50
99.663617123
 51
104.509997946
  0
ARC
  8
2
  6
CONTINUOUS
 62
     1
 10
138.336156602
 20
965.030557337
 40
3.151494704
 50
94.829151453
 51
99.665264131
  0
ARC
  8
2
  6
CONTINUOUS
 62
     1
 10
138.33665236
 20
965.025387909
 40
3.156687517
 50
89.999615401
 51
94.830218902
  0
ARC
  8
2
  6
CONTINUOUS
 62
     1
 10
138.336677791
 20
965.024986083
 40
3.157089343
 50
85.170088649
 51
90.000076978
  0
ARC
  8
2
  6
CONTINUOUS
 62
     1
 10
138.337039891
 20
965.02937305
 40
3.152687466
 50
80.335651175
 51
85.169933094
  0
ARC
  8
2
  6
CONTINUOUS
 62
     1
 10
138.338520127
 20
965.038316674
 40
3.143622273
 50
75.491502827
 51
80.334882201
  0
ARC
  8
2
  6
CONTINUOUS
 62
     1
 10
138.341815113
 20
965.051347023
 40
3.130181985
 50
70.633082487
 51
75.490139161
  0
ARC
  8
2
  6
CONTINUOUS
 62
     1
 10
138.347483001
 20
965.067786871
 40
3.112792834
 50
65.756186524
 51
70.631157952
  0
ARC
  8
2
  6
CONTINUOUS
 62
     1
 10
138.355899564
 20
965.08679664
 40
3.092003596
 50
60.857083698
 51
65.753749355
  0
ARC
  8
2
  6
CONTINUOUS
 62
     1
 10
138.367226587
 20
965.107428938
 40
3.068467049
 50
55.932627239
 51
60.854196781
  0
ARC
  8
2
  6
CONTINUOUS
 62
     1
 10
138.381395598
 20
965.128691334
 40
3.042916704
 50
50.980356775
 51
55.929366361
  0
ARC
  8
2
  6
CONTINUOUS
 62
     1
 10
138.398106814
 20
965.149609897
 40
3.016143287
 50
45.998594118
 51
50.976811981
  0
ARC
  8
2
  6
CONTINUOUS
 62
     1
 10
138.416844781
 20
965.169292697
 40
2.988968193
 50
40.986517036
 51
45.994865282
  0
ARC
  8
2
  6
CONTINUOUS
 62
     1
 10
138.436908651
 20
965.186986133
 40
2.962217912
 50
35.944218228
 51
40.982714022
  0
ARC
  8
2
  6
CONTINUOUS
 62
     1
 10
138.457455233
 20
965.202121805
 40
2.936699033
 50
30.87273332
 51
35.940455035
  0
ARC
  8
2
  6
CONTINUOUS
 62
     1
 10
138.477553305
 20
965.214350626
 40
2.913173672
 50
25.774046711
 51
30.869131588
  0
ARC
  8
2
  6
CONTINUOUS
 62
     1
 10
138.496242633
 20
965.223561313
 40
2.89233862
 50
20.65104711
 51
25.770722368
  0
ARC
  8
2
  6
CONTINUOUS
 62
     1
 10
138.51259646
 20
965.229882318
 40
2.874806337
 50
15.507461577
 51
20.648112182
  0
ARC
  8
2
  6
CONTINUOUS
 62
     1
 10
138.525782509
 20
965.233667621
 40
2.861088267
 50
10.347742762
 51
15.505017866
  0
ARC
  8
2
  6
CONTINUOUS
 62
     1
 10
138.535117306
 20
965.235466449
 40
2.851582186
 50
5.176923584
 51
10.345877434
  0
ARC
  8
2
  6
CONTINUOUS
 62
     1
 10
138.54011081
 20
965.235979728
 40
2.846562739
 50
0.000441371
 51
5.175703536
  0
ARC
  8
2
  6
CONTINUOUS
 62
     1
 10
138.540498936
 20
965.236006039
 40
2.846174613
 50
354.823943413
 51
359.999911776
  0
ARC
  8
2
  6
CONTINUOUS
 62
     1
 10
138.536261331
 20
965.236380942
 40
2.850428761
 50
349.653075958
 51
354.824122846
  0
ARC
  8
2
  6
CONTINUOUS
 62
     1
 10
138.527621953
 20
965.237913507
 40
2.859202908
 50
344.493280702
 51
349.653958835
  0
ARC
  8
2
  6
CONTINUOUS
 62
     1
 10
138.515035143
 20
965.241324957
 40
2.872243604
 50
339.349592897
 51
344.494833285
  0
ARC
  8
2
  6
CONTINUOUS
 62
     1
 10
138.499155067
 20
965.24719306
 40
2.889172856
 50
334.226471112
 51
339.351759895
  0
ARC
  8
2
  6
CONTINUOUS
 62
     1
 10
138.480792626
 20
965.255906927
 40
2.90949752
 50
329.127647276
 51
334.229174067
  0
ARC
  8
2
  6
CONTINUOUS
 62
     1
 10
138.460863005
 20
965.267633996
 40
2.932620848
 50
324.056017973
 51
329.130791597
  0
ARC
  8
2
  6
CONTINUOUS
 62
     1
 10
138.440324951
 20
965.282303286
 40
2.957859069
 50
319.013571103
 51
324.05949666
  0
ARC
  8
2
  6
CONTINUOUS
 62
     1
 10
138.42011912
 20
965.299604414
 40
2.984459219
 50
314.001348684
 51
319.017268463
  0
ARC
  8
2
  6
CONTINUOUS
 62
     1
 10
138.401107168
 20
965.319003632
 40
3.011620672
 50
309.019447303
 51
314.005145778
  0
ARC
  8
2
  6
CONTINUOUS
 62
     1
 10
138.384016956
 20
965.339775277
 40
3.038518568
 50
304.067049337
 51
309.023226887
  0
ARC
  8
2
  6
CONTINUOUS
 62
     1
 10
138.369397424
 20
965.361046642
 40
3.06432872
 50
299.142477875
 51
304.070698018
  0
ARC
  8
2
  6
CONTINUOUS
 62
     1
 10
138.357585735
 20
965.381853298
 40
3.088253589
 50
294.243275912
 51
299.145891132
  0
ARC
  8
2
  6
CONTINUOUS
 62
     1
 10
138.348689329
 20
965.40120141
 40
3.10954837
 50
289.366297012
 51
294.246357999
  0
ARC
  8
2
  6
CONTINUOUS
 62
     1
 10
138.342584048
 20
965.418131544
 40
3.127545115
 50
284.507811897
 51
289.368966064
  0
ARC
  8
2
  6
CONTINUOUS
 62
     1
 10
138.338927904
 20
965.431782356
 40
3.141676561
 50
279.663617232
 51
284.509998015
  0
ARC
  8
2
  6
CONTINUOUS
 62
     1
 10
138.337190498
 20
965.441445927
 40
3.151494656
 50
274.829151508
 51
279.665264243
  0
ARC
  8
2
  6
CONTINUOUS
 62
     1
 10
138.336694739
 20
965.44661541
 40
3.156687524
 50
269.999615382
 51
274.83021889
  0
ARC
  8
2
  6
CONTINUOUS
 62
     1
 10
138.336669311
 20
965.447017281
 40
3.157089395
 50
265.170088687
 51
270.000076918
  0
ARC
  8
2
  6
CONTINUOUS
 62
     1
 10
138.336307207
 20
965.442630275
 40
3.152687479
 50
260.335651219
 51
265.169933135
  0
ARC
  8
2
  6
CONTINUOUS
 62
     1
 10
138.334826975
 20
965.433686585
 40
3.143622221
 50
255.491502515
 51
260.334881955
  0
ARC
  8
2
  6
CONTINUOUS
 62
     1
 10
138.331531987
 20
965.420656303
 40
3.130181998
 50
250.633082544
 51
255.490139209
  0
ARC
  8
2
  6
CONTINUOUS
 62
     1
 10
138.325864106
 20
965.404216443
 40
3.112792839
 50
245.756186401
 51
250.631157804
  0
ARC
  8
2
  6
CONTINUOUS
 62
     1
 10
138.317447554
 20
965.385206713
 40
3.092003641
 50
240.857083733
 51
245.753749343
  0
ARC
  8
2
  6
CONTINUOUS
 62
     1
 10
138.30612049
 20
965.364574349
 40
3.068467016
 50
235.932627302
 51
240.854196896
  0
ARC
  8
2
  6
CONTINUOUS
 62
     1
 10
138.291951507
 20
965.343311983
 40
3.042916711
 50
230.980356727
 51
235.929366288
  0
ARC
  8
2
  6
CONTINUOUS
 62
     1
 10
138.275240271
 20
965.322393426
 40
3.016143286
 50
225.998594439
 51
230.976812305
  0
ARC
  8
2
  6
CONTINUOUS
 62
     1
 10
138.256502298
 20
965.302710614
 40
2.988968177
 50
220.98651726
 51
225.994865532
  0
ARC
  8
2
  6
CONTINUOUS
 62
     1
 10
138.236438422
 20
965.285017135
 40
2.962217863
 50
215.944217804
 51
220.982713691
  0
ARC
  8
2
  6
CONTINUOUS
 62
     1
 10
138.215891812
 20
965.269881506
 40
2.936698989
 50
210.872733853
 51
215.940455618
  0
ARC
  8
2
  6
CONTINUOUS
 62
     1
 10
138.195793801
 20
965.257652677
 40
2.913173673
 50
205.774046484
 51
210.869131377
  0
ARC
  8
2
  6
CONTINUOUS
 62
     1
 10
138.177104471
 20
965.248441994
 40
2.892338623
 50
200.651046983
 51
205.770722218
  0
ARC
  8
2
  6
CONTINUOUS
 62
     1
 10
138.160750684
 20
965.242121014
 40
2.874806386
 50
195.507461727
 51
200.648112245
  0
ARC
  8
2
  6
CONTINUOUS
 62
     1
 10
138.147564578
 20
965.238335681
 40
2.861088252
 50
190.34774257
 51
195.505017719
  0
ARC
  8
2
  6
CONTINUOUS
 62
     1
 10
138.13822977
 20
965.236536871
 40
2.851582165
 50
185.176923761
 51
190.345877651
  0
ARC
  8
2
  6
CONTINUOUS
 62
     1
 10
138.133236279
 20
965.236023592
 40
2.84656273
 50
180.000441538
 51
185.1757037
  0
LINE
  8
2
  6
CONTINUOUS
 62
     1
 10
917.137275422
 20
981.991883969
 11
912.486909884
 21
960.693665725
  0
LINE
  8
0
  6
LTYPE1
 62
     2
 10
610.633657148
 20
530.625974395
 11
593.633657148
 21
530.625974395
  0
LINE
  8
0
  6
LTYPE1
 62
     2
 10
610.633657148
 20
546.159995958
 11
593.633657148
 21
546.159995958
  0
LINE
  8
0
  6
LTYPE1
 62
     2
 10
610.633657148
 20
561.694017522
 11
593.633657148
 21
561.694017522
  0
LINE
  8
0
  6
LTYPE1
 62
     2
 10
610.633657148
 20
574.052845998
 11
593.633657148
 21
574.052845998
  0
LINE
  8
0
  6
LTYPE1
 62
     2
 10
610.633657148
 20
589.586867561
 11
593.633657148
 21
589.586867561
  0
LINE
  8
0
  6
LTYPE1
 62
     2
 10
610.633657148
 20
605.120889124
 11
593.633657148
 21
605.120889124
  0
LINE
  8
0
  6
LTYPE1
 62
     2
 10
610.633657148
 20
617.479717601
 11
593.633657148
 21
617.479717601
  0
LINE
  8
0
  6
LTYPE1
 62
     2
 10
610.633657148
 20
633.013739164
 11
593.633657148
 21
633.013739164
  0
LINE
  8
0
  6
LTYPE1
 62
     2
 10
610.633657148
 20
648.547760727
 11
593.633657148
 21
648.547760727
  0
LINE
  8
0
  6
LTYPE1
 62
     2
 10
610.633657148
 20
660.906589204
 11
593.633657148
 21
660.906589204
  0
LINE
  8
0
  6
LTYPE1
 62
     2
 10
610.633657148
 20
676.440610767
 11
593.633657148
 21
676.440610767
  0
LINE
  8
0
  6
LTYPE1
 62
     2
 10
610.633657148
 20
691.97463233
 11
593.633657148
 21
691.97463233
  0
LINE
  8
0
  6
LTYPE1
 62
     2
 10
610.633657148
 20
704.333460807
 11
593.633657148
 21
704.333460807
  0
LINE
  8
0
  6
LTYPE1
 62
     2
 10
610.633657148
 20
719.86748237
 11
593.633657148
 21
719.86748237
  0
LINE
  8
0
  6
LTYPE1
 62
     2
 10
610.633657148
 20
735.401503933
 11
593.633657148
 21
735.401503933
  0
LINE
  8
0
  6
LTYPE1
 62
     2
 10
610.633657148
 20
747.76033241
 11
593.633657148
 21
747.76033241
  0
LINE
  8
0
  6
LTYPE1
 62
     2
 10
610.633657148
 20
763.294353973
 11
593.633657148
 21
763.294353973
  0
LINE
  8
0
  6
LTYPE1
 62
     2
 10
610.633657148
 20
778.828375536
 11
593.633657148
 21
778.828375536
  0
LINE
  8
0
  6
LTYPE1
 62
     2
 10
610.633657148
 20
791.187204012
 11
593.633657148
 21
791.187204012
  0
LINE
  8
0
  6
LTYPE1
 62
     2
 10
610.633657148
 20
806.721225576
 11
593.633657148
 21
806.721225576
  0
LINE
  8
0
  6
LTYPE1
 62
     2
 10
610.633657148
 20
822.255247139
 11
593.633657148
 21
822.255247139
  0
LINE
  8
0
  6
LTYPE1
 62
     2
 10
610.633657148
 20
834.614075615
 11
593.633657148
 21
834.614075615
  0
LINE
  8
0
  6
LTYPE1
 62
     2
 10
610.633657148
 20
850.148097179
 11
593.633657148
 21
850.148097179
  0
LINE
  8
0
  6
LTYPE1
 62
     2
 10
610.633657148
 20
865.682118742
 11
593.633657148
 21
865.682118742
  0
LINE
  8
0
  6
LTYPE1
 62
     2
 10
610.633657148
 20
878.040947218
 11
593.633657148
 21
878.040947218
  0
LINE
  8
0
  6
LTYPE1
 62
     2
 10
610.633657148
 20
893.574968782
 11
593.633657148
 21
893.574968782
  0
LINE
  8
0
  6
LTYPE1
 62
     2
 10
610.633657148
 20
909.108990345
 11
593.633657148
 21
909.108990345
  0
LINE
  8
0
  6
LTYPE1
 62
     2
 10
610.633657148
 20
921.467818821
 11
593.633657148
 21
921.467818821
  0
LINE
  8
0
  6
LTYPE1
 62
     2
 10
610.633657148
 20
937.001840384
 11
593.633657148
 21
937.001840384
  0
LINE
  8
0
  6
LTYPE1
 62
     2
 10
610.633657148
 20
952.535861948
 11
593.633657148
 21
952.535861948
  0
LINE
  8
0
  6
LTYPE1
 62
     2
 10
131.15968995
 20
530.625974395
 11
148.15968995
 21
530.625974395
  0
LINE
  8
0
  6
LTYPE1
 62
     2
 10
131.15968995
 20
546.159995958
 11
148.15968995
 21
546.159995958
  0
LINE
  8
0
  6
LTYPE1
 62
     2
 10
131.15968995
 20
561.694017522
 11
148.15968995
 21
561.694017522
  0
LINE
  8
0
  6
LTYPE1
 62
     2
 10
131.15968995
 20
574.052845998
 11
148.15968995
 21
574.052845998
  0
LINE
  8
0
  6
LTYPE1
 62
     2
 10
131.15968995
 20
589.586867561
 11
148.15968995
 21
589.586867561
  0
LINE
  8
0
  6
LTYPE1
 62
     2
 10
131.15968995
 20
605.120889124
 11
148.15968995
 21
605.120889124
  0
LINE
  8
0
  6
LTYPE1
 62
     2
 10
131.15968995
 20
617.479717601
 11
148.15968995
 21
617.479717601
  0
LINE
  8
0
  6
LTYPE1
 62
     2
 10
131.15968995
 20
633.013739164
 11
148.15968995
 21
633.013739164
  0
LINE
  8
0
  6
LTYPE1
 62
     2
 10
131.15968995
 20
648.547760727
 11
148.15968995
 21
648.547760727
  0
LINE
  8
0
  6
LTYPE1
 62
     2
 10
131.15968995
 20
660.906589204
 11
148.15968995
 21
660.906589204
  0
LINE
  8
0
  6
LTYPE1
 62
     2
 10
131.15968995
 20
676.440610767
 11
148.15968995
 21
676.440610767
  0
LINE
  8
0
  6
LTYPE1
 62
     2
 10
131.15968995
 20
691.97463233
 11
148.15968995
 21
691.97463233
  0
LINE
  8
0
  6
LTYPE1
 62
     2
 10
131.15968995
 20
704.333460807
 11
148.15968995
 21
704.333460807
  0
LINE
  8
0
  6
LTYPE1
 62
     2
 10
131.15968995
 20
719.86748237
 11
148.15968995
 21
719.86748237
  0
LINE
  8
0
  6
LTYPE1
 62
     2
 10
131.15968995
 20
735.401503933
 11
148.15968995
 21
735.401503933
  0
LINE
  8
0
  6
LTYPE1
 62
     2
 10
131.15968995
 20
747.76033241
 11
148.15968995
 21
747.76033241
  0
LINE
  8
0
  6
LTYPE1
 62
     2
 10
131.15968995
 20
763.294353973
 11
148.15968995
 21
763.294353973
  0
LINE
  8
0
  6
LTYPE1
 62
     2
 10
131.15968995
 20
778.828375536
 11
148.15968995
 21
778.828375536
  0
LINE
  8
0
  6
LTYPE1
 62
     2
 10
131.15968995
 20
791.187204012
 11
148.15968995
 21
791.187204012
  0
LINE
  8
0
  6
LTYPE1
 62
     2
 10
131.15968995
 20
806.721225576
 11
148.15968995
 21
806.721225576
  0
LINE
  8
0
  6
LTYPE1
 62
     2
 10
131.15968995
 20
822.255247139
 11
148.15968995
 21
822.255247139
  0
LINE
  8
0
  6
LTYPE1
 62
     2
 10
131.15968995
 20
834.614075615
 11
148.15968995
 21
834.614075615
  0
LINE
  8
0
  6
LTYPE1
 62
     2
 10
131.15968995
 20
850.148097179
 11
148.15968995
 21
850.148097179
  0
LINE
  8
0
  6
LTYPE1
 62
     2
 10
131.15968995
 20
865.682118742
 11
148.15968995
 21
865.682118742
  0
LINE
  8
0
  6
LTYPE1
 62
     2
 10
131.15968995
 20
878.040947218
 11
148.15968995
 21
878.040947218
  0
LINE
  8
0
  6
LTYPE1
 62
     2
 10
131.15968995
 20
893.574968782
 11
148.15968995
 21
893.574968782
  0
LINE
  8
0
  6
LTYPE1
 62
     2
 10
131.15968995
 20
909.108990345
 11
148.15968995
 21
909.108990345
  0
LINE
  8
0
  6
LTYPE1
 62
     2
 10
131.15968995
 20
921.467818821
 11
148.15968995
 21
921.467818821
  0
LINE
  8
0
  6
LTYPE1
 62
     2
 10
131.15968995
 20
937.001840384
 11
148.15968995
 21
937.001840384
  0
LINE
  8
0
  6
LTYPE1
 62
     2
 10
131.15968995
 20
952.535861948
 11
148.15968995
 21
952.535861948
  0
LINE
  8
3
  6
CONTINUOUS
 62
     1
 10
1316.396673549
 20
244.75
 11
1318.396673549
 21
244.75
  0
LINE
  8
3
  6
CONTINUOUS
 62
     1
 10
816.396673549
 20
244.75
 11
814.396673549
 21
244.75
  0
LINE
  8
3
  6
CONTINUOUS
 62
     1
 10
814.396673549
 20
220.95
 11
814.396673549
 21
244.75
  0
LINE
  8
3
  6
CONTINUOUS
 62
     1
 10
814.396673549
 20
220.95
 11
1318.396673549
 21
220.95
  0
LINE
  8
3
  6
CONTINUOUS
 62
     1
 10
1318.396673549
 20
220.95
 11
1318.396673549
 21
244.75
  0
CIRCLE
  8
3
  6
CONTINUOUS
 62
     2
 10
823.396673549
 20
171.75
 40
30.0
  0
CIRCLE
  8
3
  6
CONTINUOUS
 62
     2
 10
1309.396673549
 20
171.75
 40
30.0
  0
CIRCLE
  8
3
  6
CONTINUOUS
 62
     2
 10
1275.396673549
 20
171.75
 40
30.0
  0
CIRCLE
  8
3
  6
CONTINUOUS
 62
     1
 10
138.334273549
 20
238.85
 40
3.1
  0
CIRCLE
  8
3
  6
CONTINUOUS
 62
     1
 10
603.459073549
 20
238.85
 40
3.1
  0
LINE
  8
3
  6
CONTINUOUS
 62
     1
 10
620.896673549
 20
220.95
 11
120.896673549
 21
220.95
  0
CIRCLE
  8
3
  6
CONTINUOUS
 62
     2
 10
133.896673549
 20
171.75
 40
30.0
  0
LINE
  8
3
  6
CONTINUOUS
 62
     2
 10
158.396673549
 20
217.75
 11
158.396673549
 21
189.063289693
  0
LINE
  8
3
  6
CONTINUOUS
 62
     2
 10
143.396673549
 20
217.75
 11
143.396673549
 21
200.20610655
  0
LINE
  8
3
  6
CONTINUOUS
 62
     2
 10
568.396673549
 20
201.75
 11
568.396673549
 21
141.75
  0
LINE
  8
3
  6
CONTINUOUS
 62
     2
 10
613.396673549
 20
201.75
 11
568.396673549
 21
201.75
  0
LINE
  8
3
  6
CONTINUOUS
 62
     2
 10
613.396673549
 20
201.75
 11
613.396673549
 21
141.75
  0
LINE
  8
3
  6
CONTINUOUS
 62
     2
 10
583.396673549
 20
217.75
 11
583.396673549
 21
201.75
  0
LINE
  8
3
  6
CONTINUOUS
 62
     2
 10
598.396673549
 20
217.75
 11
598.396673549
 21
201.75
  0
LINE
  8
3
  6
CONTINUOUS
 62
     1
 10
560.896673549
 20
220.95
 11
560.896673549
 21
217.75
  0
LINE
  8
3
  6
CONTINUOUS
 62
     1
 10
560.896673549
 20
217.75
 11
620.896673549
 21
217.75
  0
LINE
  8
3
  6
CONTINUOUS
 62
     1
 10
620.896673549
 20
220.95
 11
620.896673549
 21
217.75
  0
LINE
  8
3
  6
CONTINUOUS
 62
     1
 10
620.896673549
 20
220.95
 11
560.896673549
 21
220.95
  0
LINE
  8
3
  6
CONTINUOUS
 62
     1
 10
180.896673549
 20
220.95
 11
180.896673549
 21
217.75
  0
LINE
  8
3
  6
CONTINUOUS
 62
     1
 10
180.896673549
 20
217.75
 11
120.896673549
 21
217.75
  0
LINE
  8
3
  6
CONTINUOUS
 62
     1
 10
120.896673549
 20
220.95
 11
120.896673549
 21
217.75
  0
LINE
  8
3
  6
CONTINUOUS
 62
     1
 10
120.896673549
 20
220.95
 11
180.896673549
 21
220.95
  0
LINE
  8
3
  6
CONTINUOUS
 62
     1
 10
865.896673549
 20
220.95
 11
865.896673549
 21
217.75
  0
LINE
  8
3
  6
CONTINUOUS
 62
     1
 10
814.896673549
 20
217.75
 11
865.896673549
 21
217.75
  0
LINE
  8
3
  6
CONTINUOUS
 62
     1
 10
814.896673549
 20
220.95
 11
814.896673549
 21
217.75
  0
LINE
  8
3
  6
CONTINUOUS
 62
     2
 10
847.896673549
 20
217.75
 11
847.896673549
 21
189.063289693
  0
LINE
  8
3
  6
CONTINUOUS
 62
     2
 10
832.896673549
 20
217.75
 11
832.896673549
 21
200.20610655
  0
LINE
  8
3
  6
CONTINUOUS
 62
     1
 10
1317.996673549
 20
220.95
 11
1317.996673549
 21
217.75
  0
LINE
  8
3
  6
CONTINUOUS
 62
     1
 10
1266.996673549
 20
220.95
 11
1266.996673549
 21
217.75
  0
LINE
  8
3
  6
CONTINUOUS
 62
     1
 10
1266.996673549
 20
217.75
 11
1317.996673549
 21
217.75
  0
LINE
  8
3
  6
CONTINUOUS
 62
     2
 10
1299.896673549
 20
217.75
 11
1299.896673549
 21
200.20610655
  0
LINE
  8
3
  6
CONTINUOUS
 62
     2
 10
1284.896673549
 20
217.75
 11
1284.896673549
 21
189.063289693
  0
LINE
  8
3
  6
CONTINUOUS
 62
     1
 10
596.396673549
 20
166.75
 11
145.396673549
 21
166.75
  0
LINE
  8
3
  6
CONTINUOUS
 62
     1
 10
574.896673549
 20
164.75
 11
574.896673549
 21
166.75
  0
LINE
  8
3
  6
CONTINUOUS
 62
     1
 10
597.896673549
 20
166.75
 11
574.896673549
 21
166.75
  0
LINE
  8
3
  6
CONTINUOUS
 62
     1
 10
599.896673549
 20
164.75
 11
574.896673549
 21
164.75
  0
LINE
  8
3
  6
CONTINUOUS
 62
     1
 10
166.896673549
 20
164.75
 11
166.896673549
 21
166.75
  0
LINE
  8
3
  6
CONTINUOUS
 62
     1
 10
143.896673549
 20
166.75
 11
166.896673549
 21
166.75
  0
LINE
  8
3
  6
CONTINUOUS
 62
     1
 10
141.896673549
 20
164.75
 11
166.896673549
 21
164.75
  0
LINE
  8
3
  6
CONTINUOUS
 62
     1
 10
874.755539448
 20
220.95
 11
914.107203096
 21
164.75
  0
LINE
  8
3
  6
CONTINUOUS
 62
     1
 10
1258.03780765
 20
220.95
 11
1218.686144003
 21
164.75
  0
LINE
  8
3
  6
CONTINUOUS
 62
     1
 10
1218.686144003
 20
164.75
 11
914.107203096
 21
164.75
  0
LINE
  8
3
  6
CONTINUOUS
 62
     1
 10
599.896673549
 20
164.75
 11
599.896673549
 21
217.75
  0
LINE
  8
3
  6
CONTINUOUS
 62
     1
 10
597.896673549
 20
166.75
 11
597.896673549
 21
217.75
  0
LINE
  8
3
  6
CONTINUOUS
 62
     1
 10
141.896673549
 20
164.75
 11
141.896673549
 21
217.75
  0
LINE
  8
3
  6
CONTINUOUS
 62
     1
 10
620.896673549
 20
244.75
 11
620.896673549
 21
220.95
  0
LINE
  8
3
  6
CONTINUOUS
 62
     1
 10
120.896673549
 20
244.75
 11
620.896673549
 21
244.75
  0
LINE
  8
3
  6
CONTINUOUS
 62
     1
 10
120.896673549
 20
244.75
 11
120.896673549
 21
220.95
  0
LINE
  8
3
  6
CONTINUOUS
 62
     1
 10
143.896673549
 20
166.75
 11
143.896673549
 21
217.75
  0
LINE
  8
5
  6
CONTINUOUS
 62
     1
 10
1316.396673549
 20
489.65
 11
816.396673549
 21
489.65
  0
LINE
  8
5
  6
CONTINUOUS
 62
     1
 10
816.396673549
 20
489.65
 11
816.396673549
 21
222.95
  0
LINE
  8
5
  6
CONTINUOUS
 62
     1
 10
1316.396673549
 20
222.95
 11
816.396673549
 21
222.95
  0
LINE
  8
5
  6
CONTINUOUS
 62
     1
 10
1316.396673549
 20
489.65
 11
1316.396673549
 21
222.95
  0
CIRCLE
  8
5
  6
CONTINUOUS
 62
     1
 10
1433.834273549
 20
461.1
 40
3.1
  0
CIRCLE
  8
5
  6
CONTINUOUS
 62
     1
 10
1433.834273549
 20
445.2
 40
3.1
  0
CIRCLE
  8
5
  6
CONTINUOUS
 62
     1
 10
1433.834273549
 20
429.3
 40
3.1
  0
CIRCLE
  8
5
  6
CONTINUOUS
 62
     1
 10
1433.834273549
 20
416.65
 40
3.1
  0
ARC
  8
5
  6
CONTINUOUS
 62
     1
 10
1433.834273549
 20
400.75
 40
3.1
 50
0.0
 51
180.0
  0
LINE
  8
5
  6
CONTINUOUS
 62
     1
 10
1416.396673549
 20
400.75
 11
1416.396673549
 21
489.65
  0
CIRCLE
  8
5
  6
CONTINUOUS
 62
     1
 10
1433.834273549
 20
372.2
 40
3.1
  0
CIRCLE
  8
5
  6
CONTINUOUS
 62
     1
 10
1433.834273549
 20
356.3
 40
3.1
  0
CIRCLE
  8
5
  6
CONTINUOUS
 62
     1
 10
1433.834273549
 20
340.4
 40
3.1
  0
CIRCLE
  8
5
  6
CONTINUOUS
 62
     1
 10
1433.834273549
 20
384.85
 40
3.1
  0
ARC
  8
5
  6
CONTINUOUS
 62
     1
 10
1433.834273549
 20
400.75
 40
3.1
 50
180.0
 51
0.0
  0
LINE
  8
5
  6
CONTINUOUS
 62
     1
 10
1440.896673549
 20
335.775
 11
1440.896673549
 21
376.825
  0
LINE
  8
5
  6
CONTINUOUS
 62
     1
 10
1440.896673549
 20
380.225
 11
1440.896673549
 21
400.75
  0
ARC
  8
5
  6
CONTINUOUS
 62
     1
 10
1440.896673549
 20
378.525
 40
1.7
 50
90.0
 51
270.0
  0
ARC
  8
5
  6
CONTINUOUS
 62
     1
 10
1440.896673549
 20
422.975
 40
1.7
 50
90.000146078
 51
269.999853922
  0
LINE
  8
5
  6
CONTINUOUS
 62
     1
 10
1440.896673549
 20
400.75
 11
1440.896673549
 21
421.275
  0
LINE
  8
5
  6
CONTINUOUS
 62
     1
 10
1440.896673549
 20
424.675
 11
1440.896673549
 21
465.725
  0
CIRCLE
  8
5
  6
CONTINUOUS
 62
     1
 10
1433.834273549
 20
327.75
 40
3.1
  0
CIRCLE
  8
5
  6
CONTINUOUS
 62
     1
 10
1433.834273549
 20
311.85
 40
3.1
  0
CIRCLE
  8
5
  6
CONTINUOUS
 62
     1
 10
1433.834273549
 20
295.95
 40
3.1
  0
LINE
  8
5
  6
CONTINUOUS
 62
     1
 10
1440.896673549
 20
291.325
 11
1440.896673549
 21
332.375
  0
ARC
  8
5
  6
CONTINUOUS
 62
     1
 10
1440.896673549
 20
334.075
 40
1.7
 50
90.0
 51
270.0
  0
CIRCLE
  8
5
  6
CONTINUOUS
 62
     1
 10
1433.834273549
 20
283.3
 40
3.1
  0
CIRCLE
  8
5
  6
CONTINUOUS
 62
     1
 10
1433.834273549
 20
267.4
 40
3.1
  0
CIRCLE
  8
5
  6
CONTINUOUS
 62
     1
 10
1433.834273549
 20
251.5
 40
3.1
  0
LINE
  8
5
  6
CONTINUOUS
 62
     1
 10
1440.896673549
 20
246.875
 11
1440.896673549
 21
287.925
  0
ARC
  8
5
  6
CONTINUOUS
 62
     1
 10
1440.896673549
 20
289.625
 40
1.7
 50
90.0
 51
270.0
  0
LINE
  8
5
  6
CONTINUOUS
 62
     1
 10
1416.396673549
 20
222.95
 11
1416.396673549
 21
400.75
  0
CIRCLE
  8
5
  6
CONTINUOUS
 62
     1
 10
603.459073549
 20
416.65
 40
3.1
  0
ARC
  8
5
  6
CONTINUOUS
 62
     1
 10
603.459073549
 20
400.75
 40
3.1
 50
0.0
 51
180.0
  0
LINE
  8
5
  6
CONTINUOUS
 62
     1
 10
620.896673549
 20
400.75
 11
620.896673549
 21
489.65
  0
CIRCLE
  8
5
  6
CONTINUOUS
 62
     1
 10
603.459073549
 20
372.2
 40
3.1
  0
CIRCLE
  8
5
  6
CONTINUOUS
 62
     1
 10
603.459073549
 20
356.3
 40
3.1
  0
CIRCLE
  8
5
  6
CONTINUOUS
 62
     1
 10
603.459073549
 20
340.4
 40
3.1
  0
CIRCLE
  8
5
  6
CONTINUOUS
 62
     1
 10
603.459073549
 20
384.85
 40
3.1
  0
ARC
  8
5
  6
CONTINUOUS
 62
     1
 10
603.459073549
 20
400.75
 40
3.1
 50
180.0
 51
0.0
  0
LINE
  8
5
  6
CONTINUOUS
 62
     1
 10
596.396673549
 20
335.775
 11
596.396673549
 21
376.825
  0
LINE
  8
5
  6
CONTINUOUS
 62
     1
 10
596.396673549
 20
380.225
 11
596.396673549
 21
400.75
  0
ARC
  8
5
  6
CONTINUOUS
 62
     1
 10
596.396673549
 20
378.525
 40
1.7
 50
270.0
 51
90.0
  0
LINE
  8
5
  6
CONTINUOUS
 62
     1
 10
596.396673549
 20
400.75
 11
596.396673549
 21
421.275
  0
CIRCLE
  8
5
  6
CONTINUOUS
 62
     1
 10
603.459073549
 20
327.75
 40
3.1
  0
CIRCLE
  8
5
  6
CONTINUOUS
 62
     1
 10
603.459073549
 20
311.85
 40
3.1
  0
CIRCLE
  8
5
  6
CONTINUOUS
 62
     1
 10
603.459073549
 20
295.95
 40
3.1
  0
LINE
  8
5
  6
CONTINUOUS
 62
     1
 10
596.396673549
 20
291.325
 11
596.396673549
 21
332.375
  0
ARC
  8
5
  6
CONTINUOUS
 62
     1
 10
596.396673549
 20
334.075
 40
1.7
 50
270.0
 51
90.0
  0
CIRCLE
  8
5
  6
CONTINUOUS
 62
     1
 10
603.459073549
 20
283.3
 40
3.1
  0
CIRCLE
  8
5
  6
CONTINUOUS
 62
     1
 10
603.459073549
 20
267.4
 40
3.1
  0
CIRCLE
  8
5
  6
CONTINUOUS
 62
     1
 10
603.459073549
 20
251.5
 40
3.1
  0
LINE
  8
5
  6
CONTINUOUS
 62
     1
 10
596.396673549
 20
246.875
 11
596.396673549
 21
287.925
  0
ARC
  8
5
  6
CONTINUOUS
 62
     1
 10
596.396673549
 20
289.625
 40
1.7
 50
270.0
 51
90.0
  0
LINE
  8
5
  6
CONTINUOUS
 62
     1
 10
620.896673549
 20
222.95
 11
620.896673549
 21
400.75
  0
CIRCLE
  8
5
  6
CONTINUOUS
 62
     1
 10
138.334273549
 20
416.65
 40
3.1
  0
ARC
  8
5
  6
CONTINUOUS
 62
     1
 10
138.334273549
 20
400.75
 40
3.1
 50
0.0
 51
180.0
  0
LINE
  8
5
  6
CONTINUOUS
 62
     1
 10
120.896673549
 20
400.75
 11
120.896673549
 21
489.65
  0
CIRCLE
  8
5
  6
CONTINUOUS
 62
     1
 10
138.334273549
 20
372.2
 40
3.1
  0
CIRCLE
  8
5
  6
CONTINUOUS
 62
     1
 10
138.334273549
 20
356.3
 40
3.1
  0
CIRCLE
  8
5
  6
CONTINUOUS
 62
     1
 10
138.334273549
 20
340.4
 40
3.1
  0
CIRCLE
  8
5
  6
CONTINUOUS
 62
     1
 10
138.334273549
 20
384.85
 40
3.1
  0
ARC
  8
5
  6
CONTINUOUS
 62
     1
 10
138.334273549
 20
400.75
 40
3.1
 50
180.0
 51
0.0
  0
LINE
  8
5
  6
CONTINUOUS
 62
     1
 10
145.396673549
 20
335.775
 11
145.396673549
 21
376.825
  0
LINE
  8
5
  6
CONTINUOUS
 62
     1
 10
145.396673549
 20
380.225
 11
145.396673549
 21
400.75
  0
ARC
  8
5
  6
CONTINUOUS
 62
     1
 10
145.396673549
 20
378.525
 40
1.7
 50
90.0
 51
270.0
  0
LINE
  8
5
  6
CONTINUOUS
 62
     1
 10
145.396673549
 20
400.75
 11
145.396673549
 21
421.275
  0
CIRCLE
  8
5
  6
CONTINUOUS
 62
     1
 10
138.334273549
 20
327.75
 40
3.1
  0
CIRCLE
  8
5
  6
CONTINUOUS
 62
     1
 10
138.334273549
 20
311.85
 40
3.1
  0
CIRCLE
  8
5
  6
CONTINUOUS
 62
     1
 10
138.334273549
 20
295.95
 40
3.1
  0
LINE
  8
5
  6
CONTINUOUS
 62
     1
 10
145.396673549
 20
291.325
 11
145.396673549
 21
332.375
  0
ARC
  8
5
  6
CONTINUOUS
 62
     1
 10
145.396673549
 20
334.075
 40
1.7
 50
90.0
 51
270.0
  0
CIRCLE
  8
5
  6
CONTINUOUS
 62
     1
 10
138.334273549
 20
283.3
 40
3.1
  0
CIRCLE
  8
5
  6
CONTINUOUS
 62
     1
 10
138.334273549
 20
267.4
 40
3.1
  0
CIRCLE
  8
5
  6
CONTINUOUS
 62
     1
 10
138.334273549
 20
251.5
 40
3.1
  0
LINE
  8
5
  6
CONTINUOUS
 62
     1
 10
145.396673549
 20
246.875
 11
145.396673549
 21
287.925
  0
ARC
  8
5
  6
CONTINUOUS
 62
     1
 10
145.396673549
 20
289.625
 40
1.7
 50
90.0
 51
270.0
  0
LINE
  8
5
  6
CONTINUOUS
 62
     1
 10
120.896673549
 20
222.95
 11
120.896673549
 21
400.75
  0
LINE
  8
0
  6
CONTINUOUS
 62
     1
 10
1916.396673549
 20
980.2
 11
1416.396673549
 21
980.2
  0
LINE
  8
0
  6
CONTINUOUS
 62
     1
 10
1916.396673549
 20
978.6
 11
1916.396673549
 21
489.65
  0
CIRCLE
  8
0
  6
CONTINUOUS
 62
     1
 10
1898.956673549
 20
711.9
 40
3.1
  0
CIRCLE
  8
0
  6
CONTINUOUS
 62
     1
 10
1898.956673549
 20
727.8
 40
3.1
  0
CIRCLE
  8
0
  6
CONTINUOUS
 62
     1
 10
1898.956673549
 20
696.0
 40
3.1
  0
CIRCLE
  8
0
  6
CONTINUOUS
 62
     1
 10
1898.956673549
 20
667.45
 40
3.1
  0
CIRCLE
  8
0
  6
CONTINUOUS
 62
     1
 10
1898.956673549
 20
683.35
 40
3.1
  0
CIRCLE
  8
0
  6
CONTINUOUS
 62
     1
 10
1898.956673549
 20
651.55
 40
3.1
  0
ARC
  8
0
  6
CONTINUOUS
 62
     1
 10
1891.896673549
 20
689.675
 40
1.7
 50
270.0
 51
90.0
  0
ARC
  8
0
  6
CONTINUOUS
 62
     1
 10
1891.896673549
 20
645.225
 40
1.7
 50
270.0
 51
90.0
  0
LINE
  8
0
  6
CONTINUOUS
 62
     1
 10
1891.896673549
 20
687.975
 11
1891.896673549
 21
646.925
  0
ARC
  8
0
  6
CONTINUOUS
 62
     1
 10
1891.896673549
 20
734.125
 40
1.7
 50
270.0
 51
90.0
  0
LINE
  8
0
  6
CONTINUOUS
 62
     1
 10
1891.896673549
 20
732.425
 11
1891.896673549
 21
691.375
  0
CIRCLE
  8
0
  6
CONTINUOUS
 62
     1
 10
1898.956673549
 20
756.35
 40
3.1
  0
CIRCLE
  8
0
  6
CONTINUOUS
 62
     1
 10
1898.956673549
 20
772.25
 40
3.1
  0
CIRCLE
  8
0
  6
CONTINUOUS
 62
     1
 10
1898.956673549
 20
740.45
 40
3.1
  0
ARC
  8
0
  6
CONTINUOUS
 62
     1
 10
1891.896673549
 20
778.575
 40
1.7
 50
270.0
 51
90.0
  0
LINE
  8
0
  6
CONTINUOUS
 62
     1
 10
1891.896673549
 20
776.875
 11
1891.896673549
 21
735.825
  0
CIRCLE
  8
0
  6
CONTINUOUS
 62
     1
 10
1898.956673549
 20
800.8
 40
3.1
  0
CIRCLE
  8
0
  6
CONTINUOUS
 62
     1
 10
1898.956673549
 20
816.7
 40
3.1
  0
CIRCLE
  8
0
  6
CONTINUOUS
 62
     1
 10
1898.956673549
 20
784.9
 40
3.1
  0
ARC
  8
0
  6
CONTINUOUS
 62
     1
 10
1891.896673549
 20
823.025
 40
1.7
 50
270.0
 51
90.0
  0
LINE
  8
0
  6
CONTINUOUS
 62
     1
 10
1891.896673549
 20
821.325
 11
1891.896673549
 21
780.275
  0
CIRCLE
  8
0
  6
CONTINUOUS
 62
     1
 10
1898.956673549
 20
845.25
 40
3.1
  0
CIRCLE
  8
0
  6
CONTINUOUS
 62
     1
 10
1898.956673549
 20
861.15
 40
3.1
  0
CIRCLE
  8
0
  6
CONTINUOUS
 62
     1
 10
1898.956673549
 20
829.35
 40
3.1
  0
ARC
  8
0
  6
CONTINUOUS
 62
     1
 10
1891.896673549
 20
867.475
 40
1.7
 50
270.0
 51
90.0
  0
LINE
  8
0
  6
CONTINUOUS
 62
     1
 10
1891.896673549
 20
865.775
 11
1891.896673549
 21
824.725
  0
CIRCLE
  8
0
  6
CONTINUOUS
 62
     1
 10
1898.956673549
 20
889.7
 40
3.1
  0
CIRCLE
  8
0
  6
CONTINUOUS
 62
     1
 10
1898.956673549
 20
905.6
 40
3.1
  0
CIRCLE
  8
0
  6
CONTINUOUS
 62
     1
 10
1898.956673549
 20
873.8
 40
3.1
  0
ARC
  8
0
  6
CONTINUOUS
 62
     1
 10
1891.896673549
 20
911.925
 40
1.7
 50
270.0
 51
90.0
  0
LINE
  8
0
  6
CONTINUOUS
 62
     1
 10
1891.896673549
 20
910.225
 11
1891.896673549
 21
869.175
  0
CIRCLE
  8
0
  6
CONTINUOUS
 62
     1
 10
1898.956673549
 20
934.15
 40
3.1
  0
CIRCLE
  8
0
  6
CONTINUOUS
 62
     1
 10
1898.956673549
 20
950.05
 40
3.1
  0
CIRCLE
  8
0
  6
CONTINUOUS
 62
     1
 10
1898.956673549
 20
918.25
 40
3.1
  0
CIRCLE
  8
0
  6
CONTINUOUS
 62
     1
 10
1898.956673549
 20
623.0
 40
3.1
  0
CIRCLE
  8
0
  6
CONTINUOUS
 62
     1
 10
1898.956673549
 20
638.9
 40
3.1
  0
CIRCLE
  8
0
  6
CONTINUOUS
 62
     1
 10
1898.956673549
 20
607.1
 40
3.1
  0
ARC
  8
0
  6
CONTINUOUS
 62
     1
 10
1891.896673549
 20
600.775
 40
1.7
 50
270.0
 51
90.0
  0
LINE
  8
0
  6
CONTINUOUS
 62
     1
 10
1891.896673549
 20
643.525
 11
1891.896673549
 21
602.475
  0
CIRCLE
  8
0
  6
CONTINUOUS
 62
     1
 10
1898.956673549
 20
578.55
 40
3.1
  0
CIRCLE
  8
0
  6
CONTINUOUS
 62
     1
 10
1898.956673549
 20
594.45
 40
3.1
  0
CIRCLE
  8
0
  6
CONTINUOUS
 62
     1
 10
1898.956673549
 20
562.65
 40
3.1
  0
ARC
  8
0
  6
CONTINUOUS
 62
     1
 10
1891.896673549
 20
556.325
 40
1.7
 50
270.0
 51
90.0
  0
LINE
  8
0
  6
CONTINUOUS
 62
     1
 10
1891.896673549
 20
599.075
 11
1891.896673549
 21
558.025
  0
CIRCLE
  8
0
  6
CONTINUOUS
 62
     1
 10
1898.956673549
 20
534.1
 40
3.1
  0
CIRCLE
  8
0
  6
CONTINUOUS
 62
     1
 10
1898.956673549
 20
550.0
 40
3.1
  0
CIRCLE
  8
0
  6
CONTINUOUS
 62
     1
 10
1898.956673549
 20
518.2
 40
3.1
  0
LINE
  8
0
  6
CONTINUOUS
 62
     1
 10
1891.896673549
 20
554.625
 11
1891.896673549
 21
513.575
  0
LINE
  8
0
  6
CONTINUOUS
 62
     1
 10
1891.896673549
 20
954.675
 11
1891.896673549
 21
913.625
  0
CIRCLE
  8
5
  6
CONTINUOUS
 62
     1
 10
1898.959073549
 20
461.1
 40
3.1
  0
CIRCLE
  8
5
  6
CONTINUOUS
 62
     1
 10
1898.959073549
 20
445.2
 40
3.1
  0
CIRCLE
  8
5
  6
CONTINUOUS
 62
     1
 10
1898.959073549
 20
429.3
 40
3.1
  0
CIRCLE
  8
5
  6
CONTINUOUS
 62
     1
 10
1898.959073549
 20
416.65
 40
3.1
  0
ARC
  8
5
  6
CONTINUOUS
 62
     1
 10
1898.959073549
 20
400.75
 40
3.1
 50
0.0
 51
180.0
  0
LINE
  8
5
  6
CONTINUOUS
 62
     1
 10
1916.396673549
 20
400.75
 11
1916.396673549
 21
489.65
  0
CIRCLE
  8
5
  6
CONTINUOUS
 62
     1
 10
1898.959073549
 20
372.2
 40
3.1
  0
CIRCLE
  8
5
  6
CONTINUOUS
 62
     1
 10
1898.959073549
 20
356.3
 40
3.1
  0
CIRCLE
  8
5
  6
CONTINUOUS
 62
     1
 10
1898.959073549
 20
340.4
 40
3.1
  0
CIRCLE
  8
5
  6
CONTINUOUS
 62
     1
 10
1898.959073549
 20
384.85
 40
3.1
  0
ARC
  8
5
  6
CONTINUOUS
 62
     1
 10
1898.959073549
 20
400.75
 40
3.1
 50
180.0
 51
0.0
  0
LINE
  8
5
  6
CONTINUOUS
 62
     1
 10
1891.896673549
 20
335.775
 11
1891.896673549
 21
376.825
  0
LINE
  8
5
  6
CONTINUOUS
 62
     1
 10
1891.896673549
 20
380.225
 11
1891.896673549
 21
400.75
  0
ARC
  8
5
  6
CONTINUOUS
 62
     1
 10
1891.896673549
 20
378.525
 40
1.7
 50
270.0
 51
90.0
  0
ARC
  8
5
  6
CONTINUOUS
 62
     1
 10
1891.896673549
 20
422.975
 40
1.7
 50
270.000146078
 51
89.999853922
  0
LINE
  8
5
  6
CONTINUOUS
 62
     1
 10
1891.896673549
 20
400.75
 11
1891.896673549
 21
421.275
  0
LINE
  8
5
  6
CONTINUOUS
 62
     1
 10
1891.896673549
 20
424.675
 11
1891.896673549
 21
465.725
  0
CIRCLE
  8
5
  6
CONTINUOUS
 62
     1
 10
1898.959073549
 20
327.75
 40
3.1
  0
CIRCLE
  8
5
  6
CONTINUOUS
 62
     1
 10
1898.959073549
 20
311.85
 40
3.1
  0
CIRCLE
  8
5
  6
CONTINUOUS
 62
     1
 10
1898.959073549
 20
295.95
 40
3.1
  0
LINE
  8
5
  6
CONTINUOUS
 62
     1
 10
1891.896673549
 20
291.325
 11
1891.896673549
 21
332.375
  0
ARC
  8
5
  6
CONTINUOUS
 62
     1
 10
1891.896673549
 20
334.075
 40
1.7
 50
270.0
 51
90.0
  0
CIRCLE
  8
5
  6
CONTINUOUS
 62
     1
 10
1898.959073549
 20
283.3
 40
3.1
  0
CIRCLE
  8
5
  6
CONTINUOUS
 62
     1
 10
1898.959073549
 20
267.4
 40
3.1
  0
CIRCLE
  8
5
  6
CONTINUOUS
 62
     1
 10
1898.959073549
 20
251.5
 40
3.1
  0
LINE
  8
5
  6
CONTINUOUS
 62
     1
 10
1891.896673549
 20
246.875
 11
1891.896673549
 21
287.925
  0
ARC
  8
5
  6
CONTINUOUS
 62
     1
 10
1891.896673549
 20
289.625
 40
1.7
 50
270.0
 51
90.0
  0
LINE
  8
5
  6
CONTINUOUS
 62
     1
 10
1916.396673549
 20
222.95
 11
1916.396673549
 21
400.75
  0
CIRCLE
  8
3
  6
CONTINUOUS
 62
     1
 10
1898.959073549
 20
238.85
 40
3.1
  0
CIRCLE
  8
3
  6
CONTINUOUS
 62
     1
 10
1433.834273549
 20
238.85
 40
3.1
  0
LINE
  8
3
  6
CONTINUOUS
 62
     1
 10
1416.396673549
 20
220.95
 11
1916.396673549
 21
220.95
  0
CIRCLE
  8
3
  6
CONTINUOUS
 62
     2
 10
1903.396673549
 20
171.75
 40
30.0
  0
LINE
  8
3
  6
CONTINUOUS
 62
     2
 10
1878.896673549
 20
217.75
 11
1878.896673549
 21
189.063289693
  0
LINE
  8
3
  6
CONTINUOUS
 62
     2
 10
1893.896673549
 20
217.75
 11
1893.896673549
 21
200.20610655
  0
LINE
  8
3
  6
CONTINUOUS
 62
     2
 10
1468.896673549
 20
201.75
 11
1468.896673549
 21
141.75
  0
LINE
  8
3
  6
CONTINUOUS
 62
     2
 10
1423.896673549
 20
201.75
 11
1468.896673549
 21
201.75
  0
LINE
  8
3
  6
CONTINUOUS
 62
     2
 10
1423.896673549
 20
201.75
 11
1423.896673549
 21
141.75
  0
LINE
  8
3
  6
CONTINUOUS
 62
     2
 10
1453.896673549
 20
217.75
 11
1453.896673549
 21
201.75
  0
LINE
  8
3
  6
CONTINUOUS
 62
     2
 10
1438.896673549
 20
217.75
 11
1438.896673549
 21
201.75
  0
LINE
  8
3
  6
CONTINUOUS
 62
     1
 10
1476.396673549
 20
220.95
 11
1476.396673549
 21
217.75
  0
LINE
  8
3
  6
CONTINUOUS
 62
     1
 10
1476.396673549
 20
217.75
 11
1416.396673549
 21
217.75
  0
LINE
  8
3
  6
CONTINUOUS
 62
     1
 10
1416.396673549
 20
220.95
 11
1416.396673549
 21
217.75
  0
LINE
  8
3
  6
CONTINUOUS
 62
     1
 10
1416.396673549
 20
220.95
 11
1476.396673549
 21
220.95
  0
LINE
  8
3
  6
CONTINUOUS
 62
     1
 10
1856.396673549
 20
220.95
 11
1856.396673549
 21
217.75
  0
LINE
  8
3
  6
CONTINUOUS
 62
     1
 10
1856.396673549
 20
217.75
 11
1916.396673549
 21
217.75
  0
LINE
  8
3
  6
CONTINUOUS
 62
     1
 10
1916.396673549
 20
220.95
 11
1916.396673549
 21
217.75
  0
LINE
  8
3
  6
CONTINUOUS
 62
     1
 10
1916.396673549
 20
220.95
 11
1856.396673549
 21
220.95
  0
LINE
  8
3
  6
CONTINUOUS
 62
     1
 10
1440.896673549
 20
166.75
 11
1891.896673549
 21
166.75
  0
LINE
  8
3
  6
CONTINUOUS
 62
     1
 10
1462.396673549
 20
164.75
 11
1462.396673549
 21
166.75
  0
LINE
  8
3
  6
CONTINUOUS
 62
     1
 10
1439.396673549
 20
166.75
 11
1462.396673549
 21
166.75
  0
LINE
  8
3
  6
CONTINUOUS
 62
     1
 10
1437.396673549
 20
164.75
 11
1462.396673549
 21
164.75
  0
LINE
  8
3
  6
CONTINUOUS
 62
     1
 10
1870.396673549
 20
164.75
 11
1870.396673549
 21
166.75
  0
LINE
  8
3
  6
CONTINUOUS
 62
     1
 10
1893.396673549
 20
166.75
 11
1870.396673549
 21
166.75
  0
LINE
  8
3
  6
CONTINUOUS
 62
     1
 10
1895.396673549
 20
164.75
 11
1870.396673549
 21
164.75
  0
LINE
  8
3
  6
CONTINUOUS
 62
     1
 10
1437.396673549
 20
164.75
 11
1437.396673549
 21
217.75
  0
LINE
  8
3
  6
CONTINUOUS
 62
     1
 10
1439.396673549
 20
166.75
 11
1439.396673549
 21
217.75
  0
LINE
  8
3
  6
CONTINUOUS
 62
     1
 10
1895.396673549
 20
164.75
 11
1895.396673549
 21
217.75
  0
LINE
  8
3
  6
CONTINUOUS
 62
     1
 10
1416.396673549
 20
244.75
 11
1416.396673549
 21
220.95
  0
LINE
  8
3
  6
CONTINUOUS
 62
     1
 10
1916.396673549
 20
244.75
 11
1416.396673549
 21
244.75
  0
LINE
  8
3
  6
CONTINUOUS
 62
     1
 10
1916.396673549
 20
244.75
 11
1916.396673549
 21
220.95
  0
LINE
  8
3
  6
CONTINUOUS
 62
     1
 10
1893.396673549
 20
166.75
 11
1893.396673549
 21
217.75
  0
LINE
  8
3
  6
CONTINUOUS
 62
     2
 10
1943.046673549
 20
141.75
 11
76.396673549
 21
141.75
  0
CIRCLE
  8
4
  6
CONTINUOUS
 62
     1
 10
1898.959073549
 20
505.55
 40
3.1
  0
CIRCLE
  8
4
  6
CONTINUOUS
 62
     1
 10
1898.959073549
 20
473.75
 40
3.1
  0
CIRCLE
  8
4
  6
CONTINUOUS
 62
     1
 10
1433.834273549
 20
505.55
 40
3.1
  0
CIRCLE
  8
4
  6
CONTINUOUS
 62
     1
 10
1433.834273549
 20
473.75
 40
3.1
  0
ARC
  8
4
  6
CONTINUOUS
 62
     1
 10
1663.146673549
 20
476.65
 40
2.0
 50
180.0
 51
359.999922725
  0
ARC
  8
4
  6
CONTINUOUS
 62
     1
 10
1663.146673549
 20
502.65
 40
2.0
 50
359.999922725
 51
180.0
  0
LINE
  8
4
  6
CONTINUOUS
 62
     1
 10
1665.146673549
 20
476.649997303
 11
1665.146673549
 21
502.649997303
  0
LINE
  8
4
  6
CONTINUOUS
 62
     1
 10
1661.146673549
 20
476.65
 11
1661.146673549
 21
502.65
  0
ARC
  8
4
  6
CONTINUOUS
 62
     1
 10
1656.646673549
 20
476.65
 40
2.0
 50
180.0
 51
359.999922725
  0
ARC
  8
4
  6
CONTINUOUS
 62
     1
 10
1656.646673549
 20
502.65
 40
2.0
 50
359.999922725
 51
180.0
  0
LINE
  8
4
  6
CONTINUOUS
 62
     1
 10
1658.646673549
 20
476.649997303
 11
1658.646673549
 21
502.649997303
  0
LINE
  8
4
  6
CONTINUOUS
 62
     1
 10
1654.646673549
 20
476.65
 11
1654.646673549
 21
502.65
  0
ARC
  8
4
  6
CONTINUOUS
 62
     1
 10
1650.146673549
 20
476.65
 40
2.0
 50
180.0
 51
359.999922725
  0
ARC
  8
4
  6
CONTINUOUS
 62
     1
 10
1650.146673549
 20
502.65
 40
2.0
 50
359.999922725
 51
180.0
  0
LINE
  8
4
  6
CONTINUOUS
 62
     1
 10
1652.146673549
 20
476.649997303
 11
1652.146673549
 21
502.649997303
  0
LINE
  8
4
  6
CONTINUOUS
 62
     1
 10
1648.146673549
 20
476.65
 11
1648.146673549
 21
502.65
  0
ARC
  8
4
  6
CONTINUOUS
 62
     1
 10
1643.646673549
 20
476.65
 40
2.0
 50
180.0
 51
359.999922725
  0
ARC
  8
4
  6
CONTINUOUS
 62
     1
 10
1643.646673549
 20
502.65
 40
2.0
 50
359.999922725
 51
180.0
  0
LINE
  8
4
  6
CONTINUOUS
 62
     1
 10
1645.646673549
 20
476.649997303
 11
1645.646673549
 21
502.649997303
  0
LINE
  8
4
  6
CONTINUOUS
 62
     1
 10
1641.646673549
 20
476.65
 11
1641.646673549
 21
502.65
  0
ARC
  8
4
  6
CONTINUOUS
 62
     1
 10
1637.146673549
 20
476.65
 40
2.0
 50
180.0
 51
359.999922725
  0
ARC
  8
4
  6
CONTINUOUS
 62
     1
 10
1637.146673549
 20
502.65
 40
2.0
 50
359.999922725
 51
180.0
  0
LINE
  8
4
  6
CONTINUOUS
 62
     1
 10
1639.146673549
 20
476.649997303
 11
1639.146673549
 21
502.649997303
  0
LINE
  8
4
  6
CONTINUOUS
 62
     1
 10
1635.146673549
 20
476.65
 11
1635.146673549
 21
502.65
  0
ARC
  8
4
  6
CONTINUOUS
 62
     1
 10
1630.646673549
 20
476.65
 40
2.0
 50
180.0
 51
359.999922725
  0
ARC
  8
4
  6
CONTINUOUS
 62
     1
 10
1630.646673549
 20
502.65
 40
2.0
 50
359.999922725
 51
180.0
  0
LINE
  8
4
  6
CONTINUOUS
 62
     1
 10
1632.646673549
 20
476.649997303
 11
1632.646673549
 21
502.649997303
  0
LINE
  8
4
  6
CONTINUOUS
 62
     1
 10
1628.646673549
 20
476.65
 11
1628.646673549
 21
502.65
  0
ARC
  8
4
  6
CONTINUOUS
 62
     1
 10
1624.146673549
 20
476.65
 40
2.0
 50
180.0
 51
359.999922725
  0
ARC
  8
4
  6
CONTINUOUS
 62
     1
 10
1624.146673549
 20
502.65
 40
2.0
 50
359.999922725
 51
180.0
  0
LINE
  8
4
  6
CONTINUOUS
 62
     1
 10
1626.146673549
 20
476.649997303
 11
1626.146673549
 21
502.649997303
  0
LINE
  8
4
  6
CONTINUOUS
 62
     1
 10
1622.146673549
 20
476.65
 11
1622.146673549
 21
502.65
  0
ARC
  8
4
  6
CONTINUOUS
 62
     1
 10
1617.646673549
 20
476.65
 40
2.0
 50
180.0
 51
359.999922725
  0
ARC
  8
4
  6
CONTINUOUS
 62
     1
 10
1617.646673549
 20
502.65
 40
2.0
 50
359.999922725
 51
180.0
  0
LINE
  8
4
  6
CONTINUOUS
 62
     1
 10
1619.646673549
 20
476.649997303
 11
1619.646673549
 21
502.649997303
  0
LINE
  8
4
  6
CONTINUOUS
 62
     1
 10
1615.646673549
 20
476.65
 11
1615.646673549
 21
502.65
  0
ARC
  8
4
  6
CONTINUOUS
 62
     1
 10
1611.146673549
 20
476.65
 40
2.0
 50
180.0
 51
359.999922725
  0
ARC
  8
4
  6
CONTINUOUS
 62
     1
 10
1611.146673549
 20
502.65
 40
2.0
 50
359.999922725
 51
180.0
  0
LINE
  8
4
  6
CONTINUOUS
 62
     1
 10
1613.146673549
 20
476.649997303
 11
1613.146673549
 21
502.649997303
  0
LINE
  8
4
  6
CONTINUOUS
 62
     1
 10
1609.146673549
 20
476.65
 11
1609.146673549
 21
502.65
  0
ARC
  8
4
  6
CONTINUOUS
 62
     1
 10
1604.646673549
 20
476.65
 40
2.0
 50
180.0
 51
359.999922725
  0
ARC
  8
4
  6
CONTINUOUS
 62
     1
 10
1604.646673549
 20
502.65
 40
2.0
 50
359.999922725
 51
180.0
  0
LINE
  8
4
  6
CONTINUOUS
 62
     1
 10
1606.646673549
 20
476.649997303
 11
1606.646673549
 21
502.649997303
  0
LINE
  8
4
  6
CONTINUOUS
 62
     1
 10
1602.646673549
 20
476.65
 11
1602.646673549
 21
502.65
  0
ARC
  8
4
  6
CONTINUOUS
 62
     1
 10
1598.146673549
 20
476.65
 40
2.0
 50
180.0
 51
359.999922725
  0
ARC
  8
4
  6
CONTINUOUS
 62
     1
 10
1598.146673549
 20
502.65
 40
2.0
 50
359.999922725
 51
180.0
  0
LINE
  8
4
  6
CONTINUOUS
 62
     1
 10
1600.146673549
 20
476.649997303
 11
1600.146673549
 21
502.649997303
  0
LINE
  8
4
  6
CONTINUOUS
 62
     1
 10
1596.146673549
 20
476.65
 11
1596.146673549
 21
502.65
  0
ARC
  8
4
  6
CONTINUOUS
 62
     1
 10
1591.646673549
 20
476.65
 40
2.0
 50
180.0
 51
359.999922725
  0
ARC
  8
4
  6
CONTINUOUS
 62
     1
 10
1591.646673549
 20
502.65
 40
2.0
 50
359.999922725
 51
180.0
  0
LINE
  8
4
  6
CONTINUOUS
 62
     1
 10
1593.646673549
 20
476.649997303
 11
1593.646673549
 21
502.649997303
  0
LINE
  8
4
  6
CONTINUOUS
 62
     1
 10
1589.646673549
 20
476.65
 11
1589.646673549
 21
502.65
  0
ARC
  8
4
  6
CONTINUOUS
 62
     1
 10
1585.146673549
 20
476.65
 40
2.0
 50
180.0
 51
359.999922725
  0
ARC
  8
4
  6
CONTINUOUS
 62
     1
 10
1585.146673549
 20
502.65
 40
2.0
 50
359.999922725
 51
180.0
  0
LINE
  8
4
  6
CONTINUOUS
 62
     1
 10
1587.146673549
 20
476.649997303
 11
1587.146673549
 21
502.649997303
  0
LINE
  8
4
  6
CONTINUOUS
 62
     1
 10
1583.146673549
 20
476.65
 11
1583.146673549
 21
502.65
  0
ARC
  8
4
  6
CONTINUOUS
 62
     1
 10
1578.646673549
 20
476.65
 40
2.0
 50
180.0
 51
359.999922725
  0
ARC
  8
4
  6
CONTINUOUS
 62
     1
 10
1578.646673549
 20
502.65
 40
2.0
 50
359.999922725
 51
180.0
  0
LINE
  8
4
  6
CONTINUOUS
 62
     1
 10
1580.646673549
 20
476.649997303
 11
1580.646673549
 21
502.649997303
  0
LINE
  8
4
  6
CONTINUOUS
 62
     1
 10
1576.646673549
 20
476.65
 11
1576.646673549
 21
502.65
  0
ARC
  8
4
  6
CONTINUOUS
 62
     1
 10
1572.146673549
 20
476.65
 40
2.0
 50
180.0
 51
359.999922725
  0
ARC
  8
4
  6
CONTINUOUS
 62
     1
 10
1572.146673549
 20
502.65
 40
2.0
 50
359.999922725
 51
180.0
  0
LINE
  8
4
  6
CONTINUOUS
 62
     1
 10
1574.146673549
 20
476.649997303
 11
1574.146673549
 21
502.649997303
  0
LINE
  8
4
  6
CONTINUOUS
 62
     1
 10
1570.146673549
 20
476.65
 11
1570.146673549
 21
502.65
  0
ARC
  8
4
  6
CONTINUOUS
 62
     1
 10
1565.646673549
 20
476.65
 40
2.0
 50
180.0
 51
359.999922725
  0
ARC
  8
4
  6
CONTINUOUS
 62
     1
 10
1565.646673549
 20
502.65
 40
2.0
 50
359.999922725
 51
180.0
  0
LINE
  8
4
  6
CONTINUOUS
 62
     1
 10
1567.646673549
 20
476.649997303
 11
1567.646673549
 21
502.649997303
  0
LINE
  8
4
  6
CONTINUOUS
 62
     1
 10
1563.646673549
 20
476.65
 11
1563.646673549
 21
502.65
  0
ARC
  8
4
  6
CONTINUOUS
 62
     1
 10
1559.146673549
 20
476.65
 40
2.0
 50
180.0
 51
359.999922725
  0
ARC
  8
4
  6
CONTINUOUS
 62
     1
 10
1559.146673549
 20
502.65
 40
2.0
 50
359.999922725
 51
180.0
  0
LINE
  8
4
  6
CONTINUOUS
 62
     1
 10
1561.146673549
 20
476.649997303
 11
1561.146673549
 21
502.649997303
  0
LINE
  8
4
  6
CONTINUOUS
 62
     1
 10
1557.146673549
 20
476.65
 11
1557.146673549
 21
502.65
  0
ARC
  8
4
  6
CONTINUOUS
 62
     1
 10
1552.646673549
 20
476.65
 40
2.0
 50
180.0
 51
359.999922725
  0
ARC
  8
4
  6
CONTINUOUS
 62
     1
 10
1552.646673549
 20
502.65
 40
2.0
 50
359.999922725
 51
180.0
  0
LINE
  8
4
  6
CONTINUOUS
 62
     1
 10
1554.646673549
 20
476.649997303
 11
1554.646673549
 21
502.649997303
  0
LINE
  8
4
  6
CONTINUOUS
 62
     1
 10
1550.646673549
 20
476.65
 11
1550.646673549
 21
502.65
  0
ARC
  8
4
  6
CONTINUOUS
 62
     1
 10
1546.146673549
 20
476.65
 40
2.0
 50
180.0
 51
359.999922725
  0
ARC
  8
4
  6
CONTINUOUS
 62
     1
 10
1546.146673549
 20
502.65
 40
2.0
 50
359.999922725
 51
180.0
  0
LINE
  8
4
  6
CONTINUOUS
 62
     1
 10
1548.146673549
 20
476.649997303
 11
1548.146673549
 21
502.649997303
  0
LINE
  8
4
  6
CONTINUOUS
 62
     1
 10
1544.146673549
 20
476.65
 11
1544.146673549
 21
502.65
  0
ARC
  8
4
  6
CONTINUOUS
 62
     1
 10
1539.646673549
 20
476.65
 40
2.0
 50
180.0
 51
359.999922725
  0
ARC
  8
4
  6
CONTINUOUS
 62
     1
 10
1539.646673549
 20
502.65
 40
2.0
 50
359.999922725
 51
180.0
  0
LINE
  8
4
  6
CONTINUOUS
 62
     1
 10
1541.646673549
 20
476.649997303
 11
1541.646673549
 21
502.649997303
  0
LINE
  8
4
  6
CONTINUOUS
 62
     1
 10
1537.646673549
 20
476.65
 11
1537.646673549
 21
502.65
  0
ARC
  8
4
  6
CONTINUOUS
 62
     1
 10
1533.146673549
 20
476.65
 40
2.0
 50
180.0
 51
359.999922725
  0
ARC
  8
4
  6
CONTINUOUS
 62
     1
 10
1533.146673549
 20
502.65
 40
2.0
 50
359.999922725
 51
180.0
  0
LINE
  8
4
  6
CONTINUOUS
 62
     1
 10
1535.146673549
 20
476.649997303
 11
1535.146673549
 21
502.649997303
  0
LINE
  8
4
  6
CONTINUOUS
 62
     1
 10
1531.146673549
 20
476.65
 11
1531.146673549
 21
502.65
  0
ARC
  8
4
  6
CONTINUOUS
 62
     1
 10
1526.646673549
 20
476.65
 40
2.0
 50
180.0
 51
359.999922725
  0
ARC
  8
4
  6
CONTINUOUS
 62
     1
 10
1526.646673549
 20
502.65
 40
2.0
 50
359.999922725
 51
180.0
  0
LINE
  8
4
  6
CONTINUOUS
 62
     1
 10
1528.646673549
 20
476.649997303
 11
1528.646673549
 21
502.649997303
  0
LINE
  8
4
  6
CONTINUOUS
 62
     1
 10
1524.646673549
 20
476.65
 11
1524.646673549
 21
502.65
  0
ARC
  8
4
  6
CONTINUOUS
 62
     1
 10
1520.146673549
 20
476.65
 40
2.0
 50
180.0
 51
359.999922725
  0
ARC
  8
4
  6
CONTINUOUS
 62
     1
 10
1520.146673549
 20
502.65
 40
2.0
 50
359.999922725
 51
180.0
  0
LINE
  8
4
  6
CONTINUOUS
 62
     1
 10
1522.146673549
 20
476.649997303
 11
1522.146673549
 21
502.649997303
  0
LINE
  8
4
  6
CONTINUOUS
 62
     1
 10
1518.146673549
 20
476.65
 11
1518.146673549
 21
502.65
  0
ARC
  8
4
  6
CONTINUOUS
 62
     1
 10
1513.646673549
 20
476.65
 40
2.0
 50
180.0
 51
359.999922725
  0
ARC
  8
4
  6
CONTINUOUS
 62
     1
 10
1513.646673549
 20
502.65
 40
2.0
 50
359.999922725
 51
180.0
  0
LINE
  8
4
  6
CONTINUOUS
 62
     1
 10
1515.646673549
 20
476.649997303
 11
1515.646673549
 21
502.649997303
  0
LINE
  8
4
  6
CONTINUOUS
 62
     1
 10
1511.646673549
 20
476.65
 11
1511.646673549
 21
502.65
  0
ARC
  8
4
  6
CONTINUOUS
 62
     1
 10
1507.146673549
 20
476.65
 40
2.0
 50
180.0
 51
359.999922725
  0
ARC
  8
4
  6
CONTINUOUS
 62
     1
 10
1507.146673549
 20
502.65
 40
2.0
 50
359.999922725
 51
180.0
  0
LINE
  8
4
  6
CONTINUOUS
 62
     1
 10
1509.146673549
 20
476.649997303
 11
1509.146673549
 21
502.649997303
  0
LINE
  8
4
  6
CONTINUOUS
 62
     1
 10
1505.146673549
 20
476.65
 11
1505.146673549
 21
502.65
  0
ARC
  8
4
  6
CONTINUOUS
 62
     1
 10
1500.646673549
 20
476.65
 40
2.0
 50
180.0
 51
359.999922725
  0
ARC
  8
4
  6
CONTINUOUS
 62
     1
 10
1500.646673549
 20
502.65
 40
2.0
 50
359.999922725
 51
180.0
  0
LINE
  8
4
  6
CONTINUOUS
 62
     1
 10
1502.646673549
 20
476.649997303
 11
1502.646673549
 21
502.649997303
  0
LINE
  8
4
  6
CONTINUOUS
 62
     1
 10
1498.646673549
 20
476.65
 11
1498.646673549
 21
502.65
  0
ARC
  8
4
  6
CONTINUOUS
 62
     1
 10
1494.146673549
 20
476.65
 40
2.0
 50
180.0
 51
359.999922725
  0
ARC
  8
4
  6
CONTINUOUS
 62
     1
 10
1494.146673549
 20
502.65
 40
2.0
 50
359.999922725
 51
180.0
  0
LINE
  8
4
  6
CONTINUOUS
 62
     1
 10
1496.146673549
 20
476.649997303
 11
1496.146673549
 21
502.649997303
  0
LINE
  8
4
  6
CONTINUOUS
 62
     1
 10
1492.146673549
 20
476.65
 11
1492.146673549
 21
502.65
  0
ARC
  8
4
  6
CONTINUOUS
 62
     1
 10
1487.646673549
 20
476.65
 40
2.0
 50
180.0
 51
359.999922725
  0
ARC
  8
4
  6
CONTINUOUS
 62
     1
 10
1487.646673549
 20
502.65
 40
2.0
 50
359.999922725
 51
180.0
  0
LINE
  8
4
  6
CONTINUOUS
 62
     1
 10
1489.646673549
 20
476.649997303
 11
1489.646673549
 21
502.649997303
  0
LINE
  8
4
  6
CONTINUOUS
 62
     1
 10
1485.646673549
 20
476.65
 11
1485.646673549
 21
502.65
  0
ARC
  8
4
  6
CONTINUOUS
 62
     1
 10
1481.146673549
 20
476.65
 40
2.0
 50
180.0
 51
359.999922725
  0
ARC
  8
4
  6
CONTINUOUS
 62
     1
 10
1481.146673549
 20
502.65
 40
2.0
 50
359.999922725
 51
180.0
  0
LINE
  8
4
  6
CONTINUOUS
 62
     1
 10
1483.146673549
 20
476.649997303
 11
1483.146673549
 21
502.649997303
  0
LINE
  8
4
  6
CONTINUOUS
 62
     1
 10
1479.146673549
 20
476.65
 11
1479.146673549
 21
502.65
  0
ARC
  8
4
  6
CONTINUOUS
 62
     1
 10
1474.646673549
 20
476.65
 40
2.0
 50
180.0
 51
359.999922725
  0
ARC
  8
4
  6
CONTINUOUS
 62
     1
 10
1474.646673549
 20
502.65
 40
2.0
 50
359.999922725
 51
180.0
  0
LINE
  8
4
  6
CONTINUOUS
 62
     1
 10
1476.646673549
 20
476.649997303
 11
1476.646673549
 21
502.649997303
  0
LINE
  8
4
  6
CONTINUOUS
 62
     1
 10
1472.646673549
 20
476.65
 11
1472.646673549
 21
502.65
  0
ARC
  8
4
  6
CONTINUOUS
 62
     1
 10
1669.646673549
 20
476.65
 40
2.0
 50
180.0
 51
359.999922725
  0
ARC
  8
4
  6
CONTINUOUS
 62
     1
 10
1669.646673549
 20
502.65
 40
2.0
 50
359.999922725
 51
180.0
  0
LINE
  8
4
  6
CONTINUOUS
 62
     1
 10
1671.646673549
 20
476.649997303
 11
1671.646673549
 21
502.649997303
  0
LINE
  8
4
  6
CONTINUOUS
 62
     1
 10
1667.646673549
 20
476.65
 11
1667.646673549
 21
502.65
  0
ARC
  8
4
  6
CONTINUOUS
 62
     1
 10
1676.146673549
 20
476.65
 40
2.0
 50
180.0
 51
359.999922725
  0
ARC
  8
4
  6
CONTINUOUS
 62
     1
 10
1676.146673549
 20
502.65
 40
2.0
 50
359.999922725
 51
180.0
  0
LINE
  8
4
  6
CONTINUOUS
 62
     1
 10
1678.146673549
 20
476.649997303
 11
1678.146673549
 21
502.649997303
  0
LINE
  8
4
  6
CONTINUOUS
 62
     1
 10
1674.146673549
 20
476.65
 11
1674.146673549
 21
502.65
  0
ARC
  8
4
  6
CONTINUOUS
 62
     1
 10
1682.646673549
 20
476.65
 40
2.0
 50
180.0
 51
359.999922725
  0
ARC
  8
4
  6
CONTINUOUS
 62
     1
 10
1682.646673549
 20
502.65
 40
2.0
 50
359.999922725
 51
180.0
  0
LINE
  8
4
  6
CONTINUOUS
 62
     1
 10
1684.646673549
 20
476.649997303
 11
1684.646673549
 21
502.649997303
  0
LINE
  8
4
  6
CONTINUOUS
 62
     1
 10
1680.646673549
 20
476.65
 11
1680.646673549
 21
502.65
  0
ARC
  8
4
  6
CONTINUOUS
 62
     1
 10
1689.146673549
 20
476.65
 40
2.0
 50
180.0
 51
359.999922725
  0
ARC
  8
4
  6
CONTINUOUS
 62
     1
 10
1689.146673549
 20
502.65
 40
2.0
 50
359.999922725
 51
180.0
  0
LINE
  8
4
  6
CONTINUOUS
 62
     1
 10
1691.146673549
 20
476.649997303
 11
1691.146673549
 21
502.649997303
  0
LINE
  8
4
  6
CONTINUOUS
 62
     1
 10
1687.146673549
 20
476.65
 11
1687.146673549
 21
502.65
  0
ARC
  8
4
  6
CONTINUOUS
 62
     1
 10
1695.646673549
 20
476.65
 40
2.0
 50
180.0
 51
359.999922725
  0
ARC
  8
4
  6
CONTINUOUS
 62
     1
 10
1695.646673549
 20
502.65
 40
2.0
 50
359.999922725
 51
180.0
  0
LINE
  8
4
  6
CONTINUOUS
 62
     1
 10
1697.646673549
 20
476.649997303
 11
1697.646673549
 21
502.649997303
  0
LINE
  8
4
  6
CONTINUOUS
 62
     1
 10
1693.646673549
 20
476.65
 11
1693.646673549
 21
502.65
  0
ARC
  8
4
  6
CONTINUOUS
 62
     1
 10
1702.146673549
 20
476.65
 40
2.0
 50
180.0
 51
359.999922725
  0
ARC
  8
4
  6
CONTINUOUS
 62
     1
 10
1702.146673549
 20
502.65
 40
2.0
 50
359.999922725
 51
180.0
  0
LINE
  8
4
  6
CONTINUOUS
 62
     1
 10
1704.146673549
 20
476.649997303
 11
1704.146673549
 21
502.649997303
  0
LINE
  8
4
  6
CONTINUOUS
 62
     1
 10
1700.146673549
 20
476.65
 11
1700.146673549
 21
502.65
  0
ARC
  8
4
  6
CONTINUOUS
 62
     1
 10
1708.646673549
 20
476.65
 40
2.0
 50
180.0
 51
359.999922725
  0
ARC
  8
4
  6
CONTINUOUS
 62
     1
 10
1708.646673549
 20
502.65
 40
2.0
 50
359.999922725
 51
180.0
  0
LINE
  8
4
  6
CONTINUOUS
 62
     1
 10
1710.646673549
 20
476.649997303
 11
1710.646673549
 21
502.649997303
  0
LINE
  8
4
  6
CONTINUOUS
 62
     1
 10
1706.646673549
 20
476.65
 11
1706.646673549
 21
502.65
  0
ARC
  8
4
  6
CONTINUOUS
 62
     1
 10
1715.146673549
 20
476.65
 40
2.0
 50
180.0
 51
359.999922725
  0
ARC
  8
4
  6
CONTINUOUS
 62
     1
 10
1715.146673549
 20
502.65
 40
2.0
 50
359.999922725
 51
180.0
  0
LINE
  8
4
  6
CONTINUOUS
 62
     1
 10
1717.146673549
 20
476.649997303
 11
1717.146673549
 21
502.649997303
  0
LINE
  8
4
  6
CONTINUOUS
 62
     1
 10
1713.146673549
 20
476.65
 11
1713.146673549
 21
502.65
  0
ARC
  8
4
  6
CONTINUOUS
 62
     1
 10
1721.646673549
 20
476.65
 40
2.0
 50
180.0
 51
359.999922725
  0
ARC
  8
4
  6
CONTINUOUS
 62
     1
 10
1721.646673549
 20
502.65
 40
2.0
 50
359.999922725
 51
180.0
  0
LINE
  8
4
  6
CONTINUOUS
 62
     1
 10
1723.646673549
 20
476.649997303
 11
1723.646673549
 21
502.649997303
  0
LINE
  8
4
  6
CONTINUOUS
 62
     1
 10
1719.646673549
 20
476.65
 11
1719.646673549
 21
502.65
  0
ARC
  8
4
  6
CONTINUOUS
 62
     1
 10
1728.146673549
 20
476.65
 40
2.0
 50
180.0
 51
359.999922725
  0
ARC
  8
4
  6
CONTINUOUS
 62
     1
 10
1728.146673549
 20
502.65
 40
2.0
 50
359.999922725
 51
180.0
  0
LINE
  8
4
  6
CONTINUOUS
 62
     1
 10
1730.146673549
 20
476.649997303
 11
1730.146673549
 21
502.649997303
  0
LINE
  8
4
  6
CONTINUOUS
 62
     1
 10
1726.146673549
 20
476.65
 11
1726.146673549
 21
502.65
  0
ARC
  8
4
  6
CONTINUOUS
 62
     1
 10
1734.646673549
 20
476.65
 40
2.0
 50
180.0
 51
359.999922725
  0
ARC
  8
4
  6
CONTINUOUS
 62
     1
 10
1734.646673549
 20
502.65
 40
2.0
 50
359.999922725
 51
180.0
  0
LINE
  8
4
  6
CONTINUOUS
 62
     1
 10
1736.646673549
 20
476.649997303
 11
1736.646673549
 21
502.649997303
  0
LINE
  8
4
  6
CONTINUOUS
 62
     1
 10
1732.646673549
 20
476.65
 11
1732.646673549
 21
502.65
  0
ARC
  8
4
  6
CONTINUOUS
 62
     1
 10
1741.146673549
 20
476.65
 40
2.0
 50
180.0
 51
359.999922725
  0
ARC
  8
4
  6
CONTINUOUS
 62
     1
 10
1741.146673549
 20
502.65
 40
2.0
 50
359.999922725
 51
180.0
  0
LINE
  8
4
  6
CONTINUOUS
 62
     1
 10
1743.146673549
 20
476.649997303
 11
1743.146673549
 21
502.649997303
  0
LINE
  8
4
  6
CONTINUOUS
 62
     1
 10
1739.146673549
 20
476.65
 11
1739.146673549
 21
502.65
  0
ARC
  8
4
  6
CONTINUOUS
 62
     1
 10
1747.646673549
 20
476.65
 40
2.0
 50
180.0
 51
359.999922725
  0
ARC
  8
4
  6
CONTINUOUS
 62
     1
 10
1747.646673549
 20
502.65
 40
2.0
 50
359.999922725
 51
180.0
  0
LINE
  8
4
  6
CONTINUOUS
 62
     1
 10
1749.646673549
 20
476.649997303
 11
1749.646673549
 21
502.649997303
  0
LINE
  8
4
  6
CONTINUOUS
 62
     1
 10
1745.646673549
 20
476.65
 11
1745.646673549
 21
502.65
  0
ARC
  8
4
  6
CONTINUOUS
 62
     1
 10
1754.146673549
 20
476.65
 40
2.0
 50
180.0
 51
359.999922725
  0
ARC
  8
4
  6
CONTINUOUS
 62
     1
 10
1754.146673549
 20
502.65
 40
2.0
 50
359.999922725
 51
180.0
  0
LINE
  8
4
  6
CONTINUOUS
 62
     1
 10
1756.146673549
 20
476.649997303
 11
1756.146673549
 21
502.649997303
  0
LINE
  8
4
  6
CONTINUOUS
 62
     1
 10
1752.146673549
 20
476.65
 11
1752.146673549
 21
502.65
  0
ARC
  8
4
  6
CONTINUOUS
 62
     1
 10
1760.646673549
 20
476.65
 40
2.0
 50
180.0
 51
359.999922725
  0
ARC
  8
4
  6
CONTINUOUS
 62
     1
 10
1760.646673549
 20
502.65
 40
2.0
 50
359.999922725
 51
180.0
  0
LINE
  8
4
  6
CONTINUOUS
 62
     1
 10
1762.646673549
 20
476.649997303
 11
1762.646673549
 21
502.649997303
  0
LINE
  8
4
  6
CONTINUOUS
 62
     1
 10
1758.646673549
 20
476.65
 11
1758.646673549
 21
502.65
  0
ARC
  8
4
  6
CONTINUOUS
 62
     1
 10
1767.146673549
 20
476.65
 40
2.0
 50
180.0
 51
359.999922725
  0
ARC
  8
4
  6
CONTINUOUS
 62
     1
 10
1767.146673549
 20
502.65
 40
2.0
 50
359.999922725
 51
180.0
  0
LINE
  8
4
  6
CONTINUOUS
 62
     1
 10
1769.146673549
 20
476.649997303
 11
1769.146673549
 21
502.649997303
  0
LINE
  8
4
  6
CONTINUOUS
 62
     1
 10
1765.146673549
 20
476.65
 11
1765.146673549
 21
502.65
  0
ARC
  8
4
  6
CONTINUOUS
 62
     1
 10
1773.646673549
 20
476.65
 40
2.0
 50
180.0
 51
359.999922725
  0
ARC
  8
4
  6
CONTINUOUS
 62
     1
 10
1773.646673549
 20
502.65
 40
2.0
 50
359.999922725
 51
180.0
  0
LINE
  8
4
  6
CONTINUOUS
 62
     1
 10
1775.646673549
 20
476.649997303
 11
1775.646673549
 21
502.649997303
  0
LINE
  8
4
  6
CONTINUOUS
 62
     1
 10
1771.646673549
 20
476.65
 11
1771.646673549
 21
502.65
  0
ARC
  8
4
  6
CONTINUOUS
 62
     1
 10
1780.146673549
 20
476.65
 40
2.0
 50
180.0
 51
359.999922725
  0
ARC
  8
4
  6
CONTINUOUS
 62
     1
 10
1780.146673549
 20
502.65
 40
2.0
 50
359.999922725
 51
180.0
  0
LINE
  8
4
  6
CONTINUOUS
 62
     1
 10
1782.146673549
 20
476.649997303
 11
1782.146673549
 21
502.649997303
  0
LINE
  8
4
  6
CONTINUOUS
 62
     1
 10
1778.146673549
 20
476.65
 11
1778.146673549
 21
502.65
  0
ARC
  8
4
  6
CONTINUOUS
 62
     1
 10
1786.646673549
 20
476.65
 40
2.0
 50
180.0
 51
359.999922725
  0
ARC
  8
4
  6
CONTINUOUS
 62
     1
 10
1786.646673549
 20
502.65
 40
2.0
 50
359.999922725
 51
180.0
  0
LINE
  8
4
  6
CONTINUOUS
 62
     1
 10
1788.646673549
 20
476.649997303
 11
1788.646673549
 21
502.649997303
  0
LINE
  8
4
  6
CONTINUOUS
 62
     1
 10
1784.646673549
 20
476.65
 11
1784.646673549
 21
502.65
  0
ARC
  8
4
  6
CONTINUOUS
 62
     1
 10
1793.146673549
 20
476.65
 40
2.0
 50
180.0
 51
359.999922725
  0
ARC
  8
4
  6
CONTINUOUS
 62
     1
 10
1793.146673549
 20
502.65
 40
2.0
 50
359.999922725
 51
180.0
  0
LINE
  8
4
  6
CONTINUOUS
 62
     1
 10
1795.146673549
 20
476.649997303
 11
1795.146673549
 21
502.649997303
  0
LINE
  8
4
  6
CONTINUOUS
 62
     1
 10
1791.146673549
 20
476.65
 11
1791.146673549
 21
502.65
  0
ARC
  8
4
  6
CONTINUOUS
 62
     1
 10
1799.646673549
 20
476.65
 40
2.0
 50
180.0
 51
359.999922725
  0
ARC
  8
4
  6
CONTINUOUS
 62
     1
 10
1799.646673549
 20
502.65
 40
2.0
 50
359.999922725
 51
180.0
  0
LINE
  8
4
  6
CONTINUOUS
 62
     1
 10
1801.646673549
 20
476.649997303
 11
1801.646673549
 21
502.649997303
  0
LINE
  8
4
  6
CONTINUOUS
 62
     1
 10
1797.646673549
 20
476.65
 11
1797.646673549
 21
502.65
  0
ARC
  8
4
  6
CONTINUOUS
 62
     1
 10
1806.146673549
 20
476.65
 40
2.0
 50
180.0
 51
359.999922725
  0
ARC
  8
4
  6
CONTINUOUS
 62
     1
 10
1806.146673549
 20
502.65
 40
2.0
 50
359.999922725
 51
180.0
  0
LINE
  8
4
  6
CONTINUOUS
 62
     1
 10
1808.146673549
 20
476.649997303
 11
1808.146673549
 21
502.649997303
  0
LINE
  8
4
  6
CONTINUOUS
 62
     1
 10
1804.146673549
 20
476.65
 11
1804.146673549
 21
502.65
  0
ARC
  8
4
  6
CONTINUOUS
 62
     1
 10
1812.646673549
 20
476.65
 40
2.0
 50
180.0
 51
359.999922725
  0
ARC
  8
4
  6
CONTINUOUS
 62
     1
 10
1812.646673549
 20
502.65
 40
2.0
 50
359.999922725
 51
180.0
  0
LINE
  8
4
  6
CONTINUOUS
 62
     1
 10
1814.646673549
 20
476.649997303
 11
1814.646673549
 21
502.649997303
  0
LINE
  8
4
  6
CONTINUOUS
 62
     1
 10
1810.646673549
 20
476.65
 11
1810.646673549
 21
502.65
  0
ARC
  8
4
  6
CONTINUOUS
 62
     1
 10
1819.146673549
 20
476.65
 40
2.0
 50
180.0
 51
359.999922725
  0
ARC
  8
4
  6
CONTINUOUS
 62
     1
 10
1819.146673549
 20
502.65
 40
2.0
 50
359.999922725
 51
180.0
  0
LINE
  8
4
  6
CONTINUOUS
 62
     1
 10
1821.146673549
 20
476.649997303
 11
1821.146673549
 21
502.649997303
  0
LINE
  8
4
  6
CONTINUOUS
 62
     1
 10
1817.146673549
 20
476.65
 11
1817.146673549
 21
502.65
  0
ARC
  8
4
  6
CONTINUOUS
 62
     1
 10
1825.646673549
 20
476.65
 40
2.0
 50
180.0
 51
359.999922725
  0
ARC
  8
4
  6
CONTINUOUS
 62
     1
 10
1825.646673549
 20
502.65
 40
2.0
 50
359.999922725
 51
180.0
  0
LINE
  8
4
  6
CONTINUOUS
 62
     1
 10
1827.646673549
 20
476.649997303
 11
1827.646673549
 21
502.649997303
  0
LINE
  8
4
  6
CONTINUOUS
 62
     1
 10
1823.646673549
 20
476.65
 11
1823.646673549
 21
502.65
  0
ARC
  8
4
  6
CONTINUOUS
 62
     1
 10
1832.146673549
 20
476.65
 40
2.0
 50
180.0
 51
359.999922725
  0
ARC
  8
4
  6
CONTINUOUS
 62
     1
 10
1832.146673549
 20
502.65
 40
2.0
 50
359.999922725
 51
180.0
  0
LINE
  8
4
  6
CONTINUOUS
 62
     1
 10
1834.146673549
 20
476.649997303
 11
1834.146673549
 21
502.649997303
  0
LINE
  8
4
  6
CONTINUOUS
 62
     1
 10
1830.146673549
 20
476.65
 11
1830.146673549
 21
502.65
  0
ARC
  8
4
  6
CONTINUOUS
 62
     1
 10
1838.646673549
 20
476.65
 40
2.0
 50
180.0
 51
359.999922725
  0
ARC
  8
4
  6
CONTINUOUS
 62
     1
 10
1838.646673549
 20
502.65
 40
2.0
 50
359.999922725
 51
180.0
  0
LINE
  8
4
  6
CONTINUOUS
 62
     1
 10
1840.646673549
 20
476.649997303
 11
1840.646673549
 21
502.649997303
  0
LINE
  8
4
  6
CONTINUOUS
 62
     1
 10
1836.646673549
 20
476.65
 11
1836.646673549
 21
502.65
  0
ARC
  8
4
  6
CONTINUOUS
 62
     1
 10
1845.146673549
 20
476.65
 40
2.0
 50
180.0
 51
359.999922725
  0
ARC
  8
4
  6
CONTINUOUS
 62
     1
 10
1845.146673549
 20
502.65
 40
2.0
 50
359.999922725
 51
180.0
  0
LINE
  8
4
  6
CONTINUOUS
 62
     1
 10
1847.146673549
 20
476.649997303
 11
1847.146673549
 21
502.649997303
  0
LINE
  8
4
  6
CONTINUOUS
 62
     1
 10
1843.146673549
 20
476.65
 11
1843.146673549
 21
502.65
  0
ARC
  8
4
  6
CONTINUOUS
 62
     1
 10
1851.646673549
 20
476.65
 40
2.0
 50
180.0
 51
359.999922725
  0
ARC
  8
4
  6
CONTINUOUS
 62
     1
 10
1851.646673549
 20
502.65
 40
2.0
 50
359.999922725
 51
180.0
  0
LINE
  8
4
  6
CONTINUOUS
 62
     1
 10
1853.646673549
 20
476.649997303
 11
1853.646673549
 21
502.649997303
  0
LINE
  8
4
  6
CONTINUOUS
 62
     1
 10
1849.646673549
 20
476.65
 11
1849.646673549
 21
502.65
  0
ARC
  8
4
  6
CONTINUOUS
 62
     1
 10
1858.146673549
 20
476.65
 40
2.0
 50
180.0
 51
359.999922725
  0
ARC
  8
4
  6
CONTINUOUS
 62
     1
 10
1858.146673549
 20
502.65
 40
2.0
 50
359.999922725
 51
180.0
  0
LINE
  8
4
  6
CONTINUOUS
 62
     1
 10
1860.146673549
 20
476.649997303
 11
1860.146673549
 21
502.649997303
  0
LINE
  8
4
  6
CONTINUOUS
 62
     1
 10
1856.146673549
 20
476.65
 11
1856.146673549
 21
502.65
  0
ARC
  8
4
  6
CONTINUOUS
 62
     1
 10
1468.146673549
 20
476.65
 40
2.0
 50
180.0
 51
359.999922725
  0
ARC
  8
4
  6
CONTINUOUS
 62
     1
 10
1468.146673549
 20
502.65
 40
2.0
 50
359.999922725
 51
180.0
  0
LINE
  8
4
  6
CONTINUOUS
 62
     1
 10
1470.146673549
 20
476.649997303
 11
1470.146673549
 21
502.649997303
  0
LINE
  8
4
  6
CONTINUOUS
 62
     1
 10
1466.146673549
 20
476.65
 11
1466.146673549
 21
502.65
  0
ARC
  8
4
  6
CONTINUOUS
 62
     1
 10
1461.646673549
 20
476.65
 40
2.0
 50
180.0
 51
359.999922725
  0
ARC
  8
4
  6
CONTINUOUS
 62
     1
 10
1461.646673549
 20
502.65
 40
2.0
 50
359.999922725
 51
180.0
  0
LINE
  8
4
  6
CONTINUOUS
 62
     1
 10
1463.646673549
 20
476.649997303
 11
1463.646673549
 21
502.649997303
  0
LINE
  8
4
  6
CONTINUOUS
 62
     1
 10
1459.646673549
 20
476.65
 11
1459.646673549
 21
502.65
  0
ARC
  8
4
  6
CONTINUOUS
 62
     1
 10
1864.646673549
 20
476.65
 40
2.0
 50
180.0
 51
359.999922725
  0
ARC
  8
4
  6
CONTINUOUS
 62
     1
 10
1864.646673549
 20
502.65
 40
2.0
 50
359.999922725
 51
180.0
  0
LINE
  8
4
  6
CONTINUOUS
 62
     1
 10
1866.646673549
 20
476.649997303
 11
1866.646673549
 21
502.649997303
  0
LINE
  8
4
  6
CONTINUOUS
 62
     1
 10
1862.646673549
 20
476.65
 11
1862.646673549
 21
502.65
  0
ARC
  8
4
  6
CONTINUOUS
 62
     1
 10
1871.146673549
 20
476.65
 40
2.0
 50
180.0
 51
359.999922725
  0
ARC
  8
4
  6
CONTINUOUS
 62
     1
 10
1871.146673549
 20
502.65
 40
2.0
 50
359.999922725
 51
180.0
  0
LINE
  8
4
  6
CONTINUOUS
 62
     1
 10
1873.146673549
 20
476.649997303
 11
1873.146673549
 21
502.649997303
  0
LINE
  8
4
  6
CONTINUOUS
 62
     1
 10
1869.146673549
 20
476.65
 11
1869.146673549
 21
502.65
  0
ARC
  8
4
  6
CONTINUOUS
 62
     1
 10
1431.096673549
 20
505.5
 40
6.0
 50
90.0
 51
180.0
  0
LINE
  8
4
  6
CONTINUOUS
 62
     1
 10
1425.096673549
 20
473.8
 11
1425.096673549
 21
505.5
  0
ARC
  8
4
  6
CONTINUOUS
 62
     1
 10
1431.096673549
 20
473.8
 40
6.0
 50
180.0
 51
270.0
  0
LINE
  8
4
  6
CONTINUOUS
 62
     1
 10
1431.096673549
 20
511.5
 11
1901.696673549
 21
511.5
  0
ARC
  8
4
  6
CONTINUOUS
 62
     1
 10
1901.696673549
 20
505.5
 40
6.0
 50
0.0
 51
90.0
  0
LINE
  8
4
  6
CONTINUOUS
 62
     1
 10
1901.696673549
 20
467.8
 11
1431.096673549
 21
467.8
  0
LINE
  8
4
  6
CONTINUOUS
 62
     1
 10
1907.696673549
 20
505.5
 11
1907.696673549
 21
473.8
  0
ARC
  8
4
  6
CONTINUOUS
 62
     1
 10
1901.696673549
 20
473.8
 40
6.0
 50
270.0
 51
0.0
  0
CIRCLE
  8
4
  6
CONTINUOUS
 62
     1
 10
603.459073883
 20
429.299999667
 40
2.6
  0
CIRCLE
  8
4
  6
CONTINUOUS
 62
     1
 10
138.334273883
 20
429.299999667
 40
2.6
  0
LINE
  8
4
  6
CONTINUOUS
 62
     1
 10
120.896673883
 20
423.399999667
 11
620.896673883
 21
423.399999667
  0
CIRCLE
  8
4
  6
CONTINUOUS
 62
     1
 10
603.459073883
 20
461.099999667
 40
2.6
  0
CIRCLE
  8
4
  6
CONTINUOUS
 62
     1
 10
138.334273883
 20
461.099999667
 40
2.6
  0
ARC
  8
4
  6
CONTINUOUS
 62
     1
 10
367.646673883
 20
432.249999667
 40
2.0
 50
180.0
 51
359.999922725
  0
ARC
  8
4
  6
CONTINUOUS
 62
     1
 10
367.646673883
 20
458.249999667
 40
2.0
 50
359.999922725
 51
180.0
  0
LINE
  8
4
  6
CONTINUOUS
 62
     1
 10
369.646673883
 20
432.249996969
 11
369.646673883
 21
458.249996969
  0
LINE
  8
4
  6
CONTINUOUS
 62
     1
 10
365.646673883
 20
432.249999667
 11
365.646673883
 21
458.249999667
  0
ARC
  8
4
  6
CONTINUOUS
 62
     1
 10
361.146673883
 20
432.249999667
 40
2.0
 50
180.0
 51
359.999922725
  0
ARC
  8
4
  6
CONTINUOUS
 62
     1
 10
361.146673883
 20
458.249999667
 40
2.0
 50
359.999922725
 51
180.0
  0
LINE
  8
4
  6
CONTINUOUS
 62
     1
 10
363.146673883
 20
432.249996969
 11
363.146673883
 21
458.249996969
  0
LINE
  8
4
  6
CONTINUOUS
 62
     1
 10
359.146673883
 20
432.249999667
 11
359.146673883
 21
458.249999667
  0
ARC
  8
4
  6
CONTINUOUS
 62
     1
 10
354.646673883
 20
432.249999667
 40
2.0
 50
180.0
 51
359.999922725
  0
ARC
  8
4
  6
CONTINUOUS
 62
     1
 10
354.646673883
 20
458.249999667
 40
2.0
 50
359.999922725
 51
180.0
  0
LINE
  8
4
  6
CONTINUOUS
 62
     1
 10
356.646673883
 20
432.249996969
 11
356.646673883
 21
458.249996969
  0
LINE
  8
4
  6
CONTINUOUS
 62
     1
 10
352.646673883
 20
432.249999667
 11
352.646673883
 21
458.249999667
  0
ARC
  8
4
  6
CONTINUOUS
 62
     1
 10
348.146673883
 20
432.249999667
 40
2.0
 50
180.0
 51
359.999922725
  0
ARC
  8
4
  6
CONTINUOUS
 62
     1
 10
348.146673883
 20
458.249999667
 40
2.0
 50
359.999922725
 51
180.0
  0
LINE
  8
4
  6
CONTINUOUS
 62
     1
 10
350.146673883
 20
432.249996969
 11
350.146673883
 21
458.249996969
  0
LINE
  8
4
  6
CONTINUOUS
 62
     1
 10
346.146673883
 20
432.249999667
 11
346.146673883
 21
458.249999667
  0
ARC
  8
4
  6
CONTINUOUS
 62
     1
 10
341.646673883
 20
432.249999667
 40
2.0
 50
180.0
 51
359.999922725
  0
ARC
  8
4
  6
CONTINUOUS
 62
     1
 10
341.646673883
 20
458.249999667
 40
2.0
 50
359.999922725
 51
180.0
  0
LINE
  8
4
  6
CONTINUOUS
 62
     1
 10
343.646673883
 20
432.249996969
 11
343.646673883
 21
458.249996969
  0
LINE
  8
4
  6
CONTINUOUS
 62
     1
 10
339.646673883
 20
432.249999667
 11
339.646673883
 21
458.249999667
  0
ARC
  8
4
  6
CONTINUOUS
 62
     1
 10
335.146673883
 20
432.249999667
 40
2.0
 50
180.0
 51
359.999922725
  0
ARC
  8
4
  6
CONTINUOUS
 62
     1
 10
335.146673883
 20
458.249999667
 40
2.0
 50
359.999922725
 51
180.0
  0
LINE
  8
4
  6
CONTINUOUS
 62
     1
 10
337.146673883
 20
432.249996969
 11
337.146673883
 21
458.249996969
  0
LINE
  8
4
  6
CONTINUOUS
 62
     1
 10
333.146673883
 20
432.249999667
 11
333.146673883
 21
458.249999667
  0
ARC
  8
4
  6
CONTINUOUS
 62
     1
 10
328.646673883
 20
432.249999667
 40
2.0
 50
180.0
 51
359.999922725
  0
ARC
  8
4
  6
CONTINUOUS
 62
     1
 10
328.646673883
 20
458.249999667
 40
2.0
 50
359.999922725
 51
180.0
  0
LINE
  8
4
  6
CONTINUOUS
 62
     1
 10
330.646673883
 20
432.249996969
 11
330.646673883
 21
458.249996969
  0
LINE
  8
4
  6
CONTINUOUS
 62
     1
 10
326.646673883
 20
432.249999667
 11
326.646673883
 21
458.249999667
  0
ARC
  8
4
  6
CONTINUOUS
 62
     1
 10
322.146673883
 20
432.249999667
 40
2.0
 50
180.0
 51
359.999922725
  0
ARC
  8
4
  6
CONTINUOUS
 62
     1
 10
322.146673883
 20
458.249999667
 40
2.0
 50
359.999922725
 51
180.0
  0
LINE
  8
4
  6
CONTINUOUS
 62
     1
 10
324.146673883
 20
432.249996969
 11
324.146673883
 21
458.249996969
  0
LINE
  8
4
  6
CONTINUOUS
 62
     1
 10
320.146673883
 20
432.249999667
 11
320.146673883
 21
458.249999667
  0
ARC
  8
4
  6
CONTINUOUS
 62
     1
 10
315.646673883
 20
432.249999667
 40
2.0
 50
180.0
 51
359.999922725
  0
ARC
  8
4
  6
CONTINUOUS
 62
     1
 10
315.646673883
 20
458.249999667
 40
2.0
 50
359.999922725
 51
180.0
  0
LINE
  8
4
  6
CONTINUOUS
 62
     1
 10
317.646673883
 20
432.249996969
 11
317.646673883
 21
458.249996969
  0
LINE
  8
4
  6
CONTINUOUS
 62
     1
 10
313.646673883
 20
432.249999667
 11
313.646673883
 21
458.249999667
  0
ARC
  8
4
  6
CONTINUOUS
 62
     1
 10
309.146673883
 20
432.249999667
 40
2.0
 50
180.0
 51
359.999922725
  0
ARC
  8
4
  6
CONTINUOUS
 62
     1
 10
309.146673883
 20
458.249999667
 40
2.0
 50
359.999922725
 51
180.0
  0
LINE
  8
4
  6
CONTINUOUS
 62
     1
 10
311.146673883
 20
432.249996969
 11
311.146673883
 21
458.249996969
  0
LINE
  8
4
  6
CONTINUOUS
 62
     1
 10
307.146673883
 20
432.249999667
 11
307.146673883
 21
458.249999667
  0
ARC
  8
4
  6
CONTINUOUS
 62
     1
 10
302.646673883
 20
432.249999667
 40
2.0
 50
180.0
 51
359.999922725
  0
ARC
  8
4
  6
CONTINUOUS
 62
     1
 10
302.646673883
 20
458.249999667
 40
2.0
 50
359.999922725
 51
180.0
  0
LINE
  8
4
  6
CONTINUOUS
 62
     1
 10
304.646673883
 20
432.249996969
 11
304.646673883
 21
458.249996969
  0
LINE
  8
4
  6
CONTINUOUS
 62
     1
 10
300.646673883
 20
432.249999667
 11
300.646673883
 21
458.249999667
  0
ARC
  8
4
  6
CONTINUOUS
 62
     1
 10
296.146673883
 20
432.249999667
 40
2.0
 50
180.0
 51
359.999922725
  0
ARC
  8
4
  6
CONTINUOUS
 62
     1
 10
296.146673883
 20
458.249999667
 40
2.0
 50
359.999922725
 51
180.0
  0
LINE
  8
4
  6
CONTINUOUS
 62
     1
 10
298.146673883
 20
432.249996969
 11
298.146673883
 21
458.249996969
  0
LINE
  8
4
  6
CONTINUOUS
 62
     1
 10
294.146673883
 20
432.249999667
 11
294.146673883
 21
458.249999667
  0
ARC
  8
4
  6
CONTINUOUS
 62
     1
 10
289.646673883
 20
432.249999667
 40
2.0
 50
180.0
 51
359.999922725
  0
ARC
  8
4
  6
CONTINUOUS
 62
     1
 10
289.646673883
 20
458.249999667
 40
2.0
 50
359.999922725
 51
180.0
  0
LINE
  8
4
  6
CONTINUOUS
 62
     1
 10
291.646673883
 20
432.249996969
 11
291.646673883
 21
458.249996969
  0
LINE
  8
4
  6
CONTINUOUS
 62
     1
 10
287.646673883
 20
432.249999667
 11
287.646673883
 21
458.249999667
  0
ARC
  8
4
  6
CONTINUOUS
 62
     1
 10
283.146673883
 20
432.249999667
 40
2.0
 50
180.0
 51
359.999922725
  0
ARC
  8
4
  6
CONTINUOUS
 62
     1
 10
283.146673883
 20
458.249999667
 40
2.0
 50
359.999922725
 51
180.0
  0
LINE
  8
4
  6
CONTINUOUS
 62
     1
 10
285.146673883
 20
432.249996969
 11
285.146673883
 21
458.249996969
  0
LINE
  8
4
  6
CONTINUOUS
 62
     1
 10
281.146673883
 20
432.249999667
 11
281.146673883
 21
458.249999667
  0
ARC
  8
4
  6
CONTINUOUS
 62
     1
 10
276.646673883
 20
432.249999667
 40
2.0
 50
180.0
 51
359.999922725
  0
ARC
  8
4
  6
CONTINUOUS
 62
     1
 10
276.646673883
 20
458.249999667
 40
2.0
 50
359.999922725
 51
180.0
  0
LINE
  8
4
  6
CONTINUOUS
 62
     1
 10
278.646673883
 20
432.249996969
 11
278.646673883
 21
458.249996969
  0
LINE
  8
4
  6
CONTINUOUS
 62
     1
 10
274.646673883
 20
432.249999667
 11
274.646673883
 21
458.249999667
  0
ARC
  8
4
  6
CONTINUOUS
 62
     1
 10
270.146673883
 20
432.249999667
 40
2.0
 50
180.0
 51
359.999922725
  0
ARC
  8
4
  6
CONTINUOUS
 62
     1
 10
270.146673883
 20
458.249999667
 40
2.0
 50
359.999922725
 51
180.0
  0
LINE
  8
4
  6
CONTINUOUS
 62
     1
 10
272.146673883
 20
432.249996969
 11
272.146673883
 21
458.249996969
  0
LINE
  8
4
  6
CONTINUOUS
 62
     1
 10
268.146673883
 20
432.249999667
 11
268.146673883
 21
458.249999667
  0
ARC
  8
4
  6
CONTINUOUS
 62
     1
 10
263.646673883
 20
432.249999667
 40
2.0
 50
180.0
 51
359.999922725
  0
ARC
  8
4
  6
CONTINUOUS
 62
     1
 10
263.646673883
 20
458.249999667
 40
2.0
 50
359.999922725
 51
180.0
  0
LINE
  8
4
  6
CONTINUOUS
 62
     1
 10
265.646673883
 20
432.249996969
 11
265.646673883
 21
458.249996969
  0
LINE
  8
4
  6
CONTINUOUS
 62
     1
 10
261.646673883
 20
432.249999667
 11
261.646673883
 21
458.249999667
  0
ARC
  8
4
  6
CONTINUOUS
 62
     1
 10
257.146673883
 20
432.249999667
 40
2.0
 50
180.0
 51
359.999922725
  0
ARC
  8
4
  6
CONTINUOUS
 62
     1
 10
257.146673883
 20
458.249999667
 40
2.0
 50
359.999922725
 51
180.0
  0
LINE
  8
4
  6
CONTINUOUS
 62
     1
 10
259.146673883
 20
432.249996969
 11
259.146673883
 21
458.249996969
  0
LINE
  8
4
  6
CONTINUOUS
 62
     1
 10
255.146673883
 20
432.249999667
 11
255.146673883
 21
458.249999667
  0
ARC
  8
4
  6
CONTINUOUS
 62
     1
 10
250.646673883
 20
432.249999667
 40
2.0
 50
180.0
 51
359.999922725
  0
ARC
  8
4
  6
CONTINUOUS
 62
     1
 10
250.646673883
 20
458.249999667
 40
2.0
 50
359.999922725
 51
180.0
  0
LINE
  8
4
  6
CONTINUOUS
 62
     1
 10
252.646673883
 20
432.249996969
 11
252.646673883
 21
458.249996969
  0
LINE
  8
4
  6
CONTINUOUS
 62
     1
 10
248.646673883
 20
432.249999667
 11
248.646673883
 21
458.249999667
  0
ARC
  8
4
  6
CONTINUOUS
 62
     1
 10
244.146673883
 20
432.249999667
 40
2.0
 50
180.0
 51
359.999922725
  0
ARC
  8
4
  6
CONTINUOUS
 62
     1
 10
244.146673883
 20
458.249999667
 40
2.0
 50
359.999922725
 51
180.0
  0
LINE
  8
4
  6
CONTINUOUS
 62
     1
 10
246.146673883
 20
432.249996969
 11
246.146673883
 21
458.249996969
  0
LINE
  8
4
  6
CONTINUOUS
 62
     1
 10
242.146673883
 20
432.249999667
 11
242.146673883
 21
458.249999667
  0
ARC
  8
4
  6
CONTINUOUS
 62
     1
 10
237.646673883
 20
432.249999667
 40
2.0
 50
180.0
 51
359.999922725
  0
ARC
  8
4
  6
CONTINUOUS
 62
     1
 10
237.646673883
 20
458.249999667
 40
2.0
 50
359.999922725
 51
180.0
  0
LINE
  8
4
  6
CONTINUOUS
 62
     1
 10
239.646673883
 20
432.249996969
 11
239.646673883
 21
458.249996969
  0
LINE
  8
4
  6
CONTINUOUS
 62
     1
 10
235.646673883
 20
432.249999667
 11
235.646673883
 21
458.249999667
  0
ARC
  8
4
  6
CONTINUOUS
 62
     1
 10
231.146673883
 20
432.249999667
 40
2.0
 50
180.0
 51
359.999922725
  0
ARC
  8
4
  6
CONTINUOUS
 62
     1
 10
231.146673883
 20
458.249999667
 40
2.0
 50
359.999922725
 51
180.0
  0
LINE
  8
4
  6
CONTINUOUS
 62
     1
 10
233.146673883
 20
432.249996969
 11
233.146673883
 21
458.249996969
  0
LINE
  8
4
  6
CONTINUOUS
 62
     1
 10
229.146673883
 20
432.249999667
 11
229.146673883
 21
458.249999667
  0
ARC
  8
4
  6
CONTINUOUS
 62
     1
 10
224.646673883
 20
432.249999667
 40
2.0
 50
180.0
 51
359.999922725
  0
ARC
  8
4
  6
CONTINUOUS
 62
     1
 10
224.646673883
 20
458.249999667
 40
2.0
 50
359.999922725
 51
180.0
  0
LINE
  8
4
  6
CONTINUOUS
 62
     1
 10
226.646673883
 20
432.249996969
 11
226.646673883
 21
458.249996969
  0
LINE
  8
4
  6
CONTINUOUS
 62
     1
 10
222.646673883
 20
432.249999667
 11
222.646673883
 21
458.249999667
  0
ARC
  8
4
  6
CONTINUOUS
 62
     1
 10
218.146673883
 20
432.249999667
 40
2.0
 50
180.0
 51
359.999922725
  0
ARC
  8
4
  6
CONTINUOUS
 62
     1
 10
218.146673883
 20
458.249999667
 40
2.0
 50
359.999922725
 51
180.0
  0
LINE
  8
4
  6
CONTINUOUS
 62
     1
 10
220.146673883
 20
432.249996969
 11
220.146673883
 21
458.249996969
  0
LINE
  8
4
  6
CONTINUOUS
 62
     1
 10
216.146673883
 20
432.249999667
 11
216.146673883
 21
458.249999667
  0
ARC
  8
4
  6
CONTINUOUS
 62
     1
 10
211.646673883
 20
432.249999667
 40
2.0
 50
180.0
 51
359.999922725
  0
ARC
  8
4
  6
CONTINUOUS
 62
     1
 10
211.646673883
 20
458.249999667
 40
2.0
 50
359.999922725
 51
180.0
  0
LINE
  8
4
  6
CONTINUOUS
 62
     1
 10
213.646673883
 20
432.249996969
 11
213.646673883
 21
458.249996969
  0
LINE
  8
4
  6
CONTINUOUS
 62
     1
 10
209.646673883
 20
432.249999667
 11
209.646673883
 21
458.249999667
  0
ARC
  8
4
  6
CONTINUOUS
 62
     1
 10
205.146673883
 20
432.249999667
 40
2.0
 50
180.0
 51
359.999922725
  0
ARC
  8
4
  6
CONTINUOUS
 62
     1
 10
205.146673883
 20
458.249999667
 40
2.0
 50
359.999922725
 51
180.0
  0
LINE
  8
4
  6
CONTINUOUS
 62
     1
 10
207.146673883
 20
432.249996969
 11
207.146673883
 21
458.249996969
  0
LINE
  8
4
  6
CONTINUOUS
 62
     1
 10
203.146673883
 20
432.249999667
 11
203.146673883
 21
458.249999667
  0
ARC
  8
4
  6
CONTINUOUS
 62
     1
 10
198.646673883
 20
432.249999667
 40
2.0
 50
180.0
 51
359.999922725
  0
ARC
  8
4
  6
CONTINUOUS
 62
     1
 10
198.646673883
 20
458.249999667
 40
2.0
 50
359.999922725
 51
180.0
  0
LINE
  8
4
  6
CONTINUOUS
 62
     1
 10
200.646673883
 20
432.249996969
 11
200.646673883
 21
458.249996969
  0
LINE
  8
4
  6
CONTINUOUS
 62
     1
 10
196.646673883
 20
432.249999667
 11
196.646673883
 21
458.249999667
  0
ARC
  8
4
  6
CONTINUOUS
 62
     1
 10
192.146673883
 20
432.249999667
 40
2.0
 50
180.0
 51
359.999922725
  0
ARC
  8
4
  6
CONTINUOUS
 62
     1
 10
192.146673883
 20
458.249999667
 40
2.0
 50
359.999922725
 51
180.0
  0
LINE
  8
4
  6
CONTINUOUS
 62
     1
 10
194.146673883
 20
432.249996969
 11
194.146673883
 21
458.249996969
  0
LINE
  8
4
  6
CONTINUOUS
 62
     1
 10
190.146673883
 20
432.249999667
 11
190.146673883
 21
458.249999667
  0
ARC
  8
4
  6
CONTINUOUS
 62
     1
 10
185.646673883
 20
432.249999667
 40
2.0
 50
180.0
 51
359.999922725
  0
ARC
  8
4
  6
CONTINUOUS
 62
     1
 10
185.646673883
 20
458.249999667
 40
2.0
 50
359.999922725
 51
180.0
  0
LINE
  8
4
  6
CONTINUOUS
 62
     1
 10
187.646673883
 20
432.249996969
 11
187.646673883
 21
458.249996969
  0
LINE
  8
4
  6
CONTINUOUS
 62
     1
 10
183.646673883
 20
432.249999667
 11
183.646673883
 21
458.249999667
  0
ARC
  8
4
  6
CONTINUOUS
 62
     1
 10
179.146673883
 20
432.249999667
 40
2.0
 50
180.0
 51
359.999922725
  0
ARC
  8
4
  6
CONTINUOUS
 62
     1
 10
179.146673883
 20
458.249999667
 40
2.0
 50
359.999922725
 51
180.0
  0
LINE
  8
4
  6
CONTINUOUS
 62
     1
 10
181.146673883
 20
432.249996969
 11
181.146673883
 21
458.249996969
  0
LINE
  8
4
  6
CONTINUOUS
 62
     1
 10
177.146673883
 20
432.249999667
 11
177.146673883
 21
458.249999667
  0
ARC
  8
4
  6
CONTINUOUS
 62
     1
 10
374.146673883
 20
432.249999667
 40
2.0
 50
180.0
 51
359.999922725
  0
ARC
  8
4
  6
CONTINUOUS
 62
     1
 10
374.146673883
 20
458.249999667
 40
2.0
 50
359.999922725
 51
180.0
  0
LINE
  8
4
  6
CONTINUOUS
 62
     1
 10
376.146673883
 20
432.249996969
 11
376.146673883
 21
458.249996969
  0
LINE
  8
4
  6
CONTINUOUS
 62
     1
 10
372.146673883
 20
432.249999667
 11
372.146673883
 21
458.249999667
  0
ARC
  8
4
  6
CONTINUOUS
 62
     1
 10
380.646673883
 20
432.249999667
 40
2.0
 50
180.0
 51
359.999922725
  0
ARC
  8
4
  6
CONTINUOUS
 62
     1
 10
380.646673883
 20
458.249999667
 40
2.0
 50
359.999922725
 51
180.0
  0
LINE
  8
4
  6
CONTINUOUS
 62
     1
 10
382.646673883
 20
432.249996969
 11
382.646673883
 21
458.249996969
  0
LINE
  8
4
  6
CONTINUOUS
 62
     1
 10
378.646673883
 20
432.249999667
 11
378.646673883
 21
458.249999667
  0
ARC
  8
4
  6
CONTINUOUS
 62
     1
 10
387.146673883
 20
432.249999667
 40
2.0
 50
180.0
 51
359.999922725
  0
ARC
  8
4
  6
CONTINUOUS
 62
     1
 10
387.146673883
 20
458.249999667
 40
2.0
 50
359.999922725
 51
180.0
  0
LINE
  8
4
  6
CONTINUOUS
 62
     1
 10
389.146673883
 20
432.249996969
 11
389.146673883
 21
458.249996969
  0
LINE
  8
4
  6
CONTINUOUS
 62
     1
 10
385.146673883
 20
432.249999667
 11
385.146673883
 21
458.249999667
  0
ARC
  8
4
  6
CONTINUOUS
 62
     1
 10
393.646673883
 20
432.249999667
 40
2.0
 50
180.0
 51
359.999922725
  0
ARC
  8
4
  6
CONTINUOUS
 62
     1
 10
393.646673883
 20
458.249999667
 40
2.0
 50
359.999922725
 51
180.0
  0
LINE
  8
4
  6
CONTINUOUS
 62
     1
 10
395.646673883
 20
432.249996969
 11
395.646673883
 21
458.249996969
  0
LINE
  8
4
  6
CONTINUOUS
 62
     1
 10
391.646673883
 20
432.249999667
 11
391.646673883
 21
458.249999667
  0
ARC
  8
4
  6
CONTINUOUS
 62
     1
 10
400.146673883
 20
432.249999667
 40
2.0
 50
180.0
 51
359.999922725
  0
ARC
  8
4
  6
CONTINUOUS
 62
     1
 10
400.146673883
 20
458.249999667
 40
2.0
 50
359.999922725
 51
180.0
  0
LINE
  8
4
  6
CONTINUOUS
 62
     1
 10
402.146673883
 20
432.249996969
 11
402.146673883
 21
458.249996969
  0
LINE
  8
4
  6
CONTINUOUS
 62
     1
 10
398.146673883
 20
432.249999667
 11
398.146673883
 21
458.249999667
  0
ARC
  8
4
  6
CONTINUOUS
 62
     1
 10
406.646673883
 20
432.249999667
 40
2.0
 50
180.0
 51
359.999922725
  0
ARC
  8
4
  6
CONTINUOUS
 62
     1
 10
406.646673883
 20
458.249999667
 40
2.0
 50
359.999922725
 51
180.0
  0
LINE
  8
4
  6
CONTINUOUS
 62
     1
 10
408.646673883
 20
432.249996969
 11
408.646673883
 21
458.249996969
  0
LINE
  8
4
  6
CONTINUOUS
 62
     1
 10
404.646673883
 20
432.249999667
 11
404.646673883
 21
458.249999667
  0
ARC
  8
4
  6
CONTINUOUS
 62
     1
 10
413.146673883
 20
432.249999667
 40
2.0
 50
180.0
 51
359.999922725
  0
ARC
  8
4
  6
CONTINUOUS
 62
     1
 10
413.146673883
 20
458.249999667
 40
2.0
 50
359.999922725
 51
180.0
  0
LINE
  8
4
  6
CONTINUOUS
 62
     1
 10
415.146673883
 20
432.249996969
 11
415.146673883
 21
458.249996969
  0
LINE
  8
4
  6
CONTINUOUS
 62
     1
 10
411.146673883
 20
432.249999667
 11
411.146673883
 21
458.249999667
  0
ARC
  8
4
  6
CONTINUOUS
 62
     1
 10
419.646673883
 20
432.249999667
 40
2.0
 50
180.0
 51
359.999922725
  0
ARC
  8
4
  6
CONTINUOUS
 62
     1
 10
419.646673883
 20
458.249999667
 40
2.0
 50
359.999922725
 51
180.0
  0
LINE
  8
4
  6
CONTINUOUS
 62
     1
 10
421.646673883
 20
432.249996969
 11
421.646673883
 21
458.249996969
  0
LINE
  8
4
  6
CONTINUOUS
 62
     1
 10
417.646673883
 20
432.249999667
 11
417.646673883
 21
458.249999667
  0
ARC
  8
4
  6
CONTINUOUS
 62
     1
 10
426.146673883
 20
432.249999667
 40
2.0
 50
180.0
 51
359.999922725
  0
ARC
  8
4
  6
CONTINUOUS
 62
     1
 10
426.146673883
 20
458.249999667
 40
2.0
 50
359.999922725
 51
180.0
  0
LINE
  8
4
  6
CONTINUOUS
 62
     1
 10
428.146673883
 20
432.249996969
 11
428.146673883
 21
458.249996969
  0
LINE
  8
4
  6
CONTINUOUS
 62
     1
 10
424.146673883
 20
432.249999667
 11
424.146673883
 21
458.249999667
  0
ARC
  8
4
  6
CONTINUOUS
 62
     1
 10
432.646673883
 20
432.249999667
 40
2.0
 50
180.0
 51
359.999922725
  0
ARC
  8
4
  6
CONTINUOUS
 62
     1
 10
432.646673883
 20
458.249999667
 40
2.0
 50
359.999922725
 51
180.0
  0
LINE
  8
4
  6
CONTINUOUS
 62
     1
 10
434.646673883
 20
432.249996969
 11
434.646673883
 21
458.249996969
  0
LINE
  8
4
  6
CONTINUOUS
 62
     1
 10
430.646673883
 20
432.249999667
 11
430.646673883
 21
458.249999667
  0
ARC
  8
4
  6
CONTINUOUS
 62
     1
 10
439.146673883
 20
432.249999667
 40
2.0
 50
180.0
 51
359.999922725
  0
ARC
  8
4
  6
CONTINUOUS
 62
     1
 10
439.146673883
 20
458.249999667
 40
2.0
 50
359.999922725
 51
180.0
  0
LINE
  8
4
  6
CONTINUOUS
 62
     1
 10
441.146673883
 20
432.249996969
 11
441.146673883
 21
458.249996969
  0
LINE
  8
4
  6
CONTINUOUS
 62
     1
 10
437.146673883
 20
432.249999667
 11
437.146673883
 21
458.249999667
  0
ARC
  8
4
  6
CONTINUOUS
 62
     1
 10
445.646673883
 20
432.249999667
 40
2.0
 50
180.0
 51
359.999922725
  0
ARC
  8
4
  6
CONTINUOUS
 62
     1
 10
445.646673883
 20
458.249999667
 40
2.0
 50
359.999922725
 51
180.0
  0
LINE
  8
4
  6
CONTINUOUS
 62
     1
 10
447.646673883
 20
432.249996969
 11
447.646673883
 21
458.249996969
  0
LINE
  8
4
  6
CONTINUOUS
 62
     1
 10
443.646673883
 20
432.249999667
 11
443.646673883
 21
458.249999667
  0
ARC
  8
4
  6
CONTINUOUS
 62
     1
 10
452.146673883
 20
432.249999667
 40
2.0
 50
180.0
 51
359.999922725
  0
ARC
  8
4
  6
CONTINUOUS
 62
     1
 10
452.146673883
 20
458.249999667
 40
2.0
 50
359.999922725
 51
180.0
  0
LINE
  8
4
  6
CONTINUOUS
 62
     1
 10
454.146673883
 20
432.249996969
 11
454.146673883
 21
458.249996969
  0
LINE
  8
4
  6
CONTINUOUS
 62
     1
 10
450.146673883
 20
432.249999667
 11
450.146673883
 21
458.249999667
  0
ARC
  8
4
  6
CONTINUOUS
 62
     1
 10
458.646673883
 20
432.249999667
 40
2.0
 50
180.0
 51
359.999922725
  0
ARC
  8
4
  6
CONTINUOUS
 62
     1
 10
458.646673883
 20
458.249999667
 40
2.0
 50
359.999922725
 51
180.0
  0
LINE
  8
4
  6
CONTINUOUS
 62
     1
 10
460.646673883
 20
432.249996969
 11
460.646673883
 21
458.249996969
  0
LINE
  8
4
  6
CONTINUOUS
 62
     1
 10
456.646673883
 20
432.249999667
 11
456.646673883
 21
458.249999667
  0
ARC
  8
4
  6
CONTINUOUS
 62
     1
 10
465.146673883
 20
432.249999667
 40
2.0
 50
180.0
 51
359.999922725
  0
ARC
  8
4
  6
CONTINUOUS
 62
     1
 10
465.146673883
 20
458.249999667
 40
2.0
 50
359.999922725
 51
180.0
  0
LINE
  8
4
  6
CONTINUOUS
 62
     1
 10
467.146673883
 20
432.249996969
 11
467.146673883
 21
458.249996969
  0
LINE
  8
4
  6
CONTINUOUS
 62
     1
 10
463.146673883
 20
432.249999667
 11
463.146673883
 21
458.249999667
  0
ARC
  8
4
  6
CONTINUOUS
 62
     1
 10
471.646673883
 20
432.249999667
 40
2.0
 50
180.0
 51
359.999922725
  0
ARC
  8
4
  6
CONTINUOUS
 62
     1
 10
471.646673883
 20
458.249999667
 40
2.0
 50
359.999922725
 51
180.0
  0
LINE
  8
4
  6
CONTINUOUS
 62
     1
 10
473.646673883
 20
432.249996969
 11
473.646673883
 21
458.249996969
  0
LINE
  8
4
  6
CONTINUOUS
 62
     1
 10
469.646673883
 20
432.249999667
 11
469.646673883
 21
458.249999667
  0
ARC
  8
4
  6
CONTINUOUS
 62
     1
 10
478.146673883
 20
432.249999667
 40
2.0
 50
180.0
 51
359.999922725
  0
ARC
  8
4
  6
CONTINUOUS
 62
     1
 10
478.146673883
 20
458.249999667
 40
2.0
 50
359.999922725
 51
180.0
  0
LINE
  8
4
  6
CONTINUOUS
 62
     1
 10
480.146673883
 20
432.249996969
 11
480.146673883
 21
458.249996969
  0
LINE
  8
4
  6
CONTINUOUS
 62
     1
 10
476.146673883
 20
432.249999667
 11
476.146673883
 21
458.249999667
  0
ARC
  8
4
  6
CONTINUOUS
 62
     1
 10
484.646673883
 20
432.249999667
 40
2.0
 50
180.0
 51
359.999922725
  0
ARC
  8
4
  6
CONTINUOUS
 62
     1
 10
484.646673883
 20
458.249999667
 40
2.0
 50
359.999922725
 51
180.0
  0
LINE
  8
4
  6
CONTINUOUS
 62
     1
 10
486.646673883
 20
432.249996969
 11
486.646673883
 21
458.249996969
  0
LINE
  8
4
  6
CONTINUOUS
 62
     1
 10
482.646673883
 20
432.249999667
 11
482.646673883
 21
458.249999667
  0
ARC
  8
4
  6
CONTINUOUS
 62
     1
 10
491.146673883
 20
432.249999667
 40
2.0
 50
180.0
 51
359.999922725
  0
ARC
  8
4
  6
CONTINUOUS
 62
     1
 10
491.146673883
 20
458.249999667
 40
2.0
 50
359.999922725
 51
180.0
  0
LINE
  8
4
  6
CONTINUOUS
 62
     1
 10
493.146673883
 20
432.249996969
 11
493.146673883
 21
458.249996969
  0
LINE
  8
4
  6
CONTINUOUS
 62
     1
 10
489.146673883
 20
432.249999667
 11
489.146673883
 21
458.249999667
  0
ARC
  8
4
  6
CONTINUOUS
 62
     1
 10
497.646673883
 20
432.249999667
 40
2.0
 50
180.0
 51
359.999922725
  0
ARC
  8
4
  6
CONTINUOUS
 62
     1
 10
497.646673883
 20
458.249999667
 40
2.0
 50
359.999922725
 51
180.0
  0
LINE
  8
4
  6
CONTINUOUS
 62
     1
 10
499.646673883
 20
432.249996969
 11
499.646673883
 21
458.249996969
  0
LINE
  8
4
  6
CONTINUOUS
 62
     1
 10
495.646673883
 20
432.249999667
 11
495.646673883
 21
458.249999667
  0
ARC
  8
4
  6
CONTINUOUS
 62
     1
 10
504.146673883
 20
432.249999667
 40
2.0
 50
180.0
 51
359.999922725
  0
ARC
  8
4
  6
CONTINUOUS
 62
     1
 10
504.146673883
 20
458.249999667
 40
2.0
 50
359.999922725
 51
180.0
  0
LINE
  8
4
  6
CONTINUOUS
 62
     1
 10
506.146673883
 20
432.249996969
 11
506.146673883
 21
458.249996969
  0
LINE
  8
4
  6
CONTINUOUS
 62
     1
 10
502.146673883
 20
432.249999667
 11
502.146673883
 21
458.249999667
  0
ARC
  8
4
  6
CONTINUOUS
 62
     1
 10
510.646673883
 20
432.249999667
 40
2.0
 50
180.0
 51
359.999922725
  0
ARC
  8
4
  6
CONTINUOUS
 62
     1
 10
510.646673883
 20
458.249999667
 40
2.0
 50
359.999922725
 51
180.0
  0
LINE
  8
4
  6
CONTINUOUS
 62
     1
 10
512.646673883
 20
432.249996969
 11
512.646673883
 21
458.249996969
  0
LINE
  8
4
  6
CONTINUOUS
 62
     1
 10
508.646673883
 20
432.249999667
 11
508.646673883
 21
458.249999667
  0
ARC
  8
4
  6
CONTINUOUS
 62
     1
 10
517.146673883
 20
432.249999667
 40
2.0
 50
180.0
 51
359.999922725
  0
ARC
  8
4
  6
CONTINUOUS
 62
     1
 10
517.146673883
 20
458.249999667
 40
2.0
 50
359.999922725
 51
180.0
  0
LINE
  8
4
  6
CONTINUOUS
 62
     1
 10
519.146673883
 20
432.249996969
 11
519.146673883
 21
458.249996969
  0
LINE
  8
4
  6
CONTINUOUS
 62
     1
 10
515.146673883
 20
432.249999667
 11
515.146673883
 21
458.249999667
  0
ARC
  8
4
  6
CONTINUOUS
 62
     1
 10
523.646673883
 20
432.249999667
 40
2.0
 50
180.0
 51
359.999922725
  0
ARC
  8
4
  6
CONTINUOUS
 62
     1
 10
523.646673883
 20
458.249999667
 40
2.0
 50
359.999922725
 51
180.0
  0
LINE
  8
4
  6
CONTINUOUS
 62
     1
 10
525.646673883
 20
432.249996969
 11
525.646673883
 21
458.249996969
  0
LINE
  8
4
  6
CONTINUOUS
 62
     1
 10
521.646673883
 20
432.249999667
 11
521.646673883
 21
458.249999667
  0
ARC
  8
4
  6
CONTINUOUS
 62
     1
 10
530.146673883
 20
432.249999667
 40
2.0
 50
180.0
 51
359.999922725
  0
ARC
  8
4
  6
CONTINUOUS
 62
     1
 10
530.146673883
 20
458.249999667
 40
2.0
 50
359.999922725
 51
180.0
  0
LINE
  8
4
  6
CONTINUOUS
 62
     1
 10
532.146673883
 20
432.249996969
 11
532.146673883
 21
458.249996969
  0
LINE
  8
4
  6
CONTINUOUS
 62
     1
 10
528.146673883
 20
432.249999667
 11
528.146673883
 21
458.249999667
  0
ARC
  8
4
  6
CONTINUOUS
 62
     1
 10
536.646673883
 20
432.249999667
 40
2.0
 50
180.0
 51
359.999922725
  0
ARC
  8
4
  6
CONTINUOUS
 62
     1
 10
536.646673883
 20
458.249999667
 40
2.0
 50
359.999922725
 51
180.0
  0
LINE
  8
4
  6
CONTINUOUS
 62
     1
 10
538.646673883
 20
432.249996969
 11
538.646673883
 21
458.249996969
  0
LINE
  8
4
  6
CONTINUOUS
 62
     1
 10
534.646673883
 20
432.249999667
 11
534.646673883
 21
458.249999667
  0
ARC
  8
4
  6
CONTINUOUS
 62
     1
 10
543.146673883
 20
432.249999667
 40
2.0
 50
180.0
 51
359.999922725
  0
ARC
  8
4
  6
CONTINUOUS
 62
     1
 10
543.146673883
 20
458.249999667
 40
2.0
 50
359.999922725
 51
180.0
  0
LINE
  8
4
  6
CONTINUOUS
 62
     1
 10
545.146673883
 20
432.249996969
 11
545.146673883
 21
458.249996969
  0
LINE
  8
4
  6
CONTINUOUS
 62
     1
 10
541.146673883
 20
432.249999667
 11
541.146673883
 21
458.249999667
  0
ARC
  8
4
  6
CONTINUOUS
 62
     1
 10
549.646673883
 20
432.249999667
 40
2.0
 50
180.0
 51
359.999922725
  0
ARC
  8
4
  6
CONTINUOUS
 62
     1
 10
549.646673883
 20
458.249999667
 40
2.0
 50
359.999922725
 51
180.0
  0
LINE
  8
4
  6
CONTINUOUS
 62
     1
 10
551.646673883
 20
432.249996969
 11
551.646673883
 21
458.249996969
  0
LINE
  8
4
  6
CONTINUOUS
 62
     1
 10
547.646673883
 20
432.249999667
 11
547.646673883
 21
458.249999667
  0
ARC
  8
4
  6
CONTINUOUS
 62
     1
 10
556.146673883
 20
432.249999667
 40
2.0
 50
180.0
 51
359.999922725
  0
ARC
  8
4
  6
CONTINUOUS
 62
     1
 10
556.146673883
 20
458.249999667
 40
2.0
 50
359.999922725
 51
180.0
  0
LINE
  8
4
  6
CONTINUOUS
 62
     1
 10
558.146673883
 20
432.249996969
 11
558.146673883
 21
458.249996969
  0
LINE
  8
4
  6
CONTINUOUS
 62
     1
 10
554.146673883
 20
432.249999667
 11
554.146673883
 21
458.249999667
  0
ARC
  8
4
  6
CONTINUOUS
 62
     1
 10
562.646673883
 20
432.249999667
 40
2.0
 50
180.0
 51
359.999922725
  0
ARC
  8
4
  6
CONTINUOUS
 62
     1
 10
562.646673883
 20
458.249999667
 40
2.0
 50
359.999922725
 51
180.0
  0
LINE
  8
4
  6
CONTINUOUS
 62
     1
 10
564.646673883
 20
432.249996969
 11
564.646673883
 21
458.249996969
  0
LINE
  8
4
  6
CONTINUOUS
 62
     1
 10
560.646673883
 20
432.249999667
 11
560.646673883
 21
458.249999667
  0
ARC
  8
4
  6
CONTINUOUS
 62
     1
 10
172.646673883
 20
432.249999667
 40
2.0
 50
180.0
 51
359.999922725
  0
ARC
  8
4
  6
CONTINUOUS
 62
     1
 10
172.646673883
 20
458.249999667
 40
2.0
 50
359.999922725
 51
180.0
  0
LINE
  8
4
  6
CONTINUOUS
 62
     1
 10
174.646673883
 20
432.249996969
 11
174.646673883
 21
458.249996969
  0
LINE
  8
4
  6
CONTINUOUS
 62
     1
 10
170.646673883
 20
432.249999667
 11
170.646673883
 21
458.249999667
  0
ARC
  8
4
  6
CONTINUOUS
 62
     1
 10
166.146673883
 20
432.249999667
 40
2.0
 50
180.0
 51
359.999922725
  0
ARC
  8
4
  6
CONTINUOUS
 62
     1
 10
166.146673883
 20
458.249999667
 40
2.0
 50
359.999922725
 51
180.0
  0
LINE
  8
4
  6
CONTINUOUS
 62
     1
 10
168.146673883
 20
432.249996969
 11
168.146673883
 21
458.249996969
  0
LINE
  8
4
  6
CONTINUOUS
 62
     1
 10
164.146673883
 20
432.249999667
 11
164.146673883
 21
458.249999667
  0
ARC
  8
4
  6
CONTINUOUS
 62
     1
 10
569.146673883
 20
432.249999667
 40
2.0
 50
180.0
 51
359.999922725
  0
ARC
  8
4
  6
CONTINUOUS
 62
     1
 10
569.146673883
 20
458.249999667
 40
2.0
 50
359.999922725
 51
180.0
  0
LINE
  8
4
  6
CONTINUOUS
 62
     1
 10
571.146673883
 20
432.249996969
 11
571.146673883
 21
458.249996969
  0
LINE
  8
4
  6
CONTINUOUS
 62
     1
 10
567.146673883
 20
432.249999667
 11
567.146673883
 21
458.249999667
  0
ARC
  8
4
  6
CONTINUOUS
 62
     1
 10
575.646673883
 20
432.249999667
 40
2.0
 50
180.0
 51
359.999922725
  0
ARC
  8
4
  6
CONTINUOUS
 62
     1
 10
575.646673883
 20
458.249999667
 40
2.0
 50
359.999922725
 51
180.0
  0
LINE
  8
4
  6
CONTINUOUS
 62
     1
 10
577.646673883
 20
432.249996969
 11
577.646673883
 21
458.249996969
  0
LINE
  8
4
  6
CONTINUOUS
 62
     1
 10
573.646673883
 20
432.249999667
 11
573.646673883
 21
458.249999667
  0
LINE
  8
4
  6
CONTINUOUS
 62
     1
 10
620.896673883
 20
523.737999667
 11
620.896673883
 21
423.399999667
  0
LINE
  8
4
  6
CONTINUOUS
 62
     1
 10
120.896673883
 20
523.737999667
 11
120.896673883
 21
423.399999667
  0
LINE
  8
4
  6
CONTINUOUS
 62
     1
 10
120.896673883
 20
523.737999667
 11
149.296673883
 21
523.737999667
  0
ARC
  8
4
  6
CONTINUOUS
 62
     1
 10
150.896673883
 20
523.737999667
 40
1.6
 50
180.0
 51
316.145662043
  0
LINE
  8
4
  6
CONTINUOUS
 62
     1
 10
150.896673883
 20
522.629475886
 11
150.896673883
 21
522.137999667
  0
LINE
  8
4
  6
CONTINUOUS
 62
     1
 10
150.896673883
 20
522.629475886
 11
590.896673883
 21
522.629475886
  0
LINE
  8
4
  6
CONTINUOUS
 62
     1
 10
590.896673883
 20
522.629475886
 11
590.896673883
 21
522.137999667
  0
ARC
  8
4
  6
CONTINUOUS
 62
     1
 10
590.896673883
 20
523.737999667
 40
1.6
 50
223.854337957
 51
0.0
  0
LINE
  8
4
  6
CONTINUOUS
 62
     1
 10
592.496673883
 20
523.737999667
 11
620.896673883
 21
523.737999667
  0
CIRCLE
  8
4
  6
CONTINUOUS
 62
     1
 10
138.334273549
 20
505.55
 40
3.1
  0
CIRCLE
  8
4
  6
CONTINUOUS
 62
     1
 10
603.459073549
 20
505.55
 40
3.1
  0
LINE
  8
4
  6
CONTINUOUS
 62
     1
 10
816.396673549
 20
523.737999667
 11
816.396673549
 21
423.399999667
  0
LINE
  8
4
  6
CONTINUOUS
 62
     1
 10
816.396673549
 20
523.737999667
 11
814.796673549
 21
523.737999667
  0
LINE
  8
4
  6
CONTINUOUS
 62
     1
 10
814.796673549
 20
523.737999667
 11
814.796673549
 21
423.399999667
  0
LINE
  8
4
  6
CONTINUOUS
 62
     1
 10
1317.996673549
 20
511.5
 11
1316.396673549
 21
511.5
  0
POLYLINE
  8
4
  6
CONTINUOUS
 62
     1
 66
     1
  0
VERTEX
  8
4
  6
CONTINUOUS
 62
     1
 10
1317.996673549
 20
511.5
  0
VERTEX
  8
4
  6
CONTINUOUS
 62
     1
 10
1317.996673549
 20
467.8
  0
VERTEX
  8
4
  6
CONTINUOUS
 62
     1
 10
1316.396673549
 20
467.8
  0
SEQEND
  0
POLYLINE
  8
4
  6
LTYPE2
 62
     2
 66
     1
  0
VERTEX
  8
4
  6
LTYPE2
 62
     2
 10
1289.396673549
 20
509.9
  0
VERTEX
  8
4
  6
LTYPE2
 62
     2
 10
1287.796673549
 20
509.9
  0
VERTEX
  8
4
  6
LTYPE2
 62
     2
 10
1287.796673549
 20
511.5
  0
SEQEND
  0
LINE
  8
4
  6
LTYPE2
 62
     2
 10
1289.396673549
 20
509.9
 11
1289.396673549
 21
469.4
  0
LINE
  8
4
  6
LTYPE2
 62
     2
 10
1287.796673549
 20
467.8
 11
1287.796673549
 21
469.4
  0
LINE
  8
4
  6
LTYPE2
 62
     2
 10
1287.796673549
 20
469.4
 11
1289.396673549
 21
469.4
  0
LINE
  8
4
  6
LTYPE2
 62
     2
 10
844.996673549
 20
467.8
 11
1287.796673549
 21
467.8
  0
LINE
  8
4
  6
LTYPE2
 62
     2
 10
843.396673549
 20
469.4
 11
844.996673549
 21
469.4
  0
LINE
  8
4
  6
LTYPE2
 62
     2
 10
844.996673549
 20
469.4
 11
844.996673549
 21
467.8
  0
LINE
  8
4
  6
LTYPE2
 62
     2
 10
1287.796673549
 20
511.5
 11
844.996673549
 21
511.5
  0
LINE
  8
4
  6
LTYPE2
 62
     2
 10
843.396673549
 20
509.9
 11
843.396673549
 21
469.4
  0
LINE
  8
4
  6
LTYPE2
 62
     2
 10
844.996673549
 20
511.5
 11
844.996673549
 21
509.9
  0
LINE
  8
4
  6
LTYPE2
 62
     2
 10
844.996673549
 20
509.9
 11
843.396673549
 21
509.9
  0
ARC
  8
5
  6
CONTINUOUS
 62
     1
 10
145.396673549
 20
245.175
 40
1.7
 50
90.0
 51
194.477512186
  0
ARC
  8
5
  6
CONTINUOUS
 62
     1
 10
596.396673549
 20
245.175
 40
1.7
 50
345.522487814
 51
90.0
  0
ARC
  8
5
  6
CONTINUOUS
 62
     1
 10
596.396673549
 20
422.975
 40
1.7
 50
270.000146078
 51
14.477500583
  0
ARC
  8
5
  6
CONTINUOUS
 62
     1
 10
145.396673549
 20
422.975
 40
1.7
 50
165.522499417
 51
269.999853922
  0
ARC
  8
5
  6
CONTINUOUS
 62
     1
 10
1440.896673549
 20
245.175
 40
1.7
 50
90.0
 51
194.477512187
  0
ARC
  8
5
  6
CONTINUOUS
 62
     1
 10
1891.896673549
 20
245.175
 40
1.7
 50
345.522487813
 51
90.0
  0
ARC
  8
5
  6
CONTINUOUS
 62
     1
 10
1891.896673549
 20
467.425
 40
1.7
 50
270.0
 51
12.743585222
  0
ARC
  8
5
  6
CONTINUOUS
 62
     1
 10
1440.896673549
 20
467.425
 40
1.7
 50
167.256414778
 51
270.0
  0
LINE
  8
0
  6
CONTINUOUS
 62
     1
 10
1416.396673549
 20
489.65
 11
1425.096673549
 21
489.65
  0
LINE
  8
5
  6
CONTINUOUS
 62
     1
 10
1416.396673549
 20
489.65
 11
1425.096673549
 21
489.65
  0
LINE
  8
0
  6
CONTINUOUS
 62
     1
 10
1916.396673549
 20
489.65
 11
1907.696673549
 21
489.65
  0
LINE
  8
5
  6
CONTINUOUS
 62
     1
 10
1916.396673549
 20
489.65
 11
1907.696673549
 21
489.65
  0
ARC
  8
0
  6
CONTINUOUS
 62
     1
 10
1891.896673549
 20
511.875
 40
1.7
 50
347.256414778
 51
90.0
  0
ARC
  8
0
  6
CONTINUOUS
 62
     1
 10
1440.896673549
 20
511.875
 40
1.7
 50
90.0
 51
192.743585222
  0
LINE
  8
0
  6
CONTINUOUS
 62
     1
 10
1916.396673549
 20
956.8
 11
1416.396673549
 21
956.8
  0
CIRCLE
  8
0
  6
CONTINUOUS
 62
     1
 10
1433.836673549
 20
962.7
 40
3.1
  0
CIRCLE
  8
0
  6
CONTINUOUS
 62
     1
 10
1898.956673549
 20
962.7
 40
3.1
  0
ARC
  8
0
  6
CONTINUOUS
 62
     1
 10
1891.896673549
 20
956.375
 40
1.7
 50
270.0
 51
14.477512187
  0
ARC
  8
0
  6
CONTINUOUS
 62
     1
 10
1440.896673549
 20
956.375
 40
1.7
 50
165.522487814
 51
270.0
  0
LINE
  8
0
  6
CONTINUOUS
 62
     1
 10
596.396673549
 20
523.737999667
 11
596.396673549
 21
959.471804976
  0
LINE
  8
0
  6
CONTINUOUS
 62
     1
 10
145.396673549
 20
523.737999667
 11
145.396673549
 21
959.471804976
  0
LINE
  8
0
  6
CONTINUOUS
 62
     1
 10
1416.396673549
 20
980.2
 11
1416.396673549
 21
956.8
  0
LINE
  8
0
  6
CONTINUOUS
 62
     1
 10
1916.396673549
 20
980.2
 11
1916.396673549
 21
956.8
  0
LINE
  8
0
  6
CONTINUOUS
 62
     1
 10
916.746026006
 20
980.2
 11
916.746026006
 21
978.6
  0
LINE
  8
2
  6
CONTINUOUS
 62
     1
 10
912.145598652
 20
959.130493743
 11
910.582426671
 21
959.471804976
  0
LINE
  8
0
  6
LTYPE3
 62
     2
 10
603.456673549
 20
526.8
 11
603.456673549
 21
956.221804976
  0
LINE
  8
0
  6
LTYPE3
 62
     2
 10
138.336673549
 20
526.625974395
 11
138.336673549
 21
956.886001656
  0
CIRCLE
  8
0
  6
CONTINUOUS
 62
     2
 10
1276.396673549
 20
968.6
 40
6.1
  0
CIRCLE
  8
0
  6
CONTINUOUS
 62
     2
 10
956.396673549
 20
968.6
 40
6.1
  0
CIRCLE
  8
0
  6
CONTINUOUS
 62
     2
 10
856.396674
 20
499.65
 40
6.1
  0
CIRCLE
  8
0
  6
CONTINUOUS
 62
     2
 10
1066.396673549
 20
499.65
 40
6.1
  0
CIRCLE
  8
0
  6
CONTINUOUS
 62
     2
 10
1276.396674
 20
499.65
 40
6.1
  0
CIRCLE
  8
5
  6
CONTINUOUS
 62
     2
 10
856.396673549
 20
479.65
 40
6.0
  0
CIRCLE
  8
5
  6
CONTINUOUS
 62
     2
 10
1066.396673549
 20
479.65
 40
6.0
  0
CIRCLE
  8
5
  6
CONTINUOUS
 62
     2
 10
1276.396673549
 20
479.65
 40
6.0
  0
CIRCLE
  8
5
  6
CONTINUOUS
 62
     2
 10
1276.396673549
 20
232.95
 40
6.0
  0
CIRCLE
  8
5
  6
CONTINUOUS
 62
     2
 10
1066.396673549
 20
232.95
 40
6.0
  0
CIRCLE
  8
5
  6
CONTINUOUS
 62
     2
 10
856.396673549
 20
232.95
 40
6.0
  0
ARC
  8
0
  6
CONTINUOUS
 62
     1
 10
839.269742481
 20
974.607580431
 40
1.7
 50
257.683044106
 51
2.160556293
  0
LINE
  8
0
  6
CONTINUOUS
 62
     1
 10
863.29647424
 20
969.796469747
 11
767.988534988
 21
533.29545189
  0
LINE
  8
0
  6
LTYPE1
 62
     2
 10
824.138088381
 20
978.346518677
 11
939.638088381
 21
953.127638232
  0
LINE
  8
0
  6
LTYPE1
 62
     2
 10
728.830149129
 20
541.84550082
 11
816.837659401
 21
522.629475886
  0
LINE
  8
4
  6
CONTINUOUS
 62
     1
 10
816.837659401
 20
522.629475886
 11
816.396673549
 21
522.629475886
  0
LINE
  8
4
  6
CONTINUOUS
 62
     1
 10
816.396673549
 20
423.399999667
 11
814.796673549
 21
423.399999667
  0
TEXT
  8
6
  6
CONTINUOUS
 62
     2
 10
178.243347099
 20
1367.499999667
 30
1.5
 40
25.0
  1
組立て参考図
 50
0.0
 41
0.94
 51
0.0
  7
KANJI0
  0
TEXT
  8
6
  6
CONTINUOUS
 62
     2
 10
668.893347099
 20
1315.699999667
 30
1.5
 40
25.0
  1
ＡＬＪ－０５０
 50
0.0
 41
0.47
 51
0.0
  7
KANJI1
  0
TEXT
  8
6
  6
CONTINUOUS
 62
     2
 10
668.893347099
 20
1265.699999667
 30
1.5
 40
25.0
  1
ＡＬＪ－０５３Ｂ
 50
0.0
 41
0.47
 51
0.0
  7
KANJI1
  0
TEXT
  8
6
  6
CONTINUOUS
 62
     2
 10
668.893347099
 20
1215.699999667
 30
1.5
 40
25.0
  1
ＡＬＪ－１０２－６Ｕ
 50
0.0
 41
0.47
 51
0.0
  7
KANJI1
  0
LINE
  8
6
  6
CONTINUOUS
 62
     2
 10
792.415437283
 20
985.27300998
 11
786.679030928
 21
974.166991695
  0
LINE
  8
6
  6
CONTINUOUS
 62
     2
 10
792.415437283
 20
985.27300998
 11
793.000572795
 21
972.786712833
  0
LINE
  8
6
  6
CONTINUOUS
 62
     2
 10
792.415437283
 20
985.27300998
 11
697.107498031
 21
548.771992122
  0
LINE
  8
6
  6
CONTINUOUS
 62
     2
 10
697.107498031
 20
548.771992122
 11
702.843904386
 21
559.878010407
  0
LINE
  8
6
  6
CONTINUOUS
 62
     2
 10
697.107498031
 20
548.771992122
 11
696.522362519
 21
561.258289269
  0
TEXT
  8
6
  6
CONTINUOUS
 62
     2
 10
731.791849973
 20
754.500958928
 30
1.5
 40
15.0
  1
１０Ｕ
 50
77.683044106
 41
0.6
 51
0.0
  7
KANJI2
  0
LINE
  8
6
  6
CONTINUOUS
 62
     2
 10
723.945236688
 20
542.91209842
 11
687.337673149
 21
550.905187323
  0
LINE
  8
6
  6
CONTINUOUS
 62
     2
 10
819.25317594
 20
979.413116277
 11
782.6456124
 21
987.40620518
  0
LINE
  8
6
  6
CONTINUOUS
 62
     2
 10
120.896673549
 20
988.896367182
 11
120.896673549
 21
1040.4
  0
LINE
  8
6
  6
CONTINUOUS
 62
     2
 10
120.896673549
 20
1030.4
 11
132.970746378
 21
1027.164761936
  0
LINE
  8
6
  6
CONTINUOUS
 62
     2
 10
120.896673549
 20
1030.4
 11
132.970746378
 21
1033.635238064
  0
LINE
  8
6
  6
CONTINUOUS
 62
     2
 10
120.896673549
 20
1030.4
 11
620.896673549
 21
1030.4
  0
LINE
  8
6
  6
CONTINUOUS
 62
     2
 10
620.896673549
 20
1030.4
 11
608.822600721
 21
1033.635238064
  0
LINE
  8
6
  6
CONTINUOUS
 62
     2
 10
620.896673549
 20
1030.4
 11
608.822600721
 21
1027.164761936
  0
LINE
  8
6
  6
CONTINUOUS
 62
     2
 10
620.896673549
 20
988.896367182
 11
620.896673549
 21
1040.4
  0
TEXT
  8
6
  6
CONTINUOUS
 62
     2
 10
355.896673549
 20
1040.4
 30
1.5
 40
15.0
  1
５００
 50
0.0
 41
0.6
 51
0.0
  7
KANJI2
  0
LINE
  8
6
  6
CONTINUOUS
 62
     2
 10
625.896673883
 20
423.399999667
 11
679.096673549
 21
423.399999667
  0
LINE
  8
6
  6
CONTINUOUS
 62
     2
 10
669.096673549
 20
423.399999667
 11
665.861435486
 21
411.325926838
  0
LINE
  8
6
  6
CONTINUOUS
 62
     2
 10
669.096673549
 20
423.399999667
 11
672.331911613
 21
411.325926838
  0
LINE
  8
6
  6
CONTINUOUS
 62
     2
 10
669.096673549
 20
423.399999667
 11
669.096673549
 21
244.75
  0
LINE
  8
6
  6
CONTINUOUS
 62
     2
 10
669.096673549
 20
244.75
 11
672.331911613
 21
256.824072829
  0
LINE
  8
6
  6
CONTINUOUS
 62
     2
 10
669.096673549
 20
244.75
 11
665.861435486
 21
256.824072829
  0
LINE
  8
6
  6
CONTINUOUS
 62
     2
 10
625.896673549
 20
244.75
 11
679.096673549
 21
244.75
  0
LINE
  8
6
  6
CONTINUOUS
 62
     2
 10
1316.396673549
 20
983.6
 11
1316.396673549
 21
1040.4
  0
LINE
  8
6
  6
CONTINUOUS
 62
     2
 10
1316.396673549
 20
1030.4
 11
1304.322600721
 21
1033.635238064
  0
LINE
  8
6
  6
CONTINUOUS
 62
     2
 10
1316.396673549
 20
1030.4
 11
1304.322600721
 21
1027.164761936
  0
LINE
  8
6
  6
CONTINUOUS
 62
     2
 10
1316.396673549
 20
1030.4
 11
916.396673549
 21
1030.4
  0
LINE
  8
6
  6
CONTINUOUS
 62
     2
 10
916.396673549
 20
1030.4
 11
928.470746378
 21
1027.164761936
  0
LINE
  8
6
  6
CONTINUOUS
 62
     2
 10
916.396673549
 20
1030.4
 11
928.470746378
 21
1033.635238064
  0
LINE
  8
6
  6
CONTINUOUS
 62
     2
 10
916.396673549
 20
983.6
 11
916.396673549
 21
1040.4
  0
TEXT
  8
6
  6
CONTINUOUS
 62
     2
 10
1101.396673549
 20
1040.4
 30
1.5
 40
15.0
  1
４００
 50
0.0
 41
0.6
 51
0.0
  7
KANJI2
  0
LINE
  8
6
  6
CONTINUOUS
 62
     2
 10
816.396673549
 20
217.95
 11
816.396673549
 21
72.0
  0
LINE
  8
6
  6
CONTINUOUS
 62
     2
 10
816.396673549
 20
82.0
 11
828.470746378
 21
78.764761936
  0
LINE
  8
6
  6
CONTINUOUS
 62
     2
 10
816.396673549
 20
82.0
 11
828.470746378
 21
85.235238064
  0
LINE
  8
6
  6
CONTINUOUS
 62
     2
 10
816.396673549
 20
82.0
 11
1316.396673549
 21
82.0
  0
LINE
  8
6
  6
CONTINUOUS
 62
     2
 10
1316.396673549
 20
82.0
 11
1304.322600721
 21
85.235238064
  0
LINE
  8
6
  6
CONTINUOUS
 62
     2
 10
1316.396673549
 20
82.0
 11
1304.322600721
 21
78.764761936
  0
LINE
  8
6
  6
CONTINUOUS
 62
     2
 10
1316.396673549
 20
217.95
 11
1316.396673549
 21
72.0
  0
TEXT
  8
6
  6
CONTINUOUS
 62
     2
 10
1051.396673549
 20
92.0
 30
1.5
 40
15.0
  1
５００
 50
0.0
 41
0.6
 51
0.0
  7
KANJI2
  0
LINE
  8
6
  6
CONTINUOUS
 62
     2
 10
1375.646673549
 20
141.75
 11
1378.881911613
 21
153.824072829
  0
LINE
  8
6
  6
CONTINUOUS
 62
     2
 10
1375.646673549
 20
141.75
 11
1372.411435486
 21
153.824072829
  0
LINE
  8
6
  6
CONTINUOUS
 62
     2
 10
1375.646673549
 20
141.75
 11
1375.646673549
 21
980.2
  0
LINE
  8
6
  6
CONTINUOUS
 62
     2
 10
1375.646673549
 20
980.2
 11
1372.411435486
 21
968.125927171
  0
LINE
  8
6
  6
CONTINUOUS
 62
     2
 10
1375.646673549
 20
980.2
 11
1378.881911613
 21
968.125927171
  0
LINE
  8
6
  6
CONTINUOUS
 62
     2
 10
1322.996673549
 20
980.2
 11
1385.646673549
 21
980.2
  0
TEXT
  8
6
  6
CONTINUOUS
 62
     2
 10
1365.646673549
 20
535.475
 30
1.5
 40
15.0
  1
（８４２）
 50
90.0
 41
0.6
 51
0.0
  7
KANJI2
  0
TEXT
  8
6
  6
CONTINUOUS
 62
     2
 10
659.096673549
 20
324.324999833
 30
1.5
 40
15.0
  1
４Ｕ
 50
90.0
 41
0.6
 51
0.0
  7
KANJI2
  0
ENDSEC
  0
EOF
