  0
SECTION
  2
HEADER
  9
$EXTMIN
 10
0.0
 20
0.0
 30
0.0
  9
$EXTMAX
 10
2100.0
 20
1485.0
 30
0.0
  9
$LIMMIN
 10
0.0
 20
0.0
  9
$LIMMAX
 10
2100.0
 20
1485.0
  9
$LTSCALE
 40
1.0
  9
$PDMODE
 70
     0
  0
ENDSEC
  0
SECTION
  2
TABLES
  0
TABLE
  2
LTYPE
 70
     3
  0
LTYPE
  2
CONTINUOUS
 70
    64
  3
Solid line
 72
    65
 73
     0
 40
0.0
  0
LTYPE
  2
LTYPE1
 70
    64
  3
CENTER
 72
    65
 73
     4
 40
50.0
 49
35.0
 49
-5.0
 49
5.0
 49
-5.0
  0
LTYPE
  2
LTYPE2
 70
    64
  3
HIDDEN
 72
    65
 73
     2
 40
10.0
 49
6.0
 49
-4.0
  0
ENDTAB
  0
TABLE
  2
LAYER
 70
   128
  0
LAYER
  2
0
 70
     0
 62
     7
  6
CONTINUOUS
  0
LAYER
  2
2
 70
     0
 62
     7
  6
CONTINUOUS
  0
LAYER
  2
3
 70
     0
 62
     7
  6
CONTINUOUS
  0
LAYER
  2
4
 70
     0
 62
     7
  6
CONTINUOUS
  0
LAYER
  2
5
 70
     0
 62
     7
  6
CONTINUOUS
  0
LAYER
  2
6
 70
     0
 62
     7
  6
CONTINUOUS
  0
LAYER
  2
7
 70
     0
 62
     7
  6
CONTINUOUS
  0
LAYER
  2
8
 70
     0
 62
     7
  6
CONTINUOUS
  0
LAYER
  2
9
 70
     0
 62
     7
  6
CONTINUOUS
  0
LAYER
  2
10
 70
     0
 62
     7
  6
CONTINUOUS
  0
LAYER
  2
11
 70
     0
 62
     7
  6
CONTINUOUS
  0
LAYER
  2
12
 70
     0
 62
     7
  6
CONTINUOUS
  0
LAYER
  2
13
 70
     0
 62
     7
  6
CONTINUOUS
  0
LAYER
  2
14
 70
     0
 62
     7
  6
CONTINUOUS
  0
LAYER
  2
15
 70
     0
 62
     7
  6
CONTINUOUS
  0
LAYER
  2
16
 70
     0
 62
     7
  6
CONTINUOUS
  0
LAYER
  2
17
 70
     0
 62
     7
  6
CONTINUOUS
  0
LAYER
  2
18
 70
     0
 62
     7
  6
CONTINUOUS
  0
LAYER
  2
19
 70
     0
 62
     7
  6
CONTINUOUS
  0
LAYER
  2
20
 70
     0
 62
     7
  6
CONTINUOUS
  0
LAYER
  2
21
 70
     0
 62
     7
  6
CONTINUOUS
  0
LAYER
  2
22
 70
     0
 62
     7
  6
CONTINUOUS
  0
LAYER
  2
23
 70
     0
 62
     7
  6
CONTINUOUS
  0
LAYER
  2
24
 70
     0
 62
     7
  6
CONTINUOUS
  0
LAYER
  2
25
 70
     0
 62
     7
  6
CONTINUOUS
  0
LAYER
  2
26
 70
     0
 62
     7
  6
CONTINUOUS
  0
LAYER
  2
27
 70
     0
 62
     7
  6
CONTINUOUS
  0
LAYER
  2
28
 70
     0
 62
     7
  6
CONTINUOUS
  0
LAYER
  2
29
 70
     0
 62
     7
  6
CONTINUOUS
  0
LAYER
  2
30
 70
     0
 62
     7
  6
CONTINUOUS
  0
LAYER
  2
31
 70
     0
 62
     7
  6
CONTINUOUS
  0
LAYER
  2
32
 70
     0
 62
     7
  6
CONTINUOUS
  0
LAYER
  2
33
 70
     0
 62
     7
  6
CONTINUOUS
  0
LAYER
  2
34
 70
     0
 62
     7
  6
CONTINUOUS
  0
LAYER
  2
35
 70
     0
 62
     7
  6
CONTINUOUS
  0
LAYER
  2
36
 70
     0
 62
     7
  6
CONTINUOUS
  0
LAYER
  2
37
 70
     0
 62
     7
  6
CONTINUOUS
  0
LAYER
  2
38
 70
     0
 62
     7
  6
CONTINUOUS
  0
LAYER
  2
39
 70
     0
 62
     7
  6
CONTINUOUS
  0
LAYER
  2
40
 70
     0
 62
     7
  6
CONTINUOUS
  0
LAYER
  2
41
 70
     0
 62
     7
  6
CONTINUOUS
  0
LAYER
  2
42
 70
     0
 62
     7
  6
CONTINUOUS
  0
LAYER
  2
43
 70
     0
 62
     7
  6
CONTINUOUS
  0
LAYER
  2
44
 70
     0
 62
     7
  6
CONTINUOUS
  0
LAYER
  2
45
 70
     0
 62
     7
  6
CONTINUOUS
  0
LAYER
  2
46
 70
     0
 62
     7
  6
CONTINUOUS
  0
LAYER
  2
47
 70
     0
 62
     7
  6
CONTINUOUS
  0
LAYER
  2
48
 70
     0
 62
     7
  6
CONTINUOUS
  0
LAYER
  2
49
 70
     0
 62
     7
  6
CONTINUOUS
  0
LAYER
  2
50
 70
     0
 62
     7
  6
CONTINUOUS
  0
LAYER
  2
51
 70
     0
 62
     7
  6
CONTINUOUS
  0
LAYER
  2
52
 70
     0
 62
     7
  6
CONTINUOUS
  0
LAYER
  2
53
 70
     0
 62
     7
  6
CONTINUOUS
  0
LAYER
  2
54
 70
     0
 62
     7
  6
CONTINUOUS
  0
LAYER
  2
55
 70
     0
 62
     7
  6
CONTINUOUS
  0
LAYER
  2
56
 70
     0
 62
     7
  6
CONTINUOUS
  0
LAYER
  2
57
 70
     0
 62
     7
  6
CONTINUOUS
  0
LAYER
  2
58
 70
     0
 62
     7
  6
CONTINUOUS
  0
LAYER
  2
59
 70
     0
 62
     7
  6
CONTINUOUS
  0
LAYER
  2
60
 70
     0
 62
     7
  6
CONTINUOUS
  0
LAYER
  2
61
 70
     0
 62
     7
  6
CONTINUOUS
  0
LAYER
  2
62
 70
     0
 62
     7
  6
CONTINUOUS
  0
LAYER
  2
63
 70
     0
 62
     7
  6
CONTINUOUS
  0
LAYER
  2
64
 70
     0
 62
     7
  6
CONTINUOUS
  0
LAYER
  2
65
 70
     0
 62
     7
  6
CONTINUOUS
  0
LAYER
  2
66
 70
     0
 62
     7
  6
CONTINUOUS
  0
LAYER
  2
67
 70
     0
 62
     7
  6
CONTINUOUS
  0
LAYER
  2
68
 70
     0
 62
     7
  6
CONTINUOUS
  0
LAYER
  2
69
 70
     0
 62
     7
  6
CONTINUOUS
  0
LAYER
  2
70
 70
     0
 62
     7
  6
CONTINUOUS
  0
LAYER
  2
71
 70
     0
 62
     7
  6
CONTINUOUS
  0
LAYER
  2
72
 70
     0
 62
     7
  6
CONTINUOUS
  0
LAYER
  2
73
 70
     0
 62
     7
  6
CONTINUOUS
  0
LAYER
  2
74
 70
     0
 62
     7
  6
CONTINUOUS
  0
LAYER
  2
75
 70
     0
 62
     7
  6
CONTINUOUS
  0
LAYER
  2
76
 70
     0
 62
     7
  6
CONTINUOUS
  0
LAYER
  2
77
 70
     0
 62
     7
  6
CONTINUOUS
  0
LAYER
  2
78
 70
     0
 62
     7
  6
CONTINUOUS
  0
LAYER
  2
79
 70
     0
 62
     7
  6
CONTINUOUS
  0
LAYER
  2
80
 70
     0
 62
     7
  6
CONTINUOUS
  0
LAYER
  2
81
 70
     0
 62
     7
  6
CONTINUOUS
  0
LAYER
  2
82
 70
     0
 62
     7
  6
CONTINUOUS
  0
LAYER
  2
83
 70
     0
 62
     7
  6
CONTINUOUS
  0
LAYER
  2
84
 70
     0
 62
     7
  6
CONTINUOUS
  0
LAYER
  2
85
 70
     0
 62
     7
  6
CONTINUOUS
  0
LAYER
  2
86
 70
     0
 62
     7
  6
CONTINUOUS
  0
LAYER
  2
87
 70
     0
 62
     7
  6
CONTINUOUS
  0
LAYER
  2
88
 70
     0
 62
     7
  6
CONTINUOUS
  0
LAYER
  2
89
 70
     0
 62
     7
  6
CONTINUOUS
  0
LAYER
  2
90
 70
     0
 62
     7
  6
CONTINUOUS
  0
LAYER
  2
91
 70
     0
 62
     7
  6
CONTINUOUS
  0
LAYER
  2
92
 70
     0
 62
     7
  6
CONTINUOUS
  0
LAYER
  2
93
 70
     0
 62
     7
  6
CONTINUOUS
  0
LAYER
  2
94
 70
     0
 62
     7
  6
CONTINUOUS
  0
LAYER
  2
95
 70
     0
 62
     7
  6
CONTINUOUS
  0
LAYER
  2
96
 70
     0
 62
     7
  6
CONTINUOUS
  0
LAYER
  2
97
 70
     0
 62
     7
  6
CONTINUOUS
  0
LAYER
  2
98
 70
     0
 62
     7
  6
CONTINUOUS
  0
LAYER
  2
99
 70
     0
 62
     7
  6
CONTINUOUS
  0
LAYER
  2
100
 70
     0
 62
     7
  6
CONTINUOUS
  0
LAYER
  2
101
 70
     0
 62
     7
  6
CONTINUOUS
  0
LAYER
  2
102
 70
     0
 62
     7
  6
CONTINUOUS
  0
LAYER
  2
103
 70
     0
 62
     7
  6
CONTINUOUS
  0
LAYER
  2
104
 70
     0
 62
     7
  6
CONTINUOUS
  0
LAYER
  2
105
 70
     0
 62
     7
  6
CONTINUOUS
  0
LAYER
  2
106
 70
     0
 62
     7
  6
CONTINUOUS
  0
LAYER
  2
107
 70
     0
 62
     7
  6
CONTINUOUS
  0
LAYER
  2
108
 70
     0
 62
     7
  6
CONTINUOUS
  0
LAYER
  2
109
 70
     0
 62
     7
  6
CONTINUOUS
  0
LAYER
  2
110
 70
     0
 62
     7
  6
CONTINUOUS
  0
LAYER
  2
111
 70
     0
 62
     7
  6
CONTINUOUS
  0
LAYER
  2
112
 70
     0
 62
     7
  6
CONTINUOUS
  0
LAYER
  2
113
 70
     0
 62
     7
  6
CONTINUOUS
  0
LAYER
  2
114
 70
     0
 62
     7
  6
CONTINUOUS
  0
LAYER
  2
115
 70
     0
 62
     7
  6
CONTINUOUS
  0
LAYER
  2
116
 70
     0
 62
     7
  6
CONTINUOUS
  0
LAYER
  2
117
 70
     0
 62
     7
  6
CONTINUOUS
  0
LAYER
  2
118
 70
     0
 62
     7
  6
CONTINUOUS
  0
LAYER
  2
119
 70
     0
 62
     7
  6
CONTINUOUS
  0
LAYER
  2
120
 70
     0
 62
     7
  6
CONTINUOUS
  0
LAYER
  2
121
 70
     0
 62
     7
  6
CONTINUOUS
  0
LAYER
  2
122
 70
     0
 62
     7
  6
CONTINUOUS
  0
LAYER
  2
123
 70
     0
 62
     7
  6
CONTINUOUS
  0
LAYER
  2
124
 70
     0
 62
     7
  6
CONTINUOUS
  0
LAYER
  2
125
 70
     0
 62
     7
  6
CONTINUOUS
  0
LAYER
  2
126
 70
     0
 62
     7
  6
CONTINUOUS
  0
LAYER
  2
127
 70
     0
 62
     7
  6
CONTINUOUS
  0
LAYER
  2
128
 70
     0
 62
     7
  6
CONTINUOUS
  0
ENDTAB
  0
TABLE
  2
STYLE
 70
     4
  0
STYLE
  2
STANDARD
 70
     0
 40
0.0
 41
1.0
 50
0.0
 71
     0
 42
0.2
  3
txt
  4

  0
STYLE
  2
KANJI0
 70
     0
 40
25.0
 41
0.94
 50
0.0
 71
     0
 42
25.0
  3

  4
bigfont
  0
STYLE
  2
KANJI1
 70
     0
 40
25.0
 41
0.47
 50
0.0
 71
     0
 42
25.0
  3

  4
bigfont
  0
STYLE
  2
KANJI2
 70
     0
 40
15.0
 41
0.6
 50
0.0
 71
     0
 42
15.0
  3

  4
bigfont
  0
ENDTAB
  0
TABLE
  2
VIEW
 70
     0
  0
ENDTAB
  0
ENDSEC
  0
SECTION
  2
BLOCKS
  0
ENDSEC
  0
SECTION
  2
ENTITIES
  0
CIRCLE
  8
0
  6
CONTINUOUS
 62
     1
 10
441.2376
 20
212.75
 40
3.1
  0
CIRCLE
  8
0
  6
CONTINUOUS
 62
     1
 10
906.3624
 20
212.75
 40
3.1
  0
LINE
  8
0
  6
CONTINUOUS
 62
     1
 10
923.8
 20
195.25
 11
423.8
 21
195.25
  0
LINE
  8
0
  6
CONTINUOUS
 62
     1
 10
423.8
 20
195.25
 11
423.8
 21
218.65
  0
LINE
  8
0
  6
CONTINUOUS
 62
     1
 10
923.8
 20
195.25
 11
923.8
 21
218.65
  0
LINE
  8
0
  6
CONTINUOUS
 62
     1
 10
423.8
 20
218.65
 11
923.8
 21
218.65
  0
LINE
  8
0
  6
CONTINUOUS
 62
     1
 10
483.8
 20
195.25
 11
483.8
 21
192.05
  0
LINE
  8
0
  6
CONTINUOUS
 62
     1
 10
483.8
 20
192.05
 11
423.8
 21
192.05
  0
LINE
  8
0
  6
CONTINUOUS
 62
     1
 10
423.8
 20
195.25
 11
423.8
 21
192.05
  0
LINE
  8
0
  6
CONTINUOUS
 62
     1
 10
423.8
 20
195.25
 11
483.8
 21
195.25
  0
LINE
  8
0
  6
CONTINUOUS
 62
     1
 10
863.8
 20
195.25
 11
863.8
 21
192.05
  0
LINE
  8
0
  6
CONTINUOUS
 62
     1
 10
863.8
 20
192.05
 11
923.8
 21
192.05
  0
LINE
  8
0
  6
CONTINUOUS
 62
     1
 10
923.8
 20
195.25
 11
923.8
 21
192.05
  0
LINE
  8
0
  6
CONTINUOUS
 62
     1
 10
923.8
 20
195.25
 11
863.8
 21
195.25
  0
LINE
  8
0
  6
LTYPE1
 62
     2
 10
453.8
 20
202.8
 11
453.8
 21
92.8
  0
CIRCLE
  8
0
  6
CONTINUOUS
 62
     2
 10
436.8
 20
146.05
 40
30.0
  0
LINE
  8
0
  6
CONTINUOUS
 62
     2
 10
461.3
 20
192.05
 11
461.3
 21
163.363289693
  0
LINE
  8
0
  6
CONTINUOUS
 62
     2
 10
446.3
 20
192.05
 11
446.3
 21
174.50610655
  0
LINE
  8
0
  6
LTYPE1
 62
     2
 10
893.8
 20
202.8
 11
893.8
 21
92.8
  0
LINE
  8
0
  6
CONTINUOUS
 62
     2
 10
871.3
 20
176.05
 11
871.3
 21
116.05
  0
LINE
  8
0
  6
CONTINUOUS
 62
     2
 10
916.3
 20
176.05
 11
871.3
 21
176.05
  0
LINE
  8
0
  6
CONTINUOUS
 62
     2
 10
916.3
 20
176.05
 11
916.3
 21
116.05
  0
LINE
  8
0
  6
CONTINUOUS
 62
     2
 10
886.3
 20
192.05
 11
886.3
 21
176.05
  0
LINE
  8
0
  6
CONTINUOUS
 62
     2
 10
901.3
 20
192.05
 11
901.3
 21
176.05
  0
LINE
  8
0
  6
CONTINUOUS
 62
     2
 10
916.3
 20
116.05
 11
871.3
 21
116.05
  0
CIRCLE
  8
0
  6
CONTINUOUS
 62
     1
 10
906.3624
 20
746.15
 40
3.1
  0
CIRCLE
  8
0
  6
CONTINUOUS
 62
     1
 10
906.3624
 20
730.25
 40
3.1
  0
CIRCLE
  8
0
  6
CONTINUOUS
 62
     1
 10
906.3624
 20
714.35
 40
3.1
  0
LINE
  8
0
  6
CONTINUOUS
 62
     1
 10
923.8
 20
196.85
 11
923.8
 21
774.7
  0
CIRCLE
  8
0
  6
CONTINUOUS
 62
     1
 10
906.3624
 20
701.7
 40
3.1
  0
CIRCLE
  8
0
  6
CONTINUOUS
 62
     1
 10
906.3624
 20
685.8
 40
3.1
  0
CIRCLE
  8
0
  6
CONTINUOUS
 62
     1
 10
906.3624
 20
669.9
 40
3.1
  0
CIRCLE
  8
0
  6
CONTINUOUS
 62
     1
 10
906.3624
 20
657.25
 40
3.1
  0
CIRCLE
  8
0
  6
CONTINUOUS
 62
     1
 10
906.3624
 20
641.35
 40
3.1
  0
CIRCLE
  8
0
  6
CONTINUOUS
 62
     1
 10
906.3624
 20
625.45
 40
3.1
  0
CIRCLE
  8
0
  6
CONTINUOUS
 62
     1
 10
906.3624
 20
612.8
 40
3.1
  0
CIRCLE
  8
0
  6
CONTINUOUS
 62
     1
 10
906.3624
 20
596.9
 40
3.1
  0
CIRCLE
  8
0
  6
CONTINUOUS
 62
     1
 10
906.3624
 20
581.0
 40
3.1
  0
CIRCLE
  8
0
  6
CONTINUOUS
 62
     1
 10
906.3624
 20
568.35
 40
3.1
  0
CIRCLE
  8
0
  6
CONTINUOUS
 62
     1
 10
906.3624
 20
552.45
 40
3.1
  0
CIRCLE
  8
0
  6
CONTINUOUS
 62
     1
 10
906.3624
 20
536.55
 40
3.1
  0
CIRCLE
  8
0
  6
CONTINUOUS
 62
     1
 10
906.3624
 20
523.9
 40
3.1
  0
CIRCLE
  8
0
  6
CONTINUOUS
 62
     1
 10
906.3624
 20
508.0
 40
3.1
  0
CIRCLE
  8
0
  6
CONTINUOUS
 62
     1
 10
906.3624
 20
492.1
 40
3.1
  0
CIRCLE
  8
0
  6
CONTINUOUS
 62
     1
 10
906.3624
 20
479.45
 40
3.1
  0
CIRCLE
  8
0
  6
CONTINUOUS
 62
     1
 10
906.3624
 20
463.55
 40
3.1
  0
CIRCLE
  8
0
  6
CONTINUOUS
 62
     1
 10
906.3624
 20
447.65
 40
3.1
  0
CIRCLE
  8
0
  6
CONTINUOUS
 62
     1
 10
906.3624
 20
435.0
 40
3.1
  0
CIRCLE
  8
0
  6
CONTINUOUS
 62
     1
 10
906.3624
 20
419.1
 40
3.1
  0
CIRCLE
  8
0
  6
CONTINUOUS
 62
     1
 10
906.3624
 20
403.2
 40
3.1
  0
CIRCLE
  8
0
  6
CONTINUOUS
 62
     1
 10
906.3624
 20
390.55
 40
3.1
  0
CIRCLE
  8
0
  6
CONTINUOUS
 62
     1
 10
906.3624
 20
374.65
 40
3.1
  0
CIRCLE
  8
0
  6
CONTINUOUS
 62
     1
 10
906.3624
 20
358.75
 40
3.1
  0
CIRCLE
  8
0
  6
CONTINUOUS
 62
     1
 10
906.3624
 20
346.1
 40
3.1
  0
CIRCLE
  8
0
  6
CONTINUOUS
 62
     1
 10
906.3624
 20
330.2
 40
3.1
  0
CIRCLE
  8
0
  6
CONTINUOUS
 62
     1
 10
906.3624
 20
314.3
 40
3.1
  0
CIRCLE
  8
0
  6
CONTINUOUS
 62
     1
 10
906.3624
 20
301.65
 40
3.1
  0
CIRCLE
  8
0
  6
CONTINUOUS
 62
     1
 10
906.3624
 20
285.75
 40
3.1
  0
CIRCLE
  8
0
  6
CONTINUOUS
 62
     1
 10
906.3624
 20
269.85
 40
3.1
  0
CIRCLE
  8
0
  6
CONTINUOUS
 62
     1
 10
906.3624
 20
257.2
 40
3.1
  0
CIRCLE
  8
0
  6
CONTINUOUS
 62
     1
 10
906.3624
 20
241.3
 40
3.1
  0
CIRCLE
  8
0
  6
CONTINUOUS
 62
     1
 10
906.3624
 20
225.4
 40
3.1
  0
ARC
  8
0
  6
CONTINUOUS
 62
     1
 10
899.3
 20
752.475
 40
1.7
 50
270.0
 51
0.0
  0
ARC
  8
0
  6
CONTINUOUS
 62
     1
 10
899.3
 20
708.025
 40
1.7
 50
270.0
 51
0.0
  0
ARC
  8
0
  6
CONTINUOUS
 62
     1
 10
899.3
 20
708.025
 40
1.7
 50
0.0
 51
90.0
  0
LINE
  8
0
  6
CONTINUOUS
 62
     1
 10
899.3
 20
220.775
 11
899.3
 21
261.825
  0
LINE
  8
0
  6
CONTINUOUS
 62
     1
 10
899.3
 20
265.225
 11
899.3
 21
306.275
  0
LINE
  8
0
  6
CONTINUOUS
 62
     1
 10
899.3
 20
309.675
 11
899.3
 21
350.725
  0
LINE
  8
0
  6
CONTINUOUS
 62
     1
 10
899.3
 20
354.125
 11
899.3
 21
395.175
  0
LINE
  8
0
  6
CONTINUOUS
 62
     1
 10
899.3
 20
398.575
 11
899.3
 21
439.625
  0
LINE
  8
0
  6
CONTINUOUS
 62
     1
 10
899.3
 20
443.025
 11
899.3
 21
484.075
  0
LINE
  8
0
  6
CONTINUOUS
 62
     1
 10
899.3
 20
487.475
 11
899.3
 21
528.525
  0
LINE
  8
0
  6
CONTINUOUS
 62
     1
 10
899.3
 20
531.925
 11
899.3
 21
572.975
  0
LINE
  8
0
  6
CONTINUOUS
 62
     1
 10
899.3
 20
576.375
 11
899.3
 21
617.425
  0
LINE
  8
0
  6
CONTINUOUS
 62
     1
 10
899.3
 20
620.825
 11
899.3
 21
661.875
  0
LINE
  8
0
  6
CONTINUOUS
 62
     1
 10
899.3
 20
665.275
 11
899.3
 21
706.325
  0
LINE
  8
0
  6
CONTINUOUS
 62
     1
 10
899.3
 20
709.725
 11
899.3
 21
750.775
  0
ARC
  8
0
  6
CONTINUOUS
 62
     1
 10
899.3
 20
663.575
 40
1.7
 50
270.0
 51
0.0
  0
ARC
  8
0
  6
CONTINUOUS
 62
     1
 10
899.3
 20
663.575
 40
1.7
 50
0.0
 51
90.0
  0
ARC
  8
0
  6
CONTINUOUS
 62
     1
 10
899.3
 20
619.125
 40
1.7
 50
270.0
 51
0.0
  0
ARC
  8
0
  6
CONTINUOUS
 62
     1
 10
899.3
 20
619.125
 40
1.7
 50
0.0
 51
90.0
  0
ARC
  8
0
  6
CONTINUOUS
 62
     1
 10
899.3
 20
574.675
 40
1.7
 50
270.0
 51
0.0
  0
ARC
  8
0
  6
CONTINUOUS
 62
     1
 10
899.3
 20
574.675
 40
1.7
 50
0.0
 51
90.0
  0
ARC
  8
0
  6
CONTINUOUS
 62
     1
 10
899.3
 20
530.225
 40
1.7
 50
270.0
 51
0.0
  0
ARC
  8
0
  6
CONTINUOUS
 62
     1
 10
899.3
 20
530.225
 40
1.7
 50
0.0
 51
90.0
  0
ARC
  8
0
  6
CONTINUOUS
 62
     1
 10
899.3
 20
485.775
 40
1.7
 50
270.0
 51
0.0
  0
ARC
  8
0
  6
CONTINUOUS
 62
     1
 10
899.3
 20
485.775
 40
1.7
 50
0.0
 51
90.0
  0
ARC
  8
0
  6
CONTINUOUS
 62
     1
 10
899.3
 20
441.325
 40
1.7
 50
270.0
 51
0.0
  0
ARC
  8
0
  6
CONTINUOUS
 62
     1
 10
899.3
 20
441.325
 40
1.7
 50
0.0
 51
90.0
  0
ARC
  8
0
  6
CONTINUOUS
 62
     1
 10
899.3
 20
396.875
 40
1.7
 50
270.0
 51
0.0
  0
ARC
  8
0
  6
CONTINUOUS
 62
     1
 10
899.3
 20
396.875
 40
1.7
 50
0.0
 51
90.0
  0
ARC
  8
0
  6
CONTINUOUS
 62
     1
 10
899.3
 20
352.425
 40
1.7
 50
270.0
 51
0.0
  0
ARC
  8
0
  6
CONTINUOUS
 62
     1
 10
899.3
 20
352.425
 40
1.7
 50
0.0
 51
90.0
  0
ARC
  8
0
  6
CONTINUOUS
 62
     1
 10
899.3
 20
307.975
 40
1.7
 50
270.0
 51
0.0
  0
ARC
  8
0
  6
CONTINUOUS
 62
     1
 10
899.3
 20
307.975
 40
1.7
 50
0.0
 51
90.0
  0
ARC
  8
0
  6
CONTINUOUS
 62
     1
 10
899.3
 20
263.525
 40
1.7
 50
270.0
 51
0.0
  0
ARC
  8
0
  6
CONTINUOUS
 62
     1
 10
899.3
 20
263.525
 40
1.7
 50
0.0
 51
90.0
  0
ARC
  8
0
  6
CONTINUOUS
 62
     1
 10
899.3
 20
219.075
 40
1.7
 50
0.0
 51
90.0
  0
CIRCLE
  8
0
  6
CONTINUOUS
 62
     1
 10
441.2376
 20
746.15
 40
3.1
  0
CIRCLE
  8
0
  6
CONTINUOUS
 62
     1
 10
441.2376
 20
730.25
 40
3.1
  0
CIRCLE
  8
0
  6
CONTINUOUS
 62
     1
 10
441.2376
 20
714.35
 40
3.1
  0
LINE
  8
0
  6
CONTINUOUS
 62
     1
 10
423.8
 20
196.85
 11
423.8
 21
774.7
  0
CIRCLE
  8
0
  6
CONTINUOUS
 62
     1
 10
441.2376
 20
701.7
 40
3.1
  0
CIRCLE
  8
0
  6
CONTINUOUS
 62
     1
 10
441.2376
 20
685.8
 40
3.1
  0
CIRCLE
  8
0
  6
CONTINUOUS
 62
     1
 10
441.2376
 20
669.9
 40
3.1
  0
CIRCLE
  8
0
  6
CONTINUOUS
 62
     1
 10
441.2376
 20
657.25
 40
3.1
  0
CIRCLE
  8
0
  6
CONTINUOUS
 62
     1
 10
441.2376
 20
641.35
 40
3.1
  0
CIRCLE
  8
0
  6
CONTINUOUS
 62
     1
 10
441.2376
 20
625.45
 40
3.1
  0
CIRCLE
  8
0
  6
CONTINUOUS
 62
     1
 10
441.2376
 20
612.8
 40
3.1
  0
CIRCLE
  8
0
  6
CONTINUOUS
 62
     1
 10
441.2376
 20
596.9
 40
3.1
  0
CIRCLE
  8
0
  6
CONTINUOUS
 62
     1
 10
441.2376
 20
581.0
 40
3.1
  0
CIRCLE
  8
0
  6
CONTINUOUS
 62
     1
 10
441.2376
 20
568.35
 40
3.1
  0
CIRCLE
  8
0
  6
CONTINUOUS
 62
     1
 10
441.2376
 20
552.45
 40
3.1
  0
CIRCLE
  8
0
  6
CONTINUOUS
 62
     1
 10
441.2376
 20
536.55
 40
3.1
  0
CIRCLE
  8
0
  6
CONTINUOUS
 62
     1
 10
441.2376
 20
523.9
 40
3.1
  0
CIRCLE
  8
0
  6
CONTINUOUS
 62
     1
 10
441.2376
 20
508.0
 40
3.1
  0
CIRCLE
  8
0
  6
CONTINUOUS
 62
     1
 10
441.2376
 20
492.1
 40
3.1
  0
CIRCLE
  8
0
  6
CONTINUOUS
 62
     1
 10
441.2376
 20
479.45
 40
3.1
  0
CIRCLE
  8
0
  6
CONTINUOUS
 62
     1
 10
441.2376
 20
463.55
 40
3.1
  0
CIRCLE
  8
0
  6
CONTINUOUS
 62
     1
 10
441.2376
 20
447.65
 40
3.1
  0
CIRCLE
  8
0
  6
CONTINUOUS
 62
     1
 10
441.2376
 20
435.0
 40
3.1
  0
CIRCLE
  8
0
  6
CONTINUOUS
 62
     1
 10
441.2376
 20
419.1
 40
3.1
  0
CIRCLE
  8
0
  6
CONTINUOUS
 62
     1
 10
441.2376
 20
403.2
 40
3.1
  0
CIRCLE
  8
0
  6
CONTINUOUS
 62
     1
 10
441.2376
 20
390.55
 40
3.1
  0
CIRCLE
  8
0
  6
CONTINUOUS
 62
     1
 10
441.2376
 20
374.65
 40
3.1
  0
CIRCLE
  8
0
  6
CONTINUOUS
 62
     1
 10
441.2376
 20
358.75
 40
3.1
  0
CIRCLE
  8
0
  6
CONTINUOUS
 62
     1
 10
441.2376
 20
346.1
 40
3.1
  0
CIRCLE
  8
0
  6
CONTINUOUS
 62
     1
 10
441.2376
 20
330.2
 40
3.1
  0
CIRCLE
  8
0
  6
CONTINUOUS
 62
     1
 10
441.2376
 20
314.3
 40
3.1
  0
CIRCLE
  8
0
  6
CONTINUOUS
 62
     1
 10
441.2376
 20
301.65
 40
3.1
  0
CIRCLE
  8
0
  6
CONTINUOUS
 62
     1
 10
441.2376
 20
285.75
 40
3.1
  0
CIRCLE
  8
0
  6
CONTINUOUS
 62
     1
 10
441.2376
 20
269.85
 40
3.1
  0
CIRCLE
  8
0
  6
CONTINUOUS
 62
     1
 10
441.2376
 20
257.2
 40
3.1
  0
CIRCLE
  8
0
  6
CONTINUOUS
 62
     1
 10
441.2376
 20
241.3
 40
3.1
  0
CIRCLE
  8
0
  6
CONTINUOUS
 62
     1
 10
441.2376
 20
225.4
 40
3.1
  0
ARC
  8
0
  6
CONTINUOUS
 62
     1
 10
448.3
 20
752.475
 40
1.7
 50
180.0
 51
270.0
  0
ARC
  8
0
  6
CONTINUOUS
 62
     1
 10
448.3
 20
708.025
 40
1.7
 50
180.0
 51
270.0
  0
ARC
  8
0
  6
CONTINUOUS
 62
     1
 10
448.3
 20
708.025
 40
1.7
 50
90.0
 51
180.0
  0
LINE
  8
0
  6
CONTINUOUS
 62
     1
 10
448.3
 20
220.775
 11
448.3
 21
261.825
  0
LINE
  8
0
  6
CONTINUOUS
 62
     1
 10
448.3
 20
265.225
 11
448.3
 21
306.275
  0
LINE
  8
0
  6
CONTINUOUS
 62
     1
 10
448.3
 20
309.675
 11
448.3
 21
350.725
  0
LINE
  8
0
  6
CONTINUOUS
 62
     1
 10
448.3
 20
354.125
 11
448.3
 21
395.175
  0
LINE
  8
0
  6
CONTINUOUS
 62
     1
 10
448.3
 20
398.575
 11
448.3
 21
439.625
  0
LINE
  8
0
  6
CONTINUOUS
 62
     1
 10
448.3
 20
443.025
 11
448.3
 21
484.075
  0
LINE
  8
0
  6
CONTINUOUS
 62
     1
 10
448.3
 20
487.475
 11
448.3
 21
528.525
  0
LINE
  8
0
  6
CONTINUOUS
 62
     1
 10
448.3
 20
531.925
 11
448.3
 21
572.975
  0
LINE
  8
0
  6
CONTINUOUS
 62
     1
 10
448.3
 20
576.375
 11
448.3
 21
617.425
  0
LINE
  8
0
  6
CONTINUOUS
 62
     1
 10
448.3
 20
620.825
 11
448.3
 21
661.875
  0
LINE
  8
0
  6
CONTINUOUS
 62
     1
 10
448.3
 20
665.275
 11
448.3
 21
706.325
  0
LINE
  8
0
  6
CONTINUOUS
 62
     1
 10
448.3
 20
709.725
 11
448.3
 21
750.775
  0
ARC
  8
0
  6
CONTINUOUS
 62
     1
 10
448.3
 20
663.575
 40
1.7
 50
180.0
 51
270.0
  0
ARC
  8
0
  6
CONTINUOUS
 62
     1
 10
448.3
 20
663.575
 40
1.7
 50
90.0
 51
180.0
  0
ARC
  8
0
  6
CONTINUOUS
 62
     1
 10
448.3
 20
619.125
 40
1.7
 50
180.0
 51
270.0
  0
ARC
  8
0
  6
CONTINUOUS
 62
     1
 10
448.3
 20
619.125
 40
1.7
 50
90.0
 51
180.0
  0
ARC
  8
0
  6
CONTINUOUS
 62
     1
 10
448.3
 20
574.675
 40
1.7
 50
180.0
 51
270.0
  0
ARC
  8
0
  6
CONTINUOUS
 62
     1
 10
448.3
 20
574.675
 40
1.7
 50
90.0
 51
180.0
  0
ARC
  8
0
  6
CONTINUOUS
 62
     1
 10
448.3
 20
530.225
 40
1.7
 50
180.0
 51
270.0
  0
ARC
  8
0
  6
CONTINUOUS
 62
     1
 10
448.3
 20
530.225
 40
1.7
 50
90.0
 51
180.0
  0
ARC
  8
0
  6
CONTINUOUS
 62
     1
 10
448.3
 20
485.775
 40
1.7
 50
180.0
 51
270.0
  0
ARC
  8
0
  6
CONTINUOUS
 62
     1
 10
448.3
 20
485.775
 40
1.7
 50
90.0
 51
180.0
  0
ARC
  8
0
  6
CONTINUOUS
 62
     1
 10
448.3
 20
441.325
 40
1.7
 50
180.0
 51
270.0
  0
ARC
  8
0
  6
CONTINUOUS
 62
     1
 10
448.3
 20
441.325
 40
1.7
 50
90.0
 51
180.0
  0
ARC
  8
0
  6
CONTINUOUS
 62
     1
 10
448.3
 20
396.875
 40
1.7
 50
180.0
 51
270.0
  0
ARC
  8
0
  6
CONTINUOUS
 62
     1
 10
448.3
 20
396.875
 40
1.7
 50
90.0
 51
180.0
  0
ARC
  8
0
  6
CONTINUOUS
 62
     1
 10
448.3
 20
352.425
 40
1.7
 50
180.0
 51
270.0
  0
ARC
  8
0
  6
CONTINUOUS
 62
     1
 10
448.3
 20
352.425
 40
1.7
 50
90.0
 51
180.0
  0
ARC
  8
0
  6
CONTINUOUS
 62
     1
 10
448.3
 20
307.975
 40
1.7
 50
180.0
 51
270.0
  0
ARC
  8
0
  6
CONTINUOUS
 62
     1
 10
448.3
 20
307.975
 40
1.7
 50
90.0
 51
180.0
  0
ARC
  8
0
  6
CONTINUOUS
 62
     1
 10
448.3
 20
263.525
 40
1.7
 50
180.0
 51
270.0
  0
ARC
  8
0
  6
CONTINUOUS
 62
     1
 10
448.3
 20
263.525
 40
1.7
 50
90.0
 51
180.0
  0
ARC
  8
0
  6
CONTINUOUS
 62
     1
 10
448.3
 20
219.075
 40
1.7
 50
90.0
 51
180.0
  0
ARC
  8
0
  6
CONTINUOUS
 62
     1
 10
899.3
 20
219.075
 40
1.7
 50
345.522487814
 51
0.0
  0
ARC
  8
0
  6
CONTINUOUS
 62
     1
 10
448.3
 20
219.075
 40
1.7
 50
180.0
 51
194.477512186
  0
LINE
  8
0
  6
CONTINUOUS
 62
     1
 10
1143.05
 20
195.25
 11
1546.25
 21
195.25
  0
LINE
  8
0
  6
CONTINUOUS
 62
     1
 10
1143.05
 20
195.25
 11
1143.05
 21
218.65
  0
LINE
  8
0
  6
CONTINUOUS
 62
     1
 10
1144.65
 20
218.65
 11
1143.05
 21
218.65
  0
LINE
  8
0
  6
CONTINUOUS
 62
     1
 10
1546.25
 20
195.25
 11
1546.25
 21
218.65
  0
LINE
  8
0
  6
CONTINUOUS
 62
     1
 10
1544.65
 20
218.65
 11
1546.25
 21
218.65
  0
LINE
  8
0
  6
CONTINUOUS
 62
     1
 10
1143.05
 20
195.25
 11
1143.05
 21
192.05
  0
LINE
  8
0
  6
CONTINUOUS
 62
     1
 10
1194.15
 20
195.25
 11
1194.15
 21
192.05
  0
LINE
  8
0
  6
CONTINUOUS
 62
     1
 10
1143.05
 20
192.05
 11
1194.15
 21
192.05
  0
LINE
  8
0
  6
CONTINUOUS
 62
     1
 10
1546.25
 20
195.25
 11
1546.25
 21
192.05
  0
LINE
  8
0
  6
CONTINUOUS
 62
     1
 10
1495.15
 20
195.25
 11
1495.15
 21
192.05
  0
LINE
  8
0
  6
CONTINUOUS
 62
     1
 10
1546.25
 20
192.05
 11
1495.15
 21
192.05
  0
LINE
  8
0
  6
LTYPE1
 62
     2
 10
1520.65
 20
202.8
 11
1520.65
 21
92.8
  0
LINE
  8
0
  6
CONTINUOUS
 62
     2
 10
1498.15
 20
176.05
 11
1498.15
 21
116.05
  0
LINE
  8
0
  6
CONTINUOUS
 62
     2
 10
1543.15
 20
176.05
 11
1498.15
 21
176.05
  0
LINE
  8
0
  6
CONTINUOUS
 62
     2
 10
1543.15
 20
176.05
 11
1543.15
 21
116.05
  0
LINE
  8
0
  6
CONTINUOUS
 62
     2
 10
1513.15
 20
192.05
 11
1513.15
 21
176.05
  0
LINE
  8
0
  6
CONTINUOUS
 62
     2
 10
1528.15
 20
192.05
 11
1528.15
 21
176.05
  0
LINE
  8
0
  6
CONTINUOUS
 62
     2
 10
1543.15
 20
116.05
 11
1498.15
 21
116.05
  0
LINE
  8
0
  6
LTYPE1
 62
     2
 10
1168.65
 20
202.8
 11
1168.65
 21
92.8
  0
CIRCLE
  8
0
  6
CONTINUOUS
 62
     2
 10
1151.65
 20
146.05
 40
30.0
  0
LINE
  8
0
  6
CONTINUOUS
 62
     2
 10
1176.15
 20
192.05
 11
1176.15
 21
163.363289693
  0
LINE
  8
0
  6
CONTINUOUS
 62
     2
 10
1161.15
 20
192.05
 11
1161.15
 21
174.50610655
  0
LINE
  8
0
  6
CONTINUOUS
 62
     1
 10
1144.65
 20
774.7
 11
1544.65
 21
774.7
  0
LINE
  8
0
  6
CONTINUOUS
 62
     1
 10
1144.65
 20
196.85
 11
1544.65
 21
196.85
  0
LINE
  8
0
  6
CONTINUOUS
 62
     1
 10
1544.65
 20
196.85
 11
1544.65
 21
774.7
  0
LINE
  8
0
  6
CONTINUOUS
 62
     1
 10
1144.65
 20
196.85
 11
1144.65
 21
774.7
  0
CIRCLE
  8
0
  6
CONTINUOUS
 62
     2
 10
1184.65
 20
764.7
 40
6.0
  0
CIRCLE
  8
0
  6
CONTINUOUS
 62
     2
 10
1504.65
 20
764.7
 40
6.0
  0
CIRCLE
  8
0
  6
CONTINUOUS
 62
     2
 10
1184.65
 20
206.85
 40
6.0
  0
CIRCLE
  8
0
  6
CONTINUOUS
 62
     2
 10
1504.65
 20
206.85
 40
6.0
  0
LINE
  8
0
  6
CONTINUOUS
 62
     2
 10
355.05
 20
116.05
 11
1675.35
 21
116.05
  0
CIRCLE
  8
2
  6
CONTINUOUS
 62
     1
 10
441.2376
 20
1192.85
 40
3.1
  0
CIRCLE
  8
2
  6
CONTINUOUS
 62
     1
 10
441.2376
 20
1176.95
 40
3.1
  0
CIRCLE
  8
2
  6
CONTINUOUS
 62
     1
 10
441.2376
 20
1161.05
 40
3.1
  0
CIRCLE
  8
2
  6
CONTINUOUS
 62
     1
 10
441.2376
 20
1192.85
 40
3.1
  0
CIRCLE
  8
2
  6
CONTINUOUS
 62
     1
 10
441.2376
 20
1176.95
 40
3.1
  0
CIRCLE
  8
2
  6
CONTINUOUS
 62
     1
 10
441.2376
 20
1161.05
 40
3.1
  0
CIRCLE
  8
2
  6
CONTINUOUS
 62
     1
 10
441.2376
 20
1237.3
 40
3.1
  0
CIRCLE
  8
2
  6
CONTINUOUS
 62
     1
 10
441.2376
 20
1221.4
 40
3.1
  0
CIRCLE
  8
2
  6
CONTINUOUS
 62
     1
 10
441.2376
 20
1205.5
 40
3.1
  0
CIRCLE
  8
2
  6
CONTINUOUS
 62
     1
 10
441.2376
 20
1237.3
 40
3.1
  0
CIRCLE
  8
2
  6
CONTINUOUS
 62
     1
 10
441.2376
 20
1221.4
 40
3.1
  0
CIRCLE
  8
2
  6
CONTINUOUS
 62
     1
 10
441.2376
 20
1205.5
 40
3.1
  0
CIRCLE
  8
2
  6
CONTINUOUS
 62
     1
 10
441.2376
 20
1281.75
 40
3.1
  0
CIRCLE
  8
2
  6
CONTINUOUS
 62
     1
 10
441.2376
 20
1265.85
 40
3.1
  0
CIRCLE
  8
2
  6
CONTINUOUS
 62
     1
 10
441.2376
 20
1249.95
 40
3.1
  0
CIRCLE
  8
2
  6
CONTINUOUS
 62
     1
 10
441.2376
 20
1281.75
 40
3.1
  0
CIRCLE
  8
2
  6
CONTINUOUS
 62
     1
 10
441.2376
 20
1265.85
 40
3.1
  0
CIRCLE
  8
2
  6
CONTINUOUS
 62
     1
 10
441.2376
 20
1249.95
 40
3.1
  0
CIRCLE
  8
2
  6
CONTINUOUS
 62
     1
 10
441.2376
 20
1326.2
 40
3.1
  0
CIRCLE
  8
2
  6
CONTINUOUS
 62
     1
 10
441.2376
 20
1310.3
 40
3.1
  0
CIRCLE
  8
2
  6
CONTINUOUS
 62
     1
 10
441.2376
 20
1294.4
 40
3.1
  0
CIRCLE
  8
2
  6
CONTINUOUS
 62
     1
 10
441.2376
 20
1326.2
 40
3.1
  0
CIRCLE
  8
2
  6
CONTINUOUS
 62
     1
 10
441.2376
 20
1310.3
 40
3.1
  0
CIRCLE
  8
2
  6
CONTINUOUS
 62
     1
 10
441.2376
 20
1294.4
 40
3.1
  0
CIRCLE
  8
2
  6
CONTINUOUS
 62
     1
 10
441.2376
 20
1148.4
 40
3.1
  0
CIRCLE
  8
2
  6
CONTINUOUS
 62
     1
 10
441.2376
 20
1132.5
 40
3.1
  0
CIRCLE
  8
2
  6
CONTINUOUS
 62
     1
 10
441.2376
 20
1116.6
 40
3.1
  0
CIRCLE
  8
2
  6
CONTINUOUS
 62
     1
 10
441.2376
 20
1148.4
 40
3.1
  0
CIRCLE
  8
2
  6
CONTINUOUS
 62
     1
 10
441.2376
 20
1132.5
 40
3.1
  0
CIRCLE
  8
2
  6
CONTINUOUS
 62
     1
 10
441.2376
 20
1116.6
 40
3.1
  0
CIRCLE
  8
2
  6
CONTINUOUS
 62
     1
 10
441.2376
 20
1103.95
 40
3.1
  0
CIRCLE
  8
2
  6
CONTINUOUS
 62
     1
 10
441.2376
 20
1088.05
 40
3.1
  0
CIRCLE
  8
2
  6
CONTINUOUS
 62
     1
 10
441.2376
 20
1072.15
 40
3.1
  0
CIRCLE
  8
2
  6
CONTINUOUS
 62
     1
 10
441.2376
 20
1103.95
 40
3.1
  0
CIRCLE
  8
2
  6
CONTINUOUS
 62
     1
 10
441.2376
 20
1088.05
 40
3.1
  0
CIRCLE
  8
2
  6
CONTINUOUS
 62
     1
 10
441.2376
 20
1072.15
 40
3.1
  0
CIRCLE
  8
2
  6
CONTINUOUS
 62
     1
 10
441.2376
 20
1059.5
 40
3.1
  0
CIRCLE
  8
2
  6
CONTINUOUS
 62
     1
 10
441.2376
 20
1043.6
 40
3.1
  0
CIRCLE
  8
2
  6
CONTINUOUS
 62
     1
 10
441.2376
 20
1027.7
 40
3.1
  0
CIRCLE
  8
2
  6
CONTINUOUS
 62
     1
 10
441.2376
 20
1059.5
 40
3.1
  0
CIRCLE
  8
2
  6
CONTINUOUS
 62
     1
 10
441.2376
 20
1043.6
 40
3.1
  0
CIRCLE
  8
2
  6
CONTINUOUS
 62
     1
 10
441.2376
 20
1027.7
 40
3.1
  0
CIRCLE
  8
2
  6
CONTINUOUS
 62
     1
 10
441.2376
 20
1015.05
 40
3.1
  0
CIRCLE
  8
2
  6
CONTINUOUS
 62
     1
 10
441.2376
 20
999.15
 40
3.1
  0
CIRCLE
  8
2
  6
CONTINUOUS
 62
     1
 10
441.2376
 20
983.25
 40
3.1
  0
CIRCLE
  8
2
  6
CONTINUOUS
 62
     1
 10
441.2376
 20
1015.05
 40
3.1
  0
CIRCLE
  8
2
  6
CONTINUOUS
 62
     1
 10
441.2376
 20
999.15
 40
3.1
  0
CIRCLE
  8
2
  6
CONTINUOUS
 62
     1
 10
441.2376
 20
983.25
 40
3.1
  0
LINE
  8
2
  6
CONTINUOUS
 62
     1
 10
423.8
 20
954.725
 11
423.8
 21
1354.725
  0
CIRCLE
  8
2
  6
CONTINUOUS
 62
     1
 10
441.2376
 20
970.6
 40
2.6
  0
CIRCLE
  8
2
  6
CONTINUOUS
 62
     1
 10
441.2376
 20
758.8
 40
2.6
  0
CIRCLE
  8
2
  6
CONTINUOUS
 62
     1
 10
441.2376
 20
819.15
 40
2.6
  0
LINE
  8
2
  6
CONTINUOUS
 62
     1
 10
423.8
 20
953.125
 11
423.8
 21
976.925
  0
LINE
  8
2
  6
CONTINUOUS
 62
     1
 10
423.8
 20
842.975
 11
423.8
 21
752.475
  0
CIRCLE
  8
2
  6
CONTINUOUS
 62
     1
 10
906.3624
 20
970.6
 40
2.6
  0
CIRCLE
  8
2
  6
CONTINUOUS
 62
     1
 10
906.3624
 20
758.8
 40
2.6
  0
CIRCLE
  8
2
  6
CONTINUOUS
 62
     1
 10
906.3624
 20
819.15
 40
2.6
  0
LINE
  8
2
  6
CONTINUOUS
 62
     1
 10
923.8
 20
953.125
 11
923.8
 21
976.925
  0
LINE
  8
2
  6
CONTINUOUS
 62
     1
 10
923.8
 20
842.975
 11
923.8
 21
752.475
  0
LINE
  8
2
  6
CONTINUOUS
 62
     1
 10
423.8
 20
976.925
 11
923.8
 21
976.925
  0
LINE
  8
2
  6
CONTINUOUS
 62
     1
 10
923.8
 20
953.125
 11
423.8
 21
953.125
  0
LINE
  8
2
  6
CONTINUOUS
 62
     1
 10
923.8
 20
842.975
 11
423.8
 21
842.975
  0
LINE
  8
2
  6
CONTINUOUS
 62
     1
 10
423.8
 20
752.475
 11
923.8
 21
752.475
  0
CIRCLE
  8
2
  6
CONTINUOUS
 62
     1
 10
441.2376
 20
1338.85
 40
2.6
  0
LINE
  8
2
  6
CONTINUOUS
 62
     1
 10
423.8
 20
1356.325
 11
423.8
 21
1332.525
  0
CIRCLE
  8
2
  6
CONTINUOUS
 62
     1
 10
906.3624
 20
1338.85
 40
2.6
  0
LINE
  8
2
  6
CONTINUOUS
 62
     1
 10
923.8
 20
1356.325
 11
923.8
 21
1332.525
  0
LINE
  8
2
  6
CONTINUOUS
 62
     1
 10
423.8
 20
1332.525
 11
923.8
 21
1332.525
  0
LINE
  8
2
  6
CONTINUOUS
 62
     1
 10
923.8
 20
1356.325
 11
423.8
 21
1356.325
  0
ARC
  8
2
  6
CONTINUOUS
 62
     1
 10
677.05
 20
787.325
 40
2.0
 50
0.0
 51
179.999922725
  0
ARC
  8
2
  6
CONTINUOUS
 62
     1
 10
677.05
 20
761.325
 40
2.0
 50
179.999922725
 51
0.0
  0
LINE
  8
2
  6
CONTINUOUS
 62
     1
 10
675.05
 20
787.325002697
 11
675.05
 21
761.325002697
  0
LINE
  8
2
  6
CONTINUOUS
 62
     1
 10
679.05
 20
787.325
 11
679.05
 21
761.325
  0
ARC
  8
2
  6
CONTINUOUS
 62
     1
 10
683.55
 20
787.325
 40
2.0
 50
0.0
 51
179.999922725
  0
ARC
  8
2
  6
CONTINUOUS
 62
     1
 10
683.55
 20
761.325
 40
2.0
 50
179.999922725
 51
0.0
  0
LINE
  8
2
  6
CONTINUOUS
 62
     1
 10
681.55
 20
787.325002697
 11
681.55
 21
761.325002697
  0
LINE
  8
2
  6
CONTINUOUS
 62
     1
 10
685.55
 20
787.325
 11
685.55
 21
761.325
  0
ARC
  8
2
  6
CONTINUOUS
 62
     1
 10
690.05
 20
787.325
 40
2.0
 50
0.0
 51
179.999922725
  0
ARC
  8
2
  6
CONTINUOUS
 62
     1
 10
690.05
 20
761.325
 40
2.0
 50
179.999922725
 51
0.0
  0
LINE
  8
2
  6
CONTINUOUS
 62
     1
 10
688.05
 20
787.325002697
 11
688.05
 21
761.325002697
  0
LINE
  8
2
  6
CONTINUOUS
 62
     1
 10
692.05
 20
787.325
 11
692.05
 21
761.325
  0
ARC
  8
2
  6
CONTINUOUS
 62
     1
 10
696.55
 20
787.325
 40
2.0
 50
0.0
 51
179.999922725
  0
ARC
  8
2
  6
CONTINUOUS
 62
     1
 10
696.55
 20
761.325
 40
2.0
 50
179.999922725
 51
0.0
  0
LINE
  8
2
  6
CONTINUOUS
 62
     1
 10
694.55
 20
787.325002697
 11
694.55
 21
761.325002697
  0
LINE
  8
2
  6
CONTINUOUS
 62
     1
 10
698.55
 20
787.325
 11
698.55
 21
761.325
  0
ARC
  8
2
  6
CONTINUOUS
 62
     1
 10
703.05
 20
787.325
 40
2.0
 50
0.0
 51
179.999922725
  0
ARC
  8
2
  6
CONTINUOUS
 62
     1
 10
703.05
 20
761.325
 40
2.0
 50
179.999922725
 51
0.0
  0
LINE
  8
2
  6
CONTINUOUS
 62
     1
 10
701.05
 20
787.325002697
 11
701.05
 21
761.325002697
  0
LINE
  8
2
  6
CONTINUOUS
 62
     1
 10
705.05
 20
787.325
 11
705.05
 21
761.325
  0
ARC
  8
2
  6
CONTINUOUS
 62
     1
 10
709.55
 20
787.325
 40
2.0
 50
0.0
 51
179.999922725
  0
ARC
  8
2
  6
CONTINUOUS
 62
     1
 10
709.55
 20
761.325
 40
2.0
 50
179.999922725
 51
0.0
  0
LINE
  8
2
  6
CONTINUOUS
 62
     1
 10
707.55
 20
787.325002697
 11
707.55
 21
761.325002697
  0
LINE
  8
2
  6
CONTINUOUS
 62
     1
 10
711.55
 20
787.325
 11
711.55
 21
761.325
  0
ARC
  8
2
  6
CONTINUOUS
 62
     1
 10
716.05
 20
787.325
 40
2.0
 50
0.0
 51
179.999922725
  0
ARC
  8
2
  6
CONTINUOUS
 62
     1
 10
716.05
 20
761.325
 40
2.0
 50
179.999922725
 51
0.0
  0
LINE
  8
2
  6
CONTINUOUS
 62
     1
 10
714.05
 20
787.325002697
 11
714.05
 21
761.325002697
  0
LINE
  8
2
  6
CONTINUOUS
 62
     1
 10
718.05
 20
787.325
 11
718.05
 21
761.325
  0
ARC
  8
2
  6
CONTINUOUS
 62
     1
 10
722.55
 20
787.325
 40
2.0
 50
0.0
 51
179.999922725
  0
ARC
  8
2
  6
CONTINUOUS
 62
     1
 10
722.55
 20
761.325
 40
2.0
 50
179.999922725
 51
0.0
  0
LINE
  8
2
  6
CONTINUOUS
 62
     1
 10
720.55
 20
787.325002697
 11
720.55
 21
761.325002697
  0
LINE
  8
2
  6
CONTINUOUS
 62
     1
 10
724.55
 20
787.325
 11
724.55
 21
761.325
  0
ARC
  8
2
  6
CONTINUOUS
 62
     1
 10
729.05
 20
787.325
 40
2.0
 50
0.0
 51
179.999922725
  0
ARC
  8
2
  6
CONTINUOUS
 62
     1
 10
729.05
 20
761.325
 40
2.0
 50
179.999922725
 51
0.0
  0
LINE
  8
2
  6
CONTINUOUS
 62
     1
 10
727.05
 20
787.325002697
 11
727.05
 21
761.325002697
  0
LINE
  8
2
  6
CONTINUOUS
 62
     1
 10
731.05
 20
787.325
 11
731.05
 21
761.325
  0
ARC
  8
2
  6
CONTINUOUS
 62
     1
 10
735.55
 20
787.325
 40
2.0
 50
0.0
 51
179.999922725
  0
ARC
  8
2
  6
CONTINUOUS
 62
     1
 10
735.55
 20
761.325
 40
2.0
 50
179.999922725
 51
0.0
  0
LINE
  8
2
  6
CONTINUOUS
 62
     1
 10
733.55
 20
787.325002697
 11
733.55
 21
761.325002697
  0
LINE
  8
2
  6
CONTINUOUS
 62
     1
 10
737.55
 20
787.325
 11
737.55
 21
761.325
  0
ARC
  8
2
  6
CONTINUOUS
 62
     1
 10
742.05
 20
787.325
 40
2.0
 50
0.0
 51
179.999922725
  0
ARC
  8
2
  6
CONTINUOUS
 62
     1
 10
742.05
 20
761.325
 40
2.0
 50
179.999922725
 51
0.0
  0
LINE
  8
2
  6
CONTINUOUS
 62
     1
 10
740.05
 20
787.325002697
 11
740.05
 21
761.325002697
  0
LINE
  8
2
  6
CONTINUOUS
 62
     1
 10
744.05
 20
787.325
 11
744.05
 21
761.325
  0
ARC
  8
2
  6
CONTINUOUS
 62
     1
 10
748.55
 20
787.325
 40
2.0
 50
0.0
 51
179.999922725
  0
ARC
  8
2
  6
CONTINUOUS
 62
     1
 10
748.55
 20
761.325
 40
2.0
 50
179.999922725
 51
0.0
  0
LINE
  8
2
  6
CONTINUOUS
 62
     1
 10
746.55
 20
787.325002697
 11
746.55
 21
761.325002697
  0
LINE
  8
2
  6
CONTINUOUS
 62
     1
 10
750.55
 20
787.325
 11
750.55
 21
761.325
  0
ARC
  8
2
  6
CONTINUOUS
 62
     1
 10
755.05
 20
787.325
 40
2.0
 50
0.0
 51
179.999922725
  0
ARC
  8
2
  6
CONTINUOUS
 62
     1
 10
755.05
 20
761.325
 40
2.0
 50
179.999922725
 51
0.0
  0
LINE
  8
2
  6
CONTINUOUS
 62
     1
 10
753.05
 20
787.325002697
 11
753.05
 21
761.325002697
  0
LINE
  8
2
  6
CONTINUOUS
 62
     1
 10
757.05
 20
787.325
 11
757.05
 21
761.325
  0
ARC
  8
2
  6
CONTINUOUS
 62
     1
 10
761.55
 20
787.325
 40
2.0
 50
0.0
 51
179.999922725
  0
ARC
  8
2
  6
CONTINUOUS
 62
     1
 10
761.55
 20
761.325
 40
2.0
 50
179.999922725
 51
0.0
  0
LINE
  8
2
  6
CONTINUOUS
 62
     1
 10
759.55
 20
787.325002697
 11
759.55
 21
761.325002697
  0
LINE
  8
2
  6
CONTINUOUS
 62
     1
 10
763.55
 20
787.325
 11
763.55
 21
761.325
  0
ARC
  8
2
  6
CONTINUOUS
 62
     1
 10
768.05
 20
787.325
 40
2.0
 50
0.0
 51
179.999922725
  0
ARC
  8
2
  6
CONTINUOUS
 62
     1
 10
768.05
 20
761.325
 40
2.0
 50
179.999922725
 51
0.0
  0
LINE
  8
2
  6
CONTINUOUS
 62
     1
 10
766.05
 20
787.325002697
 11
766.05
 21
761.325002697
  0
LINE
  8
2
  6
CONTINUOUS
 62
     1
 10
770.05
 20
787.325
 11
770.05
 21
761.325
  0
ARC
  8
2
  6
CONTINUOUS
 62
     1
 10
774.55
 20
787.325
 40
2.0
 50
0.0
 51
179.999922725
  0
ARC
  8
2
  6
CONTINUOUS
 62
     1
 10
774.55
 20
761.325
 40
2.0
 50
179.999922725
 51
0.0
  0
LINE
  8
2
  6
CONTINUOUS
 62
     1
 10
772.55
 20
787.325002697
 11
772.55
 21
761.325002697
  0
LINE
  8
2
  6
CONTINUOUS
 62
     1
 10
776.55
 20
787.325
 11
776.55
 21
761.325
  0
ARC
  8
2
  6
CONTINUOUS
 62
     1
 10
781.05
 20
787.325
 40
2.0
 50
0.0
 51
179.999922725
  0
ARC
  8
2
  6
CONTINUOUS
 62
     1
 10
781.05
 20
761.325
 40
2.0
 50
179.999922725
 51
0.0
  0
LINE
  8
2
  6
CONTINUOUS
 62
     1
 10
779.05
 20
787.325002697
 11
779.05
 21
761.325002697
  0
LINE
  8
2
  6
CONTINUOUS
 62
     1
 10
783.05
 20
787.325
 11
783.05
 21
761.325
  0
ARC
  8
2
  6
CONTINUOUS
 62
     1
 10
787.55
 20
787.325
 40
2.0
 50
0.0
 51
179.999922725
  0
ARC
  8
2
  6
CONTINUOUS
 62
     1
 10
787.55
 20
761.325
 40
2.0
 50
179.999922725
 51
0.0
  0
LINE
  8
2
  6
CONTINUOUS
 62
     1
 10
785.55
 20
787.325002697
 11
785.55
 21
761.325002697
  0
LINE
  8
2
  6
CONTINUOUS
 62
     1
 10
789.55
 20
787.325
 11
789.55
 21
761.325
  0
ARC
  8
2
  6
CONTINUOUS
 62
     1
 10
794.05
 20
787.325
 40
2.0
 50
0.0
 51
179.999922725
  0
ARC
  8
2
  6
CONTINUOUS
 62
     1
 10
794.05
 20
761.325
 40
2.0
 50
179.999922725
 51
0.0
  0
LINE
  8
2
  6
CONTINUOUS
 62
     1
 10
792.05
 20
787.325002697
 11
792.05
 21
761.325002697
  0
LINE
  8
2
  6
CONTINUOUS
 62
     1
 10
796.05
 20
787.325
 11
796.05
 21
761.325
  0
ARC
  8
2
  6
CONTINUOUS
 62
     1
 10
800.55
 20
787.325
 40
2.0
 50
0.0
 51
179.999922725
  0
ARC
  8
2
  6
CONTINUOUS
 62
     1
 10
800.55
 20
761.325
 40
2.0
 50
179.999922725
 51
0.0
  0
LINE
  8
2
  6
CONTINUOUS
 62
     1
 10
798.55
 20
787.325002697
 11
798.55
 21
761.325002697
  0
LINE
  8
2
  6
CONTINUOUS
 62
     1
 10
802.55
 20
787.325
 11
802.55
 21
761.325
  0
ARC
  8
2
  6
CONTINUOUS
 62
     1
 10
807.05
 20
787.325
 40
2.0
 50
0.0
 51
179.999922725
  0
ARC
  8
2
  6
CONTINUOUS
 62
     1
 10
807.05
 20
761.325
 40
2.0
 50
179.999922725
 51
0.0
  0
LINE
  8
2
  6
CONTINUOUS
 62
     1
 10
805.05
 20
787.325002697
 11
805.05
 21
761.325002697
  0
LINE
  8
2
  6
CONTINUOUS
 62
     1
 10
809.05
 20
787.325
 11
809.05
 21
761.325
  0
ARC
  8
2
  6
CONTINUOUS
 62
     1
 10
813.55
 20
787.325
 40
2.0
 50
0.0
 51
179.999922725
  0
ARC
  8
2
  6
CONTINUOUS
 62
     1
 10
813.55
 20
761.325
 40
2.0
 50
179.999922725
 51
0.0
  0
LINE
  8
2
  6
CONTINUOUS
 62
     1
 10
811.55
 20
787.325002697
 11
811.55
 21
761.325002697
  0
LINE
  8
2
  6
CONTINUOUS
 62
     1
 10
815.55
 20
787.325
 11
815.55
 21
761.325
  0
ARC
  8
2
  6
CONTINUOUS
 62
     1
 10
820.05
 20
787.325
 40
2.0
 50
0.0
 51
179.999922725
  0
ARC
  8
2
  6
CONTINUOUS
 62
     1
 10
820.05
 20
761.325
 40
2.0
 50
179.999922725
 51
0.0
  0
LINE
  8
2
  6
CONTINUOUS
 62
     1
 10
818.05
 20
787.325002697
 11
818.05
 21
761.325002697
  0
LINE
  8
2
  6
CONTINUOUS
 62
     1
 10
822.05
 20
787.325
 11
822.05
 21
761.325
  0
ARC
  8
2
  6
CONTINUOUS
 62
     1
 10
826.55
 20
787.325
 40
2.0
 50
0.0
 51
179.999922725
  0
ARC
  8
2
  6
CONTINUOUS
 62
     1
 10
826.55
 20
761.325
 40
2.0
 50
179.999922725
 51
0.0
  0
LINE
  8
2
  6
CONTINUOUS
 62
     1
 10
824.55
 20
787.325002697
 11
824.55
 21
761.325002697
  0
LINE
  8
2
  6
CONTINUOUS
 62
     1
 10
828.55
 20
787.325
 11
828.55
 21
761.325
  0
ARC
  8
2
  6
CONTINUOUS
 62
     1
 10
833.05
 20
787.325
 40
2.0
 50
0.0
 51
179.999922725
  0
ARC
  8
2
  6
CONTINUOUS
 62
     1
 10
833.05
 20
761.325
 40
2.0
 50
179.999922725
 51
0.0
  0
LINE
  8
2
  6
CONTINUOUS
 62
     1
 10
831.05
 20
787.325002697
 11
831.05
 21
761.325002697
  0
LINE
  8
2
  6
CONTINUOUS
 62
     1
 10
835.05
 20
787.325
 11
835.05
 21
761.325
  0
ARC
  8
2
  6
CONTINUOUS
 62
     1
 10
839.55
 20
787.325
 40
2.0
 50
0.0
 51
179.999922725
  0
ARC
  8
2
  6
CONTINUOUS
 62
     1
 10
839.55
 20
761.325
 40
2.0
 50
179.999922725
 51
0.0
  0
LINE
  8
2
  6
CONTINUOUS
 62
     1
 10
837.55
 20
787.325002697
 11
837.55
 21
761.325002697
  0
LINE
  8
2
  6
CONTINUOUS
 62
     1
 10
841.55
 20
787.325
 11
841.55
 21
761.325
  0
ARC
  8
2
  6
CONTINUOUS
 62
     1
 10
846.05
 20
787.325
 40
2.0
 50
0.0
 51
179.999922725
  0
ARC
  8
2
  6
CONTINUOUS
 62
     1
 10
846.05
 20
761.325
 40
2.0
 50
179.999922725
 51
0.0
  0
LINE
  8
2
  6
CONTINUOUS
 62
     1
 10
844.05
 20
787.325002697
 11
844.05
 21
761.325002697
  0
LINE
  8
2
  6
CONTINUOUS
 62
     1
 10
848.05
 20
787.325
 11
848.05
 21
761.325
  0
ARC
  8
2
  6
CONTINUOUS
 62
     1
 10
852.55
 20
787.325
 40
2.0
 50
0.0
 51
179.999922725
  0
ARC
  8
2
  6
CONTINUOUS
 62
     1
 10
852.55
 20
761.325
 40
2.0
 50
179.999922725
 51
0.0
  0
LINE
  8
2
  6
CONTINUOUS
 62
     1
 10
850.55
 20
787.325002697
 11
850.55
 21
761.325002697
  0
LINE
  8
2
  6
CONTINUOUS
 62
     1
 10
854.55
 20
787.325
 11
854.55
 21
761.325
  0
ARC
  8
2
  6
CONTINUOUS
 62
     1
 10
859.05
 20
787.325
 40
2.0
 50
0.0
 51
179.999922725
  0
ARC
  8
2
  6
CONTINUOUS
 62
     1
 10
859.05
 20
761.325
 40
2.0
 50
179.999922725
 51
0.0
  0
LINE
  8
2
  6
CONTINUOUS
 62
     1
 10
857.05
 20
787.325002697
 11
857.05
 21
761.325002697
  0
LINE
  8
2
  6
CONTINUOUS
 62
     1
 10
861.05
 20
787.325
 11
861.05
 21
761.325
  0
ARC
  8
2
  6
CONTINUOUS
 62
     1
 10
865.55
 20
787.325
 40
2.0
 50
0.0
 51
179.999922725
  0
ARC
  8
2
  6
CONTINUOUS
 62
     1
 10
865.55
 20
761.325
 40
2.0
 50
179.999922725
 51
0.0
  0
LINE
  8
2
  6
CONTINUOUS
 62
     1
 10
863.55
 20
787.325002697
 11
863.55
 21
761.325002697
  0
LINE
  8
2
  6
CONTINUOUS
 62
     1
 10
867.55
 20
787.325
 11
867.55
 21
761.325
  0
ARC
  8
2
  6
CONTINUOUS
 62
     1
 10
670.55
 20
787.325
 40
2.0
 50
0.0
 51
179.999922725
  0
ARC
  8
2
  6
CONTINUOUS
 62
     1
 10
670.55
 20
761.325
 40
2.0
 50
179.999922725
 51
0.0
  0
LINE
  8
2
  6
CONTINUOUS
 62
     1
 10
668.55
 20
787.325002697
 11
668.55
 21
761.325002697
  0
LINE
  8
2
  6
CONTINUOUS
 62
     1
 10
672.55
 20
787.325
 11
672.55
 21
761.325
  0
ARC
  8
2
  6
CONTINUOUS
 62
     1
 10
664.05
 20
787.325
 40
2.0
 50
0.0
 51
179.999922725
  0
ARC
  8
2
  6
CONTINUOUS
 62
     1
 10
664.05
 20
761.325
 40
2.0
 50
179.999922725
 51
0.0
  0
LINE
  8
2
  6
CONTINUOUS
 62
     1
 10
662.05
 20
787.325002697
 11
662.05
 21
761.325002697
  0
LINE
  8
2
  6
CONTINUOUS
 62
     1
 10
666.05
 20
787.325
 11
666.05
 21
761.325
  0
ARC
  8
2
  6
CONTINUOUS
 62
     1
 10
657.55
 20
787.325
 40
2.0
 50
0.0
 51
179.999922725
  0
ARC
  8
2
  6
CONTINUOUS
 62
     1
 10
657.55
 20
761.325
 40
2.0
 50
179.999922725
 51
0.0
  0
LINE
  8
2
  6
CONTINUOUS
 62
     1
 10
655.55
 20
787.325002697
 11
655.55
 21
761.325002697
  0
LINE
  8
2
  6
CONTINUOUS
 62
     1
 10
659.55
 20
787.325
 11
659.55
 21
761.325
  0
ARC
  8
2
  6
CONTINUOUS
 62
     1
 10
651.05
 20
787.325
 40
2.0
 50
0.0
 51
179.999922725
  0
ARC
  8
2
  6
CONTINUOUS
 62
     1
 10
651.05
 20
761.325
 40
2.0
 50
179.999922725
 51
0.0
  0
LINE
  8
2
  6
CONTINUOUS
 62
     1
 10
649.05
 20
787.325002697
 11
649.05
 21
761.325002697
  0
LINE
  8
2
  6
CONTINUOUS
 62
     1
 10
653.05
 20
787.325
 11
653.05
 21
761.325
  0
ARC
  8
2
  6
CONTINUOUS
 62
     1
 10
644.55
 20
787.325
 40
2.0
 50
0.0
 51
179.999922725
  0
ARC
  8
2
  6
CONTINUOUS
 62
     1
 10
644.55
 20
761.325
 40
2.0
 50
179.999922725
 51
0.0
  0
LINE
  8
2
  6
CONTINUOUS
 62
     1
 10
642.55
 20
787.325002697
 11
642.55
 21
761.325002697
  0
LINE
  8
2
  6
CONTINUOUS
 62
     1
 10
646.55
 20
787.325
 11
646.55
 21
761.325
  0
ARC
  8
2
  6
CONTINUOUS
 62
     1
 10
638.05
 20
787.325
 40
2.0
 50
0.0
 51
179.999922725
  0
ARC
  8
2
  6
CONTINUOUS
 62
     1
 10
638.05
 20
761.325
 40
2.0
 50
179.999922725
 51
0.0
  0
LINE
  8
2
  6
CONTINUOUS
 62
     1
 10
636.05
 20
787.325002697
 11
636.05
 21
761.325002697
  0
LINE
  8
2
  6
CONTINUOUS
 62
     1
 10
640.05
 20
787.325
 11
640.05
 21
761.325
  0
ARC
  8
2
  6
CONTINUOUS
 62
     1
 10
631.55
 20
787.325
 40
2.0
 50
0.0
 51
179.999922725
  0
ARC
  8
2
  6
CONTINUOUS
 62
     1
 10
631.55
 20
761.325
 40
2.0
 50
179.999922725
 51
0.0
  0
LINE
  8
2
  6
CONTINUOUS
 62
     1
 10
629.55
 20
787.325002697
 11
629.55
 21
761.325002697
  0
LINE
  8
2
  6
CONTINUOUS
 62
     1
 10
633.55
 20
787.325
 11
633.55
 21
761.325
  0
ARC
  8
2
  6
CONTINUOUS
 62
     1
 10
625.05
 20
787.325
 40
2.0
 50
0.0
 51
179.999922725
  0
ARC
  8
2
  6
CONTINUOUS
 62
     1
 10
625.05
 20
761.325
 40
2.0
 50
179.999922725
 51
0.0
  0
LINE
  8
2
  6
CONTINUOUS
 62
     1
 10
623.05
 20
787.325002697
 11
623.05
 21
761.325002697
  0
LINE
  8
2
  6
CONTINUOUS
 62
     1
 10
627.05
 20
787.325
 11
627.05
 21
761.325
  0
ARC
  8
2
  6
CONTINUOUS
 62
     1
 10
618.55
 20
787.325
 40
2.0
 50
0.0
 51
179.999922725
  0
ARC
  8
2
  6
CONTINUOUS
 62
     1
 10
618.55
 20
761.325
 40
2.0
 50
179.999922725
 51
0.0
  0
LINE
  8
2
  6
CONTINUOUS
 62
     1
 10
616.55
 20
787.325002697
 11
616.55
 21
761.325002697
  0
LINE
  8
2
  6
CONTINUOUS
 62
     1
 10
620.55
 20
787.325
 11
620.55
 21
761.325
  0
ARC
  8
2
  6
CONTINUOUS
 62
     1
 10
612.05
 20
787.325
 40
2.0
 50
0.0
 51
179.999922725
  0
ARC
  8
2
  6
CONTINUOUS
 62
     1
 10
612.05
 20
761.325
 40
2.0
 50
179.999922725
 51
0.0
  0
LINE
  8
2
  6
CONTINUOUS
 62
     1
 10
610.05
 20
787.325002697
 11
610.05
 21
761.325002697
  0
LINE
  8
2
  6
CONTINUOUS
 62
     1
 10
614.05
 20
787.325
 11
614.05
 21
761.325
  0
ARC
  8
2
  6
CONTINUOUS
 62
     1
 10
605.55
 20
787.325
 40
2.0
 50
0.0
 51
179.999922725
  0
ARC
  8
2
  6
CONTINUOUS
 62
     1
 10
605.55
 20
761.325
 40
2.0
 50
179.999922725
 51
0.0
  0
LINE
  8
2
  6
CONTINUOUS
 62
     1
 10
603.55
 20
787.325002697
 11
603.55
 21
761.325002697
  0
LINE
  8
2
  6
CONTINUOUS
 62
     1
 10
607.55
 20
787.325
 11
607.55
 21
761.325
  0
ARC
  8
2
  6
CONTINUOUS
 62
     1
 10
599.05
 20
787.325
 40
2.0
 50
0.0
 51
179.999922725
  0
ARC
  8
2
  6
CONTINUOUS
 62
     1
 10
599.05
 20
761.325
 40
2.0
 50
179.999922725
 51
0.0
  0
LINE
  8
2
  6
CONTINUOUS
 62
     1
 10
597.05
 20
787.325002697
 11
597.05
 21
761.325002697
  0
LINE
  8
2
  6
CONTINUOUS
 62
     1
 10
601.05
 20
787.325
 11
601.05
 21
761.325
  0
ARC
  8
2
  6
CONTINUOUS
 62
     1
 10
592.55
 20
787.325
 40
2.0
 50
0.0
 51
179.999922725
  0
ARC
  8
2
  6
CONTINUOUS
 62
     1
 10
592.55
 20
761.325
 40
2.0
 50
179.999922725
 51
0.0
  0
LINE
  8
2
  6
CONTINUOUS
 62
     1
 10
590.55
 20
787.325002697
 11
590.55
 21
761.325002697
  0
LINE
  8
2
  6
CONTINUOUS
 62
     1
 10
594.55
 20
787.325
 11
594.55
 21
761.325
  0
ARC
  8
2
  6
CONTINUOUS
 62
     1
 10
586.05
 20
787.325
 40
2.0
 50
0.0
 51
179.999922725
  0
ARC
  8
2
  6
CONTINUOUS
 62
     1
 10
586.05
 20
761.325
 40
2.0
 50
179.999922725
 51
0.0
  0
LINE
  8
2
  6
CONTINUOUS
 62
     1
 10
584.05
 20
787.325002697
 11
584.05
 21
761.325002697
  0
LINE
  8
2
  6
CONTINUOUS
 62
     1
 10
588.05
 20
787.325
 11
588.05
 21
761.325
  0
ARC
  8
2
  6
CONTINUOUS
 62
     1
 10
579.55
 20
787.325
 40
2.0
 50
0.0
 51
179.999922725
  0
ARC
  8
2
  6
CONTINUOUS
 62
     1
 10
579.55
 20
761.325
 40
2.0
 50
179.999922725
 51
0.0
  0
LINE
  8
2
  6
CONTINUOUS
 62
     1
 10
577.55
 20
787.325002697
 11
577.55
 21
761.325002697
  0
LINE
  8
2
  6
CONTINUOUS
 62
     1
 10
581.55
 20
787.325
 11
581.55
 21
761.325
  0
ARC
  8
2
  6
CONTINUOUS
 62
     1
 10
573.05
 20
787.325
 40
2.0
 50
0.0
 51
179.999922725
  0
ARC
  8
2
  6
CONTINUOUS
 62
     1
 10
573.05
 20
761.325
 40
2.0
 50
179.999922725
 51
0.0
  0
LINE
  8
2
  6
CONTINUOUS
 62
     1
 10
571.05
 20
787.325002697
 11
571.05
 21
761.325002697
  0
LINE
  8
2
  6
CONTINUOUS
 62
     1
 10
575.05
 20
787.325
 11
575.05
 21
761.325
  0
ARC
  8
2
  6
CONTINUOUS
 62
     1
 10
566.55
 20
787.325
 40
2.0
 50
0.0
 51
179.999922725
  0
ARC
  8
2
  6
CONTINUOUS
 62
     1
 10
566.55
 20
761.325
 40
2.0
 50
179.999922725
 51
0.0
  0
LINE
  8
2
  6
CONTINUOUS
 62
     1
 10
564.55
 20
787.325002697
 11
564.55
 21
761.325002697
  0
LINE
  8
2
  6
CONTINUOUS
 62
     1
 10
568.55
 20
787.325
 11
568.55
 21
761.325
  0
ARC
  8
2
  6
CONTINUOUS
 62
     1
 10
560.05
 20
787.325
 40
2.0
 50
0.0
 51
179.999922725
  0
ARC
  8
2
  6
CONTINUOUS
 62
     1
 10
560.05
 20
761.325
 40
2.0
 50
179.999922725
 51
0.0
  0
LINE
  8
2
  6
CONTINUOUS
 62
     1
 10
558.05
 20
787.325002697
 11
558.05
 21
761.325002697
  0
LINE
  8
2
  6
CONTINUOUS
 62
     1
 10
562.05
 20
787.325
 11
562.05
 21
761.325
  0
ARC
  8
2
  6
CONTINUOUS
 62
     1
 10
553.55
 20
787.325
 40
2.0
 50
0.0
 51
179.999922725
  0
ARC
  8
2
  6
CONTINUOUS
 62
     1
 10
553.55
 20
761.325
 40
2.0
 50
179.999922725
 51
0.0
  0
LINE
  8
2
  6
CONTINUOUS
 62
     1
 10
551.55
 20
787.325002697
 11
551.55
 21
761.325002697
  0
LINE
  8
2
  6
CONTINUOUS
 62
     1
 10
555.55
 20
787.325
 11
555.55
 21
761.325
  0
ARC
  8
2
  6
CONTINUOUS
 62
     1
 10
547.05
 20
787.325
 40
2.0
 50
0.0
 51
179.999922725
  0
ARC
  8
2
  6
CONTINUOUS
 62
     1
 10
547.05
 20
761.325
 40
2.0
 50
179.999922725
 51
0.0
  0
LINE
  8
2
  6
CONTINUOUS
 62
     1
 10
545.05
 20
787.325002697
 11
545.05
 21
761.325002697
  0
LINE
  8
2
  6
CONTINUOUS
 62
     1
 10
549.05
 20
787.325
 11
549.05
 21
761.325
  0
ARC
  8
2
  6
CONTINUOUS
 62
     1
 10
540.55
 20
787.325
 40
2.0
 50
0.0
 51
179.999922725
  0
ARC
  8
2
  6
CONTINUOUS
 62
     1
 10
540.55
 20
761.325
 40
2.0
 50
179.999922725
 51
0.0
  0
LINE
  8
2
  6
CONTINUOUS
 62
     1
 10
538.55
 20
787.325002697
 11
538.55
 21
761.325002697
  0
LINE
  8
2
  6
CONTINUOUS
 62
     1
 10
542.55
 20
787.325
 11
542.55
 21
761.325
  0
ARC
  8
2
  6
CONTINUOUS
 62
     1
 10
534.05
 20
787.325
 40
2.0
 50
0.0
 51
179.999922725
  0
ARC
  8
2
  6
CONTINUOUS
 62
     1
 10
534.05
 20
761.325
 40
2.0
 50
179.999922725
 51
0.0
  0
LINE
  8
2
  6
CONTINUOUS
 62
     1
 10
532.05
 20
787.325002697
 11
532.05
 21
761.325002697
  0
LINE
  8
2
  6
CONTINUOUS
 62
     1
 10
536.05
 20
787.325
 11
536.05
 21
761.325
  0
ARC
  8
2
  6
CONTINUOUS
 62
     1
 10
527.55
 20
787.325
 40
2.0
 50
0.0
 51
179.999922725
  0
ARC
  8
2
  6
CONTINUOUS
 62
     1
 10
527.55
 20
761.325
 40
2.0
 50
179.999922725
 51
0.0
  0
LINE
  8
2
  6
CONTINUOUS
 62
     1
 10
525.55
 20
787.325002697
 11
525.55
 21
761.325002697
  0
LINE
  8
2
  6
CONTINUOUS
 62
     1
 10
529.55
 20
787.325
 11
529.55
 21
761.325
  0
ARC
  8
2
  6
CONTINUOUS
 62
     1
 10
521.05
 20
787.325
 40
2.0
 50
0.0
 51
179.999922725
  0
ARC
  8
2
  6
CONTINUOUS
 62
     1
 10
521.05
 20
761.325
 40
2.0
 50
179.999922725
 51
0.0
  0
LINE
  8
2
  6
CONTINUOUS
 62
     1
 10
519.05
 20
787.325002697
 11
519.05
 21
761.325002697
  0
LINE
  8
2
  6
CONTINUOUS
 62
     1
 10
523.05
 20
787.325
 11
523.05
 21
761.325
  0
ARC
  8
2
  6
CONTINUOUS
 62
     1
 10
514.55
 20
787.325
 40
2.0
 50
0.0
 51
179.999922725
  0
ARC
  8
2
  6
CONTINUOUS
 62
     1
 10
514.55
 20
761.325
 40
2.0
 50
179.999922725
 51
0.0
  0
LINE
  8
2
  6
CONTINUOUS
 62
     1
 10
512.55
 20
787.325002697
 11
512.55
 21
761.325002697
  0
LINE
  8
2
  6
CONTINUOUS
 62
     1
 10
516.55
 20
787.325
 11
516.55
 21
761.325
  0
ARC
  8
2
  6
CONTINUOUS
 62
     1
 10
508.05
 20
787.325
 40
2.0
 50
0.0
 51
179.999922725
  0
ARC
  8
2
  6
CONTINUOUS
 62
     1
 10
508.05
 20
761.325
 40
2.0
 50
179.999922725
 51
0.0
  0
LINE
  8
2
  6
CONTINUOUS
 62
     1
 10
506.05
 20
787.325002697
 11
506.05
 21
761.325002697
  0
LINE
  8
2
  6
CONTINUOUS
 62
     1
 10
510.05
 20
787.325
 11
510.05
 21
761.325
  0
ARC
  8
2
  6
CONTINUOUS
 62
     1
 10
501.55
 20
787.325
 40
2.0
 50
0.0
 51
179.999922725
  0
ARC
  8
2
  6
CONTINUOUS
 62
     1
 10
501.55
 20
761.325
 40
2.0
 50
179.999922725
 51
0.0
  0
LINE
  8
2
  6
CONTINUOUS
 62
     1
 10
499.55
 20
787.325002697
 11
499.55
 21
761.325002697
  0
LINE
  8
2
  6
CONTINUOUS
 62
     1
 10
503.55
 20
787.325
 11
503.55
 21
761.325
  0
ARC
  8
2
  6
CONTINUOUS
 62
     1
 10
495.05
 20
787.325
 40
2.0
 50
0.0
 51
179.999922725
  0
ARC
  8
2
  6
CONTINUOUS
 62
     1
 10
495.05
 20
761.325
 40
2.0
 50
179.999922725
 51
0.0
  0
LINE
  8
2
  6
CONTINUOUS
 62
     1
 10
493.05
 20
787.325002697
 11
493.05
 21
761.325002697
  0
LINE
  8
2
  6
CONTINUOUS
 62
     1
 10
497.05
 20
787.325
 11
497.05
 21
761.325
  0
ARC
  8
2
  6
CONTINUOUS
 62
     1
 10
488.55
 20
787.325
 40
2.0
 50
0.0
 51
179.999922725
  0
ARC
  8
2
  6
CONTINUOUS
 62
     1
 10
488.55
 20
761.325
 40
2.0
 50
179.999922725
 51
0.0
  0
LINE
  8
2
  6
CONTINUOUS
 62
     1
 10
486.55
 20
787.325002697
 11
486.55
 21
761.325002697
  0
LINE
  8
2
  6
CONTINUOUS
 62
     1
 10
490.55
 20
787.325
 11
490.55
 21
761.325
  0
ARC
  8
2
  6
CONTINUOUS
 62
     1
 10
482.05
 20
787.325
 40
2.0
 50
0.0
 51
179.999922725
  0
ARC
  8
2
  6
CONTINUOUS
 62
     1
 10
482.05
 20
761.325
 40
2.0
 50
179.999922725
 51
0.0
  0
LINE
  8
2
  6
CONTINUOUS
 62
     1
 10
480.05
 20
787.325002697
 11
480.05
 21
761.325002697
  0
LINE
  8
2
  6
CONTINUOUS
 62
     1
 10
484.05
 20
787.325
 11
484.05
 21
761.325
  0
ARC
  8
2
  6
CONTINUOUS
 62
     1
 10
872.05
 20
787.325
 40
2.0
 50
0.0
 51
179.999922725
  0
ARC
  8
2
  6
CONTINUOUS
 62
     1
 10
872.05
 20
761.325
 40
2.0
 50
179.999922725
 51
0.0
  0
LINE
  8
2
  6
CONTINUOUS
 62
     1
 10
870.05
 20
787.325002697
 11
870.05
 21
761.325002697
  0
LINE
  8
2
  6
CONTINUOUS
 62
     1
 10
874.05
 20
787.325
 11
874.05
 21
761.325
  0
ARC
  8
2
  6
CONTINUOUS
 62
     1
 10
878.55
 20
787.325
 40
2.0
 50
0.0
 51
179.999922725
  0
ARC
  8
2
  6
CONTINUOUS
 62
     1
 10
878.55
 20
761.325
 40
2.0
 50
179.999922725
 51
0.0
  0
LINE
  8
2
  6
CONTINUOUS
 62
     1
 10
876.55
 20
787.325002697
 11
876.55
 21
761.325002697
  0
LINE
  8
2
  6
CONTINUOUS
 62
     1
 10
880.55
 20
787.325
 11
880.55
 21
761.325
  0
ARC
  8
2
  6
CONTINUOUS
 62
     1
 10
475.55
 20
787.325
 40
2.0
 50
0.0
 51
179.999922725
  0
ARC
  8
2
  6
CONTINUOUS
 62
     1
 10
475.55
 20
761.325
 40
2.0
 50
179.999922725
 51
0.0
  0
LINE
  8
2
  6
CONTINUOUS
 62
     1
 10
473.55
 20
787.325002697
 11
473.55
 21
761.325002697
  0
LINE
  8
2
  6
CONTINUOUS
 62
     1
 10
477.55
 20
787.325
 11
477.55
 21
761.325
  0
ARC
  8
2
  6
CONTINUOUS
 62
     1
 10
469.05
 20
787.325
 40
2.0
 50
0.0
 51
179.999922725
  0
ARC
  8
2
  6
CONTINUOUS
 62
     1
 10
469.05
 20
761.325
 40
2.0
 50
179.999922725
 51
0.0
  0
LINE
  8
2
  6
CONTINUOUS
 62
     1
 10
467.05
 20
787.325002697
 11
467.05
 21
761.325002697
  0
LINE
  8
2
  6
CONTINUOUS
 62
     1
 10
471.05
 20
787.325
 11
471.05
 21
761.325
  0
LINE
  8
2
  6
CONTINUOUS
 62
     1
 10
469.05
 20
787.325001349
 11
469.05
 21
761.325001349
  0
LINE
  8
2
  6
CONTINUOUS
 62
     1
 10
878.55
 20
787.325001349
 11
878.55
 21
761.325001349
  0
LINE
  8
2
  6
CONTINUOUS
 62
     1
 10
475.55
 20
787.325001349
 11
475.55
 21
761.325001349
  0
CIRCLE
  8
2
  6
CONTINUOUS
 62
     1
 10
906.3624
 20
1192.85
 40
3.1
  0
CIRCLE
  8
2
  6
CONTINUOUS
 62
     1
 10
906.3624
 20
1176.95
 40
3.1
  0
CIRCLE
  8
2
  6
CONTINUOUS
 62
     1
 10
906.3624
 20
1161.05
 40
3.1
  0
CIRCLE
  8
2
  6
CONTINUOUS
 62
     1
 10
906.3624
 20
1192.85
 40
3.1
  0
CIRCLE
  8
2
  6
CONTINUOUS
 62
     1
 10
906.3624
 20
1176.95
 40
3.1
  0
CIRCLE
  8
2
  6
CONTINUOUS
 62
     1
 10
906.3624
 20
1161.05
 40
3.1
  0
CIRCLE
  8
2
  6
CONTINUOUS
 62
     1
 10
906.3624
 20
1237.3
 40
3.1
  0
CIRCLE
  8
2
  6
CONTINUOUS
 62
     1
 10
906.3624
 20
1221.4
 40
3.1
  0
CIRCLE
  8
2
  6
CONTINUOUS
 62
     1
 10
906.3624
 20
1205.5
 40
3.1
  0
CIRCLE
  8
2
  6
CONTINUOUS
 62
     1
 10
906.3624
 20
1237.3
 40
3.1
  0
CIRCLE
  8
2
  6
CONTINUOUS
 62
     1
 10
906.3624
 20
1221.4
 40
3.1
  0
CIRCLE
  8
2
  6
CONTINUOUS
 62
     1
 10
906.3624
 20
1205.5
 40
3.1
  0
CIRCLE
  8
2
  6
CONTINUOUS
 62
     1
 10
906.3624
 20
1281.75
 40
3.1
  0
CIRCLE
  8
2
  6
CONTINUOUS
 62
     1
 10
906.3624
 20
1265.85
 40
3.1
  0
CIRCLE
  8
2
  6
CONTINUOUS
 62
     1
 10
906.3624
 20
1249.95
 40
3.1
  0
CIRCLE
  8
2
  6
CONTINUOUS
 62
     1
 10
906.3624
 20
1281.75
 40
3.1
  0
CIRCLE
  8
2
  6
CONTINUOUS
 62
     1
 10
906.3624
 20
1265.85
 40
3.1
  0
CIRCLE
  8
2
  6
CONTINUOUS
 62
     1
 10
906.3624
 20
1249.95
 40
3.1
  0
CIRCLE
  8
2
  6
CONTINUOUS
 62
     1
 10
906.3624
 20
1326.2
 40
3.1
  0
CIRCLE
  8
2
  6
CONTINUOUS
 62
     1
 10
906.3624
 20
1310.3
 40
3.1
  0
CIRCLE
  8
2
  6
CONTINUOUS
 62
     1
 10
906.3624
 20
1294.4
 40
3.1
  0
CIRCLE
  8
2
  6
CONTINUOUS
 62
     1
 10
906.3624
 20
1326.2
 40
3.1
  0
CIRCLE
  8
2
  6
CONTINUOUS
 62
     1
 10
906.3624
 20
1310.3
 40
3.1
  0
CIRCLE
  8
2
  6
CONTINUOUS
 62
     1
 10
906.3624
 20
1294.4
 40
3.1
  0
CIRCLE
  8
2
  6
CONTINUOUS
 62
     1
 10
906.3624
 20
1148.4
 40
3.1
  0
CIRCLE
  8
2
  6
CONTINUOUS
 62
     1
 10
906.3624
 20
1132.5
 40
3.1
  0
CIRCLE
  8
2
  6
CONTINUOUS
 62
     1
 10
906.3624
 20
1116.6
 40
3.1
  0
CIRCLE
  8
2
  6
CONTINUOUS
 62
     1
 10
906.3624
 20
1148.4
 40
3.1
  0
CIRCLE
  8
2
  6
CONTINUOUS
 62
     1
 10
906.3624
 20
1132.5
 40
3.1
  0
CIRCLE
  8
2
  6
CONTINUOUS
 62
     1
 10
906.3624
 20
1116.6
 40
3.1
  0
CIRCLE
  8
2
  6
CONTINUOUS
 62
     1
 10
906.3624
 20
1103.95
 40
3.1
  0
CIRCLE
  8
2
  6
CONTINUOUS
 62
     1
 10
906.3624
 20
1088.05
 40
3.1
  0
CIRCLE
  8
2
  6
CONTINUOUS
 62
     1
 10
906.3624
 20
1072.15
 40
3.1
  0
CIRCLE
  8
2
  6
CONTINUOUS
 62
     1
 10
906.3624
 20
1103.95
 40
3.1
  0
CIRCLE
  8
2
  6
CONTINUOUS
 62
     1
 10
906.3624
 20
1088.05
 40
3.1
  0
CIRCLE
  8
2
  6
CONTINUOUS
 62
     1
 10
906.3624
 20
1072.15
 40
3.1
  0
CIRCLE
  8
2
  6
CONTINUOUS
 62
     1
 10
906.3624
 20
1059.5
 40
3.1
  0
CIRCLE
  8
2
  6
CONTINUOUS
 62
     1
 10
906.3624
 20
1043.6
 40
3.1
  0
CIRCLE
  8
2
  6
CONTINUOUS
 62
     1
 10
906.3624
 20
1027.7
 40
3.1
  0
CIRCLE
  8
2
  6
CONTINUOUS
 62
     1
 10
906.3624
 20
1059.5
 40
3.1
  0
CIRCLE
  8
2
  6
CONTINUOUS
 62
     1
 10
906.3624
 20
1043.6
 40
3.1
  0
CIRCLE
  8
2
  6
CONTINUOUS
 62
     1
 10
906.3624
 20
1027.7
 40
3.1
  0
CIRCLE
  8
2
  6
CONTINUOUS
 62
     1
 10
906.3624
 20
1015.05
 40
3.1
  0
CIRCLE
  8
2
  6
CONTINUOUS
 62
     1
 10
906.3624
 20
999.15
 40
3.1
  0
CIRCLE
  8
2
  6
CONTINUOUS
 62
     1
 10
906.3624
 20
983.25
 40
3.1
  0
CIRCLE
  8
2
  6
CONTINUOUS
 62
     1
 10
906.3624
 20
1015.05
 40
3.1
  0
CIRCLE
  8
2
  6
CONTINUOUS
 62
     1
 10
906.3624
 20
999.15
 40
3.1
  0
CIRCLE
  8
2
  6
CONTINUOUS
 62
     1
 10
906.3624
 20
983.25
 40
3.1
  0
LINE
  8
2
  6
CONTINUOUS
 62
     1
 10
923.8
 20
954.725
 11
923.8
 21
1354.725
  0
ARC
  8
2
  6
CONTINUOUS
 62
     1
 10
448.3
 20
1154.725
 40
1.7
 50
180.0
 51
270.0
  0
ARC
  8
2
  6
CONTINUOUS
 62
     1
 10
448.3
 20
1154.725
 40
1.7
 50
90.0
 51
180.0
  0
ARC
  8
2
  6
CONTINUOUS
 62
     1
 10
448.3
 20
1199.175
 40
1.7
 50
180.0
 51
270.0
  0
ARC
  8
2
  6
CONTINUOUS
 62
     1
 10
448.3
 20
1199.175
 40
1.7
 50
90.0
 51
180.0
  0
ARC
  8
2
  6
CONTINUOUS
 62
     1
 10
448.3
 20
1243.625
 40
1.7
 50
180.0
 51
270.0
  0
ARC
  8
2
  6
CONTINUOUS
 62
     1
 10
448.3
 20
1243.625
 40
1.7
 50
90.0
 51
180.0
  0
ARC
  8
2
  6
CONTINUOUS
 62
     1
 10
448.3
 20
1288.075
 40
1.7
 50
180.0
 51
270.0
  0
ARC
  8
2
  6
CONTINUOUS
 62
     1
 10
448.3
 20
1288.075
 40
1.7
 50
90.0
 51
180.0
  0
ARC
  8
2
  6
CONTINUOUS
 62
     1
 10
448.3
 20
1332.525
 40
1.7
 50
180.0
 51
270.0
  0
ARC
  8
2
  6
CONTINUOUS
 62
     1
 10
448.3
 20
1110.275
 40
1.7
 50
180.0
 51
270.0
  0
ARC
  8
2
  6
CONTINUOUS
 62
     1
 10
448.3
 20
1110.275
 40
1.7
 50
90.0
 51
180.0
  0
ARC
  8
2
  6
CONTINUOUS
 62
     1
 10
448.3
 20
1065.825
 40
1.7
 50
180.0
 51
270.0
  0
ARC
  8
2
  6
CONTINUOUS
 62
     1
 10
448.3
 20
1065.825
 40
1.7
 50
90.0
 51
180.0
  0
ARC
  8
2
  6
CONTINUOUS
 62
     1
 10
448.3
 20
1021.375
 40
1.7
 50
180.0
 51
270.0
  0
ARC
  8
2
  6
CONTINUOUS
 62
     1
 10
448.3
 20
1021.375
 40
1.7
 50
90.0
 51
180.0
  0
ARC
  8
2
  6
CONTINUOUS
 62
     1
 10
448.3
 20
976.925
 40
1.7
 50
90.0
 51
180.0
  0
LINE
  8
2
  6
CONTINUOUS
 62
     1
 10
448.3
 20
1330.825
 11
448.3
 21
1289.775
  0
LINE
  8
2
  6
CONTINUOUS
 62
     1
 10
448.3
 20
1286.375
 11
448.3
 21
1245.325
  0
LINE
  8
2
  6
CONTINUOUS
 62
     1
 10
448.3
 20
1241.925
 11
448.3
 21
1200.875
  0
LINE
  8
2
  6
CONTINUOUS
 62
     1
 10
448.3
 20
1197.475
 11
448.3
 21
1156.425
  0
LINE
  8
2
  6
CONTINUOUS
 62
     1
 10
448.3
 20
1153.025
 11
448.3
 21
1111.975
  0
LINE
  8
2
  6
CONTINUOUS
 62
     1
 10
448.3
 20
1108.575
 11
448.3
 21
1067.525
  0
LINE
  8
2
  6
CONTINUOUS
 62
     1
 10
448.3
 20
1064.125
 11
448.3
 21
1023.075
  0
LINE
  8
2
  6
CONTINUOUS
 62
     1
 10
448.3
 20
1019.675
 11
448.3
 21
978.625
  0
ARC
  8
2
  6
CONTINUOUS
 62
     1
 10
899.3
 20
1154.725
 40
1.7
 50
270.0
 51
0.0
  0
ARC
  8
2
  6
CONTINUOUS
 62
     1
 10
899.3
 20
1154.725
 40
1.7
 50
0.0
 51
90.0
  0
ARC
  8
2
  6
CONTINUOUS
 62
     1
 10
899.3
 20
1199.175
 40
1.7
 50
270.0
 51
0.0
  0
ARC
  8
2
  6
CONTINUOUS
 62
     1
 10
899.3
 20
1199.175
 40
1.7
 50
0.0
 51
90.0
  0
ARC
  8
2
  6
CONTINUOUS
 62
     1
 10
899.3
 20
1243.625
 40
1.7
 50
270.0
 51
0.0
  0
ARC
  8
2
  6
CONTINUOUS
 62
     1
 10
899.3
 20
1243.625
 40
1.7
 50
0.0
 51
90.0
  0
ARC
  8
2
  6
CONTINUOUS
 62
     1
 10
899.3
 20
1288.075
 40
1.7
 50
270.0
 51
0.0
  0
ARC
  8
2
  6
CONTINUOUS
 62
     1
 10
899.3
 20
1288.075
 40
1.7
 50
0.0
 51
90.0
  0
ARC
  8
2
  6
CONTINUOUS
 62
     1
 10
899.3
 20
1332.525
 40
1.7
 50
270.0
 51
0.0
  0
ARC
  8
2
  6
CONTINUOUS
 62
     1
 10
899.3
 20
1110.275
 40
1.7
 50
270.0
 51
0.0
  0
ARC
  8
2
  6
CONTINUOUS
 62
     1
 10
899.3
 20
1110.275
 40
1.7
 50
0.0
 51
90.0
  0
ARC
  8
2
  6
CONTINUOUS
 62
     1
 10
899.3
 20
1065.825
 40
1.7
 50
270.0
 51
0.0
  0
ARC
  8
2
  6
CONTINUOUS
 62
     1
 10
899.3
 20
1065.825
 40
1.7
 50
0.0
 51
90.0
  0
ARC
  8
2
  6
CONTINUOUS
 62
     1
 10
899.3
 20
1021.375
 40
1.7
 50
270.0
 51
0.0
  0
ARC
  8
2
  6
CONTINUOUS
 62
     1
 10
899.3
 20
1021.375
 40
1.7
 50
0.0
 51
90.0
  0
ARC
  8
2
  6
CONTINUOUS
 62
     1
 10
899.3
 20
976.925
 40
1.7
 50
0.0
 51
90.0
  0
LINE
  8
2
  6
CONTINUOUS
 62
     1
 10
899.3
 20
1330.825
 11
899.3
 21
1289.775
  0
LINE
  8
2
  6
CONTINUOUS
 62
     1
 10
899.3
 20
1286.375
 11
899.3
 21
1245.325
  0
LINE
  8
2
  6
CONTINUOUS
 62
     1
 10
899.3
 20
1241.925
 11
899.3
 21
1200.875
  0
LINE
  8
2
  6
CONTINUOUS
 62
     1
 10
899.3
 20
1197.475
 11
899.3
 21
1156.425
  0
LINE
  8
2
  6
CONTINUOUS
 62
     1
 10
899.3
 20
1153.025
 11
899.3
 21
1111.975
  0
LINE
  8
2
  6
CONTINUOUS
 62
     1
 10
899.3
 20
1108.575
 11
899.3
 21
1067.525
  0
LINE
  8
2
  6
CONTINUOUS
 62
     1
 10
899.3
 20
1064.125
 11
899.3
 21
1023.075
  0
LINE
  8
2
  6
CONTINUOUS
 62
     1
 10
899.3
 20
1019.675
 11
899.3
 21
978.625
  0
LINE
  8
2
  6
CONTINUOUS
 62
     1
 10
1544.65
 20
774.7
 11
1144.65
 21
774.7
  0
LINE
  8
2
  6
CONTINUOUS
 62
     1
 10
1544.65
 20
774.7
 11
1144.65
 21
774.7
  0
LINE
  8
2
  6
CONTINUOUS
 62
     1
 10
1544.65
 20
841.375
 11
1144.65
 21
841.375
  0
LINE
  8
2
  6
CONTINUOUS
 62
     1
 10
1546.25
 20
752.475
 11
1546.25
 21
842.975
  0
LINE
  8
2
  6
CONTINUOUS
 62
     1
 10
1143.05
 20
752.475
 11
1143.05
 21
842.975
  0
POLYLINE
  8
2
  6
LTYPE2
 62
     2
 66
     1
  0
VERTEX
  8
2
  6
LTYPE2
 62
     2
 10
1517.65
 20
794.95
  0
VERTEX
  8
2
  6
LTYPE2
 62
     2
 10
1516.05
 20
794.95
  0
VERTEX
  8
2
  6
LTYPE2
 62
     2
 10
1516.05
 20
796.55
  0
SEQEND
  0
LINE
  8
2
  6
LTYPE2
 62
     2
 10
1517.65
 20
794.95
 11
1517.65
 21
754.45
  0
LINE
  8
2
  6
LTYPE2
 62
     2
 10
1516.05
 20
752.85
 11
1516.05
 21
754.45
  0
LINE
  8
2
  6
LTYPE2
 62
     2
 10
1516.05
 20
754.45
 11
1517.65
 21
754.45
  0
LINE
  8
2
  6
LTYPE2
 62
     2
 10
1173.25
 20
752.85
 11
1516.05
 21
752.85
  0
LINE
  8
2
  6
LTYPE2
 62
     2
 10
1171.65
 20
754.45
 11
1173.25
 21
754.45
  0
LINE
  8
2
  6
LTYPE2
 62
     2
 10
1173.25
 20
754.45
 11
1173.25
 21
752.85
  0
LINE
  8
2
  6
LTYPE2
 62
     2
 10
1516.05
 20
796.55
 11
1173.25
 21
796.55
  0
LINE
  8
2
  6
LTYPE2
 62
     2
 10
1171.65
 20
794.95
 11
1171.65
 21
754.45
  0
LINE
  8
2
  6
LTYPE2
 62
     2
 10
1173.25
 20
796.55
 11
1173.25
 21
794.95
  0
LINE
  8
2
  6
LTYPE2
 62
     2
 10
1173.25
 20
794.95
 11
1171.65
 21
794.95
  0
CIRCLE
  8
2
  6
CONTINUOUS
 62
     2
 10
1504.65
 20
784.7
 40
6.1
  0
CIRCLE
  8
2
  6
CONTINUOUS
 62
     2
 10
1184.65
 20
784.7
 40
6.1
  0
LINE
  8
2
  6
CONTINUOUS
 62
     1
 10
1544.65
 20
752.475
 11
1546.25
 21
752.475
  0
POLYLINE
  8
2
  6
CONTINUOUS
 62
     1
 66
     1
  0
VERTEX
  8
2
  6
CONTINUOUS
 62
     1
 10
1546.25
 20
842.975
  0
VERTEX
  8
2
  6
CONTINUOUS
 62
     1
 10
1522.45
 20
842.975
  0
VERTEX
  8
2
  6
CONTINUOUS
 62
     1
 10
1522.45
 20
841.375
  0
SEQEND
  0
LINE
  8
2
  6
CONTINUOUS
 62
     1
 10
1144.65
 20
752.475
 11
1143.05
 21
752.475
  0
POLYLINE
  8
2
  6
CONTINUOUS
 62
     1
 66
     1
  0
VERTEX
  8
2
  6
CONTINUOUS
 62
     1
 10
1143.05
 20
842.975
  0
VERTEX
  8
2
  6
CONTINUOUS
 62
     1
 10
1166.85
 20
842.975
  0
VERTEX
  8
2
  6
CONTINUOUS
 62
     1
 10
1166.85
 20
841.375
  0
SEQEND
  0
LINE
  8
2
  6
CONTINUOUS
 62
     1
 10
1544.65
 20
841.375
 11
1544.65
 21
774.7
  0
LINE
  8
2
  6
CONTINUOUS
 62
     1
 10
1144.65
 20
774.7
 11
1144.65
 21
841.375
  0
TEXT
  8
6
  6
CONTINUOUS
 62
     2
 10
1045.693347099
 20
1323.649999667
 30
1.5
 40
25.0
  1
組立て参考図
 50
0.0
 41
0.94
 51
0.0
  7
KANJI0
  0
TEXT
  8
6
  6
CONTINUOUS
 62
     2
 10
1360.793347099
 20
1323.999999667
 30
1.5
 40
25.0
  1
構成商品
 50
0.0
 41
0.94
 51
0.0
  7
KANJI0
  0
TEXT
  8
6
  6
CONTINUOUS
 62
     2
 10
1360.793347099
 20
1223.999999667
 30
1.5
 40
25.0
  1
ＡＬＪ－００２－１３Ｕ
 50
0.0
 41
0.94
 51
0.0
  7
KANJI0
  0
TEXT
  8
6
  6
CONTINUOUS
 62
     2
 10
1360.793347099
 20
1273.999999667
 30
1.5
 40
25.0
  1
ＡＬＪ－００５
 50
0.0
 41
0.47
 51
0.0
  7
KANJI1
  0
LINE
  8
6
  6
CONTINUOUS
 62
     2
 10
423.8
 20
847.975
 11
423.8
 21
910.275
  0
LINE
  8
6
  6
CONTINUOUS
 62
     2
 10
423.8
 20
900.275
 11
435.874072829
 21
897.039761936
  0
LINE
  8
6
  6
CONTINUOUS
 62
     2
 10
423.8
 20
900.275
 11
435.874072829
 21
903.510238064
  0
LINE
  8
6
  6
CONTINUOUS
 62
     2
 10
423.8
 20
900.275
 11
923.8
 21
900.275
  0
LINE
  8
6
  6
CONTINUOUS
 62
     2
 10
923.8
 20
900.275
 11
911.725927171
 21
903.510238064
  0
LINE
  8
6
  6
CONTINUOUS
 62
     2
 10
923.8
 20
900.275
 11
911.725927171
 21
897.039761936
  0
LINE
  8
6
  6
CONTINUOUS
 62
     2
 10
923.8
 20
847.975
 11
923.8
 21
910.275
  0
TEXT
  8
6
  6
CONTINUOUS
 62
     2
 10
658.8
 20
910.275
 30
1.5
 40
15.0
  1
５００
 50
0.0
 41
0.6
 51
0.0
  7
KANJI2
  0
LINE
  8
6
  6
CONTINUOUS
 62
     2
 10
1144.65
 20
846.375
 11
1144.65
 21
910.275
  0
LINE
  8
6
  6
CONTINUOUS
 62
     2
 10
1144.65
 20
900.275
 11
1156.724072829
 21
897.039761936
  0
LINE
  8
6
  6
CONTINUOUS
 62
     2
 10
1144.65
 20
900.275
 11
1156.724072829
 21
903.510238064
  0
LINE
  8
6
  6
CONTINUOUS
 62
     2
 10
1144.65
 20
900.275
 11
1544.65
 21
900.275
  0
LINE
  8
6
  6
CONTINUOUS
 62
     2
 10
1544.65
 20
900.275
 11
1532.575927171
 21
903.510238064
  0
LINE
  8
6
  6
CONTINUOUS
 62
     2
 10
1544.65
 20
900.275
 11
1532.575927171
 21
897.039761936
  0
LINE
  8
6
  6
CONTINUOUS
 62
     2
 10
1544.65
 20
846.375
 11
1544.65
 21
910.275
  0
TEXT
  8
6
  6
CONTINUOUS
 62
     2
 10
1329.65
 20
910.275
 30
1.5
 40
15.0
  1
４００
 50
0.0
 41
0.6
 51
0.0
  7
KANJI2
  0
LINE
  8
6
  6
CONTINUOUS
 62
     2
 10
928.8
 20
1332.525
 11
1014.5
 21
1332.525
  0
LINE
  8
6
  6
CONTINUOUS
 62
     2
 10
1004.5
 20
1332.525
 11
1001.264761936
 21
1320.450927171
  0
LINE
  8
6
  6
CONTINUOUS
 62
     2
 10
1004.5
 20
1332.525
 11
1007.735238064
 21
1320.450927171
  0
LINE
  8
6
  6
CONTINUOUS
 62
     2
 10
1004.5
 20
1332.525
 11
1004.5
 21
976.925
  0
LINE
  8
6
  6
CONTINUOUS
 62
     2
 10
1004.5
 20
976.925
 11
1007.735238064
 21
988.999072829
  0
LINE
  8
6
  6
CONTINUOUS
 62
     2
 10
1004.5
 20
976.925
 11
1001.264761936
 21
988.999072829
  0
LINE
  8
6
  6
CONTINUOUS
 62
     2
 10
928.8
 20
976.925
 11
1014.5
 21
976.925
  0
TEXT
  8
6
  6
CONTINUOUS
 62
     2
 10
994.5
 20
1144.975
 30
1.5
 40
15.0
  1
８Ｕ
 50
90.0
 41
0.6
 51
0.0
  7
KANJI2
  0
LINE
  8
6
  6
CONTINUOUS
 62
     2
 10
928.8
 20
752.475
 11
1014.5
 21
752.475
  0
LINE
  8
6
  6
CONTINUOUS
 62
     2
 10
1004.5
 20
752.475
 11
1001.264761936
 21
740.400927171
  0
LINE
  8
6
  6
CONTINUOUS
 62
     2
 10
1004.5
 20
752.475
 11
1007.735238064
 21
740.400927171
  0
LINE
  8
6
  6
CONTINUOUS
 62
     2
 10
1004.5
 20
752.475
 11
1004.5
 21
218.65
  0
LINE
  8
6
  6
CONTINUOUS
 62
     2
 10
1004.5
 20
218.65
 11
1007.735238064
 21
230.724072829
  0
LINE
  8
6
  6
CONTINUOUS
 62
     2
 10
1004.5
 20
218.65
 11
1001.264761936
 21
230.724072829
  0
LINE
  8
6
  6
CONTINUOUS
 62
     2
 10
928.8
 20
218.65
 11
1014.5
 21
218.65
  0
TEXT
  8
6
  6
CONTINUOUS
 62
     2
 10
994.5
 20
470.5625
 30
1.5
 40
15.0
  1
１２Ｕ
 50
90.0
 41
0.6
 51
0.0
  7
KANJI2
  0
LINE
  8
6
  6
CONTINUOUS
 62
     2
 10
1052.7
 20
116.05
 11
1055.935238064
 21
128.124072829
  0
LINE
  8
6
  6
CONTINUOUS
 62
     2
 10
1052.7
 20
116.05
 11
1049.464761936
 21
128.124072829
  0
LINE
  8
6
  6
CONTINUOUS
 62
     2
 10
1052.7
 20
116.05
 11
1052.7
 21
842.975
  0
LINE
  8
6
  6
CONTINUOUS
 62
     2
 10
1052.7
 20
842.975
 11
1049.464761936
 21
830.900927171
  0
LINE
  8
6
  6
CONTINUOUS
 62
     2
 10
1052.7
 20
842.975
 11
1055.935238064
 21
830.900927171
  0
LINE
  8
6
  6
CONTINUOUS
 62
     2
 10
928.8
 20
842.975
 11
1062.7
 21
842.975
  0
TEXT
  8
6
  6
CONTINUOUS
 62
     2
 10
1042.7
 20
454.0125
 30
1.5
 40
15.0
  1
（７２７）
 50
90.0
 41
0.6
 51
0.0
  7
KANJI2
  0
TEXT
  8
6
  6
CONTINUOUS
 62
     2
 10
1669.793347099
 20
1186.299999667
 30
1.5
 40
25.0
  1
Ａ３　１／５
 50
0.0
 41
0.94
 51
0.0
  7
KANJI0
  0
ENDSEC
  0
EOF
