  0
SECTION
  2
HEADER
  9
$EXTMIN
 10
0.0
 20
0.0
 30
0.0
  9
$EXTMAX
 10
2100.0
 20
1485.0
 30
0.0
  9
$LIMMIN
 10
0.0
 20
0.0
  9
$LIMMAX
 10
2100.0
 20
1485.0
  9
$LTSCALE
 40
1.0
  9
$PDMODE
 70
     0
  0
ENDSEC
  0
SECTION
  2
TABLES
  0
TABLE
  2
LTYPE
 70
     2
  0
LTYPE
  2
CONTINUOUS
 70
    64
  3
Solid line
 72
    65
 73
     0
 40
0.0
  0
LTYPE
  2
LTYPE1
 70
    64
  3
HIDDEN
 72
    65
 73
     2
 40
10.0
 49
6.0
 49
-4.0
  0
ENDTAB
  0
TABLE
  2
LAYER
 70
   128
  0
LAYER
  2
0
 70
     0
 62
     7
  6
CONTINUOUS
  0
LAYER
  2
2
 70
     0
 62
     7
  6
CONTINUOUS
  0
LAYER
  2
3
 70
     0
 62
     7
  6
CONTINUOUS
  0
LAYER
  2
4
 70
     0
 62
     7
  6
CONTINUOUS
  0
LAYER
  2
5
 70
     0
 62
     7
  6
CONTINUOUS
  0
LAYER
  2
6
 70
     0
 62
     7
  6
CONTINUOUS
  0
LAYER
  2
7
 70
     0
 62
     7
  6
CONTINUOUS
  0
LAYER
  2
8
 70
     0
 62
     7
  6
CONTINUOUS
  0
LAYER
  2
9
 70
     0
 62
     7
  6
CONTINUOUS
  0
LAYER
  2
10
 70
     0
 62
     7
  6
CONTINUOUS
  0
LAYER
  2
11
 70
     0
 62
     7
  6
CONTINUOUS
  0
LAYER
  2
12
 70
     0
 62
     7
  6
CONTINUOUS
  0
LAYER
  2
13
 70
     0
 62
     7
  6
CONTINUOUS
  0
LAYER
  2
14
 70
     0
 62
     7
  6
CONTINUOUS
  0
LAYER
  2
15
 70
     0
 62
     7
  6
CONTINUOUS
  0
LAYER
  2
16
 70
     0
 62
     7
  6
CONTINUOUS
  0
LAYER
  2
17
 70
     0
 62
     7
  6
CONTINUOUS
  0
LAYER
  2
18
 70
     0
 62
     7
  6
CONTINUOUS
  0
LAYER
  2
19
 70
     0
 62
     7
  6
CONTINUOUS
  0
LAYER
  2
20
 70
     0
 62
     7
  6
CONTINUOUS
  0
LAYER
  2
21
 70
     0
 62
     7
  6
CONTINUOUS
  0
LAYER
  2
22
 70
     0
 62
     7
  6
CONTINUOUS
  0
LAYER
  2
23
 70
     0
 62
     7
  6
CONTINUOUS
  0
LAYER
  2
24
 70
     0
 62
     7
  6
CONTINUOUS
  0
LAYER
  2
25
 70
     0
 62
     7
  6
CONTINUOUS
  0
LAYER
  2
26
 70
     0
 62
     7
  6
CONTINUOUS
  0
LAYER
  2
27
 70
     0
 62
     7
  6
CONTINUOUS
  0
LAYER
  2
28
 70
     0
 62
     7
  6
CONTINUOUS
  0
LAYER
  2
29
 70
     0
 62
     7
  6
CONTINUOUS
  0
LAYER
  2
30
 70
     0
 62
     7
  6
CONTINUOUS
  0
LAYER
  2
31
 70
     0
 62
     7
  6
CONTINUOUS
  0
LAYER
  2
32
 70
     0
 62
     7
  6
CONTINUOUS
  0
LAYER
  2
33
 70
     0
 62
     7
  6
CONTINUOUS
  0
LAYER
  2
34
 70
     0
 62
     7
  6
CONTINUOUS
  0
LAYER
  2
35
 70
     0
 62
     7
  6
CONTINUOUS
  0
LAYER
  2
36
 70
     0
 62
     7
  6
CONTINUOUS
  0
LAYER
  2
37
 70
     0
 62
     7
  6
CONTINUOUS
  0
LAYER
  2
38
 70
     0
 62
     7
  6
CONTINUOUS
  0
LAYER
  2
39
 70
     0
 62
     7
  6
CONTINUOUS
  0
LAYER
  2
40
 70
     0
 62
     7
  6
CONTINUOUS
  0
LAYER
  2
41
 70
     0
 62
     7
  6
CONTINUOUS
  0
LAYER
  2
42
 70
     0
 62
     7
  6
CONTINUOUS
  0
LAYER
  2
43
 70
     0
 62
     7
  6
CONTINUOUS
  0
LAYER
  2
44
 70
     0
 62
     7
  6
CONTINUOUS
  0
LAYER
  2
45
 70
     0
 62
     7
  6
CONTINUOUS
  0
LAYER
  2
46
 70
     0
 62
     7
  6
CONTINUOUS
  0
LAYER
  2
47
 70
     0
 62
     7
  6
CONTINUOUS
  0
LAYER
  2
48
 70
     0
 62
     7
  6
CONTINUOUS
  0
LAYER
  2
49
 70
     0
 62
     7
  6
CONTINUOUS
  0
LAYER
  2
50
 70
     0
 62
     7
  6
CONTINUOUS
  0
LAYER
  2
51
 70
     0
 62
     7
  6
CONTINUOUS
  0
LAYER
  2
52
 70
     0
 62
     7
  6
CONTINUOUS
  0
LAYER
  2
53
 70
     0
 62
     7
  6
CONTINUOUS
  0
LAYER
  2
54
 70
     0
 62
     7
  6
CONTINUOUS
  0
LAYER
  2
55
 70
     0
 62
     7
  6
CONTINUOUS
  0
LAYER
  2
56
 70
     0
 62
     7
  6
CONTINUOUS
  0
LAYER
  2
57
 70
     0
 62
     7
  6
CONTINUOUS
  0
LAYER
  2
58
 70
     0
 62
     7
  6
CONTINUOUS
  0
LAYER
  2
59
 70
     0
 62
     7
  6
CONTINUOUS
  0
LAYER
  2
60
 70
     0
 62
     7
  6
CONTINUOUS
  0
LAYER
  2
61
 70
     0
 62
     7
  6
CONTINUOUS
  0
LAYER
  2
62
 70
     0
 62
     7
  6
CONTINUOUS
  0
LAYER
  2
63
 70
     0
 62
     7
  6
CONTINUOUS
  0
LAYER
  2
64
 70
     0
 62
     7
  6
CONTINUOUS
  0
LAYER
  2
65
 70
     0
 62
     7
  6
CONTINUOUS
  0
LAYER
  2
66
 70
     0
 62
     7
  6
CONTINUOUS
  0
LAYER
  2
67
 70
     0
 62
     7
  6
CONTINUOUS
  0
LAYER
  2
68
 70
     0
 62
     7
  6
CONTINUOUS
  0
LAYER
  2
69
 70
     0
 62
     7
  6
CONTINUOUS
  0
LAYER
  2
70
 70
     0
 62
     7
  6
CONTINUOUS
  0
LAYER
  2
71
 70
     0
 62
     7
  6
CONTINUOUS
  0
LAYER
  2
72
 70
     0
 62
     7
  6
CONTINUOUS
  0
LAYER
  2
73
 70
     0
 62
     7
  6
CONTINUOUS
  0
LAYER
  2
74
 70
     0
 62
     7
  6
CONTINUOUS
  0
LAYER
  2
75
 70
     0
 62
     7
  6
CONTINUOUS
  0
LAYER
  2
76
 70
     0
 62
     7
  6
CONTINUOUS
  0
LAYER
  2
77
 70
     0
 62
     7
  6
CONTINUOUS
  0
LAYER
  2
78
 70
     0
 62
     7
  6
CONTINUOUS
  0
LAYER
  2
79
 70
     0
 62
     7
  6
CONTINUOUS
  0
LAYER
  2
80
 70
     0
 62
     7
  6
CONTINUOUS
  0
LAYER
  2
81
 70
     0
 62
     7
  6
CONTINUOUS
  0
LAYER
  2
82
 70
     0
 62
     7
  6
CONTINUOUS
  0
LAYER
  2
83
 70
     0
 62
     7
  6
CONTINUOUS
  0
LAYER
  2
84
 70
     0
 62
     7
  6
CONTINUOUS
  0
LAYER
  2
85
 70
     0
 62
     7
  6
CONTINUOUS
  0
LAYER
  2
86
 70
     0
 62
     7
  6
CONTINUOUS
  0
LAYER
  2
87
 70
     0
 62
     7
  6
CONTINUOUS
  0
LAYER
  2
88
 70
     0
 62
     7
  6
CONTINUOUS
  0
LAYER
  2
89
 70
     0
 62
     7
  6
CONTINUOUS
  0
LAYER
  2
90
 70
     0
 62
     7
  6
CONTINUOUS
  0
LAYER
  2
91
 70
     0
 62
     7
  6
CONTINUOUS
  0
LAYER
  2
92
 70
     0
 62
     7
  6
CONTINUOUS
  0
LAYER
  2
93
 70
     0
 62
     7
  6
CONTINUOUS
  0
LAYER
  2
94
 70
     0
 62
     7
  6
CONTINUOUS
  0
LAYER
  2
95
 70
     0
 62
     7
  6
CONTINUOUS
  0
LAYER
  2
96
 70
     0
 62
     7
  6
CONTINUOUS
  0
LAYER
  2
97
 70
     0
 62
     7
  6
CONTINUOUS
  0
LAYER
  2
98
 70
     0
 62
     7
  6
CONTINUOUS
  0
LAYER
  2
99
 70
     0
 62
     7
  6
CONTINUOUS
  0
LAYER
  2
100
 70
     0
 62
     7
  6
CONTINUOUS
  0
LAYER
  2
101
 70
     0
 62
     7
  6
CONTINUOUS
  0
LAYER
  2
102
 70
     0
 62
     7
  6
CONTINUOUS
  0
LAYER
  2
103
 70
     0
 62
     7
  6
CONTINUOUS
  0
LAYER
  2
104
 70
     0
 62
     7
  6
CONTINUOUS
  0
LAYER
  2
105
 70
     0
 62
     7
  6
CONTINUOUS
  0
LAYER
  2
106
 70
     0
 62
     7
  6
CONTINUOUS
  0
LAYER
  2
107
 70
     0
 62
     7
  6
CONTINUOUS
  0
LAYER
  2
108
 70
     0
 62
     7
  6
CONTINUOUS
  0
LAYER
  2
109
 70
     0
 62
     7
  6
CONTINUOUS
  0
LAYER
  2
110
 70
     0
 62
     7
  6
CONTINUOUS
  0
LAYER
  2
111
 70
     0
 62
     7
  6
CONTINUOUS
  0
LAYER
  2
112
 70
     0
 62
     7
  6
CONTINUOUS
  0
LAYER
  2
113
 70
     0
 62
     7
  6
CONTINUOUS
  0
LAYER
  2
114
 70
     0
 62
     7
  6
CONTINUOUS
  0
LAYER
  2
115
 70
     0
 62
     7
  6
CONTINUOUS
  0
LAYER
  2
116
 70
     0
 62
     7
  6
CONTINUOUS
  0
LAYER
  2
117
 70
     0
 62
     7
  6
CONTINUOUS
  0
LAYER
  2
118
 70
     0
 62
     7
  6
CONTINUOUS
  0
LAYER
  2
119
 70
     0
 62
     7
  6
CONTINUOUS
  0
LAYER
  2
120
 70
     0
 62
     7
  6
CONTINUOUS
  0
LAYER
  2
121
 70
     0
 62
     7
  6
CONTINUOUS
  0
LAYER
  2
122
 70
     0
 62
     7
  6
CONTINUOUS
  0
LAYER
  2
123
 70
     0
 62
     7
  6
CONTINUOUS
  0
LAYER
  2
124
 70
     0
 62
     7
  6
CONTINUOUS
  0
LAYER
  2
125
 70
     0
 62
     7
  6
CONTINUOUS
  0
LAYER
  2
126
 70
     0
 62
     7
  6
CONTINUOUS
  0
LAYER
  2
127
 70
     0
 62
     7
  6
CONTINUOUS
  0
LAYER
  2
128
 70
     0
 62
     7
  6
CONTINUOUS
  0
ENDTAB
  0
TABLE
  2
STYLE
 70
     4
  0
STYLE
  2
STANDARD
 70
     0
 40
0.0
 41
1.0
 50
0.0
 71
     0
 42
0.2
  3
txt
  4

  0
STYLE
  2
KANJI0
 70
     0
 40
25.0
 41
0.94
 50
0.0
 71
     0
 42
25.0
  3

  4
bigfont
  0
STYLE
  2
KANJI1
 70
     0
 40
15.0
 41
0.6
 50
0.0
 71
     0
 42
15.0
  3

  4
bigfont
  0
STYLE
  2
KANJI2
 70
     0
 40
25.0
 41
0.47
 50
0.0
 71
     0
 42
25.0
  3

  4
bigfont
  0
ENDTAB
  0
TABLE
  2
VIEW
 70
     0
  0
ENDTAB
  0
ENDSEC
  0
SECTION
  2
BLOCKS
  0
ENDSEC
  0
SECTION
  2
ENTITIES
  0
CIRCLE
  8
0
  6
CONTINUOUS
 62
     1
 10
783.0376
 20
173.075
 40
3.1
  0
CIRCLE
  8
0
  6
CONTINUOUS
 62
     1
 10
1248.1624
 20
173.075
 40
3.1
  0
LINE
  8
0
  6
CONTINUOUS
 62
     1
 10
1265.6
 20
155.575
 11
765.6
 21
155.575
  0
LINE
  8
0
  6
CONTINUOUS
 62
     1
 10
765.6
 20
155.575
 11
765.6
 21
178.975
  0
LINE
  8
0
  6
CONTINUOUS
 62
     1
 10
1265.6
 20
155.575
 11
1265.6
 21
178.975
  0
LINE
  8
0
  6
CONTINUOUS
 62
     1
 10
765.6
 20
178.975
 11
1265.6
 21
178.975
  0
LINE
  8
0
  6
CONTINUOUS
 62
     1
 10
825.6
 20
155.575
 11
825.6
 21
152.375
  0
LINE
  8
0
  6
CONTINUOUS
 62
     1
 10
825.6
 20
152.375
 11
765.6
 21
152.375
  0
LINE
  8
0
  6
CONTINUOUS
 62
     1
 10
765.6
 20
155.575
 11
765.6
 21
152.375
  0
LINE
  8
0
  6
CONTINUOUS
 62
     1
 10
765.6
 20
155.575
 11
825.6
 21
155.575
  0
LINE
  8
0
  6
CONTINUOUS
 62
     1
 10
1205.6
 20
155.575
 11
1205.6
 21
152.375
  0
LINE
  8
0
  6
CONTINUOUS
 62
     1
 10
1205.6
 20
152.375
 11
1265.6
 21
152.375
  0
LINE
  8
0
  6
CONTINUOUS
 62
     1
 10
1265.6
 20
155.575
 11
1265.6
 21
152.375
  0
LINE
  8
0
  6
CONTINUOUS
 62
     1
 10
1265.6
 20
155.575
 11
1205.6
 21
155.575
  0
CIRCLE
  8
0
  6
CONTINUOUS
 62
     2
 10
778.6
 20
106.375
 40
30.0
  0
LINE
  8
0
  6
CONTINUOUS
 62
     2
 10
803.1
 20
152.375
 11
803.1
 21
123.688289693
  0
LINE
  8
0
  6
CONTINUOUS
 62
     2
 10
788.1
 20
152.375
 11
788.1
 21
134.83110655
  0
LINE
  8
0
  6
CONTINUOUS
 62
     2
 10
1213.1
 20
136.375
 11
1213.1
 21
76.375
  0
LINE
  8
0
  6
CONTINUOUS
 62
     2
 10
1258.1
 20
136.375
 11
1213.1
 21
136.375
  0
LINE
  8
0
  6
CONTINUOUS
 62
     2
 10
1258.1
 20
136.375
 11
1258.1
 21
76.375
  0
LINE
  8
0
  6
CONTINUOUS
 62
     2
 10
1228.1
 20
152.375
 11
1228.1
 21
136.375
  0
LINE
  8
0
  6
CONTINUOUS
 62
     2
 10
1243.1
 20
152.375
 11
1243.1
 21
136.375
  0
LINE
  8
0
  6
CONTINUOUS
 62
     2
 10
1258.1
 20
76.375
 11
1213.1
 21
76.375
  0
LINE
  8
2
  6
CONTINUOUS
 62
     1
 10
1265.6
 20
157.175
 11
1265.6
 21
735.025
  0
CIRCLE
  8
2
  6
CONTINUOUS
 62
     1
 10
1248.1624
 20
662.025
 40
3.1
  0
CIRCLE
  8
2
  6
CONTINUOUS
 62
     1
 10
1248.1624
 20
646.125
 40
3.1
  0
CIRCLE
  8
2
  6
CONTINUOUS
 62
     1
 10
1248.1624
 20
630.225
 40
3.1
  0
CIRCLE
  8
2
  6
CONTINUOUS
 62
     1
 10
1248.1624
 20
617.575
 40
3.1
  0
CIRCLE
  8
2
  6
CONTINUOUS
 62
     1
 10
1248.1624
 20
601.675
 40
3.1
  0
CIRCLE
  8
2
  6
CONTINUOUS
 62
     1
 10
1248.1624
 20
585.775
 40
3.1
  0
CIRCLE
  8
2
  6
CONTINUOUS
 62
     1
 10
1248.1624
 20
573.125
 40
3.1
  0
CIRCLE
  8
2
  6
CONTINUOUS
 62
     1
 10
1248.1624
 20
557.225
 40
3.1
  0
CIRCLE
  8
2
  6
CONTINUOUS
 62
     1
 10
1248.1624
 20
541.325
 40
3.1
  0
CIRCLE
  8
2
  6
CONTINUOUS
 62
     1
 10
1248.1624
 20
528.675
 40
3.1
  0
CIRCLE
  8
2
  6
CONTINUOUS
 62
     1
 10
1248.1624
 20
512.775
 40
3.1
  0
CIRCLE
  8
2
  6
CONTINUOUS
 62
     1
 10
1248.1624
 20
496.875
 40
3.1
  0
CIRCLE
  8
2
  6
CONTINUOUS
 62
     1
 10
1248.1624
 20
484.225
 40
3.1
  0
CIRCLE
  8
2
  6
CONTINUOUS
 62
     1
 10
1248.1624
 20
468.325
 40
3.1
  0
CIRCLE
  8
2
  6
CONTINUOUS
 62
     1
 10
1248.1624
 20
452.425
 40
3.1
  0
CIRCLE
  8
2
  6
CONTINUOUS
 62
     1
 10
1248.1624
 20
439.775
 40
3.1
  0
CIRCLE
  8
2
  6
CONTINUOUS
 62
     1
 10
1248.1624
 20
423.875
 40
3.1
  0
CIRCLE
  8
2
  6
CONTINUOUS
 62
     1
 10
1248.1624
 20
407.975
 40
3.1
  0
CIRCLE
  8
2
  6
CONTINUOUS
 62
     1
 10
1248.1624
 20
395.325
 40
3.1
  0
CIRCLE
  8
2
  6
CONTINUOUS
 62
     1
 10
1248.1624
 20
379.425
 40
3.1
  0
CIRCLE
  8
2
  6
CONTINUOUS
 62
     1
 10
1248.1624
 20
363.525
 40
3.1
  0
CIRCLE
  8
2
  6
CONTINUOUS
 62
     1
 10
1248.1624
 20
350.875
 40
3.1
  0
CIRCLE
  8
2
  6
CONTINUOUS
 62
     1
 10
1248.1624
 20
334.975
 40
3.1
  0
CIRCLE
  8
2
  6
CONTINUOUS
 62
     1
 10
1248.1624
 20
319.075
 40
3.1
  0
CIRCLE
  8
2
  6
CONTINUOUS
 62
     1
 10
1248.1624
 20
306.425
 40
3.1
  0
CIRCLE
  8
2
  6
CONTINUOUS
 62
     1
 10
1248.1624
 20
290.525
 40
3.1
  0
CIRCLE
  8
2
  6
CONTINUOUS
 62
     1
 10
1248.1624
 20
274.625
 40
3.1
  0
CIRCLE
  8
2
  6
CONTINUOUS
 62
     1
 10
1248.1624
 20
261.975
 40
3.1
  0
CIRCLE
  8
2
  6
CONTINUOUS
 62
     1
 10
1248.1624
 20
246.075
 40
3.1
  0
CIRCLE
  8
2
  6
CONTINUOUS
 62
     1
 10
1248.1624
 20
230.175
 40
3.1
  0
CIRCLE
  8
2
  6
CONTINUOUS
 62
     1
 10
1248.1624
 20
217.525
 40
3.1
  0
CIRCLE
  8
2
  6
CONTINUOUS
 62
     1
 10
1248.1624
 20
201.625
 40
3.1
  0
CIRCLE
  8
2
  6
CONTINUOUS
 62
     1
 10
1248.1624
 20
185.725
 40
3.1
  0
ARC
  8
2
  6
CONTINUOUS
 62
     1
 10
1241.1
 20
668.35
 40
1.7
 50
270.0
 51
0.0
  0
LINE
  8
2
  6
CONTINUOUS
 62
     1
 10
1241.1
 20
181.1
 11
1241.1
 21
222.15
  0
LINE
  8
2
  6
CONTINUOUS
 62
     1
 10
1241.1
 20
225.55
 11
1241.1
 21
266.6
  0
LINE
  8
2
  6
CONTINUOUS
 62
     1
 10
1241.1
 20
270.0
 11
1241.1
 21
311.05
  0
LINE
  8
2
  6
CONTINUOUS
 62
     1
 10
1241.1
 20
314.45
 11
1241.1
 21
355.5
  0
LINE
  8
2
  6
CONTINUOUS
 62
     1
 10
1241.1
 20
358.9
 11
1241.1
 21
399.95
  0
LINE
  8
2
  6
CONTINUOUS
 62
     1
 10
1241.1
 20
403.35
 11
1241.1
 21
444.4
  0
LINE
  8
2
  6
CONTINUOUS
 62
     1
 10
1241.1
 20
447.8
 11
1241.1
 21
488.85
  0
LINE
  8
2
  6
CONTINUOUS
 62
     1
 10
1241.1
 20
492.25
 11
1241.1
 21
533.3
  0
LINE
  8
2
  6
CONTINUOUS
 62
     1
 10
1241.1
 20
536.7
 11
1241.1
 21
577.75
  0
LINE
  8
2
  6
CONTINUOUS
 62
     1
 10
1241.1
 20
581.15
 11
1241.1
 21
622.2
  0
LINE
  8
2
  6
CONTINUOUS
 62
     1
 10
1241.1
 20
625.6
 11
1241.1
 21
666.65
  0
ARC
  8
2
  6
CONTINUOUS
 62
     1
 10
1241.1
 20
623.9
 40
1.7
 50
270.0
 51
0.0
  0
ARC
  8
2
  6
CONTINUOUS
 62
     1
 10
1241.1
 20
623.9
 40
1.7
 50
0.0
 51
90.0
  0
ARC
  8
2
  6
CONTINUOUS
 62
     1
 10
1241.1
 20
579.45
 40
1.7
 50
270.0
 51
0.0
  0
ARC
  8
2
  6
CONTINUOUS
 62
     1
 10
1241.1
 20
579.45
 40
1.7
 50
0.0
 51
90.0
  0
ARC
  8
2
  6
CONTINUOUS
 62
     1
 10
1241.1
 20
535.0
 40
1.7
 50
270.0
 51
0.0
  0
ARC
  8
2
  6
CONTINUOUS
 62
     1
 10
1241.1
 20
535.0
 40
1.7
 50
0.0
 51
90.0
  0
ARC
  8
2
  6
CONTINUOUS
 62
     1
 10
1241.1
 20
490.55
 40
1.7
 50
270.0
 51
0.0
  0
ARC
  8
2
  6
CONTINUOUS
 62
     1
 10
1241.1
 20
490.55
 40
1.7
 50
0.0
 51
90.0
  0
ARC
  8
2
  6
CONTINUOUS
 62
     1
 10
1241.1
 20
446.1
 40
1.7
 50
270.0
 51
0.0
  0
ARC
  8
2
  6
CONTINUOUS
 62
     1
 10
1241.1
 20
446.1
 40
1.7
 50
0.0
 51
90.0
  0
ARC
  8
2
  6
CONTINUOUS
 62
     1
 10
1241.1
 20
401.65
 40
1.7
 50
270.0
 51
0.0
  0
ARC
  8
2
  6
CONTINUOUS
 62
     1
 10
1241.1
 20
401.65
 40
1.7
 50
0.0
 51
90.0
  0
ARC
  8
2
  6
CONTINUOUS
 62
     1
 10
1241.1
 20
357.2
 40
1.7
 50
270.0
 51
0.0
  0
ARC
  8
2
  6
CONTINUOUS
 62
     1
 10
1241.1
 20
357.2
 40
1.7
 50
0.0
 51
90.0
  0
ARC
  8
2
  6
CONTINUOUS
 62
     1
 10
1241.1
 20
312.75
 40
1.7
 50
270.0
 51
0.0
  0
ARC
  8
2
  6
CONTINUOUS
 62
     1
 10
1241.1
 20
312.75
 40
1.7
 50
0.0
 51
90.0
  0
ARC
  8
2
  6
CONTINUOUS
 62
     1
 10
1241.1
 20
268.3
 40
1.7
 50
270.0
 51
0.0
  0
ARC
  8
2
  6
CONTINUOUS
 62
     1
 10
1241.1
 20
268.3
 40
1.7
 50
0.0
 51
90.0
  0
ARC
  8
2
  6
CONTINUOUS
 62
     1
 10
1241.1
 20
223.85
 40
1.7
 50
270.0
 51
0.0
  0
ARC
  8
2
  6
CONTINUOUS
 62
     1
 10
1241.1
 20
223.85
 40
1.7
 50
0.0
 51
90.0
  0
ARC
  8
2
  6
CONTINUOUS
 62
     1
 10
1241.1
 20
179.4
 40
1.7
 50
0.0
 51
90.0
  0
LINE
  8
2
  6
CONTINUOUS
 62
     1
 10
765.6
 20
157.175
 11
765.6
 21
735.025
  0
CIRCLE
  8
2
  6
CONTINUOUS
 62
     1
 10
783.0376
 20
662.025
 40
3.1
  0
CIRCLE
  8
2
  6
CONTINUOUS
 62
     1
 10
783.0376
 20
646.125
 40
3.1
  0
CIRCLE
  8
2
  6
CONTINUOUS
 62
     1
 10
783.0376
 20
630.225
 40
3.1
  0
CIRCLE
  8
2
  6
CONTINUOUS
 62
     1
 10
783.0376
 20
617.575
 40
3.1
  0
CIRCLE
  8
2
  6
CONTINUOUS
 62
     1
 10
783.0376
 20
601.675
 40
3.1
  0
CIRCLE
  8
2
  6
CONTINUOUS
 62
     1
 10
783.0376
 20
585.775
 40
3.1
  0
CIRCLE
  8
2
  6
CONTINUOUS
 62
     1
 10
783.0376
 20
573.125
 40
3.1
  0
CIRCLE
  8
2
  6
CONTINUOUS
 62
     1
 10
783.0376
 20
557.225
 40
3.1
  0
CIRCLE
  8
2
  6
CONTINUOUS
 62
     1
 10
783.0376
 20
541.325
 40
3.1
  0
CIRCLE
  8
2
  6
CONTINUOUS
 62
     1
 10
783.0376
 20
528.675
 40
3.1
  0
CIRCLE
  8
2
  6
CONTINUOUS
 62
     1
 10
783.0376
 20
512.775
 40
3.1
  0
CIRCLE
  8
2
  6
CONTINUOUS
 62
     1
 10
783.0376
 20
496.875
 40
3.1
  0
CIRCLE
  8
2
  6
CONTINUOUS
 62
     1
 10
783.0376
 20
484.225
 40
3.1
  0
CIRCLE
  8
2
  6
CONTINUOUS
 62
     1
 10
783.0376
 20
468.325
 40
3.1
  0
CIRCLE
  8
2
  6
CONTINUOUS
 62
     1
 10
783.0376
 20
452.425
 40
3.1
  0
CIRCLE
  8
2
  6
CONTINUOUS
 62
     1
 10
783.0376
 20
439.775
 40
3.1
  0
CIRCLE
  8
2
  6
CONTINUOUS
 62
     1
 10
783.0376
 20
423.875
 40
3.1
  0
CIRCLE
  8
2
  6
CONTINUOUS
 62
     1
 10
783.0376
 20
407.975
 40
3.1
  0
CIRCLE
  8
2
  6
CONTINUOUS
 62
     1
 10
783.0376
 20
395.325
 40
3.1
  0
CIRCLE
  8
2
  6
CONTINUOUS
 62
     1
 10
783.0376
 20
379.425
 40
3.1
  0
CIRCLE
  8
2
  6
CONTINUOUS
 62
     1
 10
783.0376
 20
363.525
 40
3.1
  0
CIRCLE
  8
2
  6
CONTINUOUS
 62
     1
 10
783.0376
 20
350.875
 40
3.1
  0
CIRCLE
  8
2
  6
CONTINUOUS
 62
     1
 10
783.0376
 20
334.975
 40
3.1
  0
CIRCLE
  8
2
  6
CONTINUOUS
 62
     1
 10
783.0376
 20
319.075
 40
3.1
  0
CIRCLE
  8
2
  6
CONTINUOUS
 62
     1
 10
783.0376
 20
306.425
 40
3.1
  0
CIRCLE
  8
2
  6
CONTINUOUS
 62
     1
 10
783.0376
 20
290.525
 40
3.1
  0
CIRCLE
  8
2
  6
CONTINUOUS
 62
     1
 10
783.0376
 20
274.625
 40
3.1
  0
CIRCLE
  8
2
  6
CONTINUOUS
 62
     1
 10
783.0376
 20
261.975
 40
3.1
  0
CIRCLE
  8
2
  6
CONTINUOUS
 62
     1
 10
783.0376
 20
246.075
 40
3.1
  0
CIRCLE
  8
2
  6
CONTINUOUS
 62
     1
 10
783.0376
 20
230.175
 40
3.1
  0
CIRCLE
  8
2
  6
CONTINUOUS
 62
     1
 10
783.0376
 20
217.525
 40
3.1
  0
CIRCLE
  8
2
  6
CONTINUOUS
 62
     1
 10
783.0376
 20
201.625
 40
3.1
  0
CIRCLE
  8
2
  6
CONTINUOUS
 62
     1
 10
783.0376
 20
185.725
 40
3.1
  0
ARC
  8
2
  6
CONTINUOUS
 62
     1
 10
790.1
 20
668.35
 40
1.7
 50
180.0
 51
270.0
  0
LINE
  8
2
  6
CONTINUOUS
 62
     1
 10
790.1
 20
181.1
 11
790.1
 21
222.15
  0
LINE
  8
2
  6
CONTINUOUS
 62
     1
 10
790.1
 20
225.55
 11
790.1
 21
266.6
  0
LINE
  8
2
  6
CONTINUOUS
 62
     1
 10
790.1
 20
270.0
 11
790.1
 21
311.05
  0
LINE
  8
2
  6
CONTINUOUS
 62
     1
 10
790.1
 20
314.45
 11
790.1
 21
355.5
  0
LINE
  8
2
  6
CONTINUOUS
 62
     1
 10
790.1
 20
358.9
 11
790.1
 21
399.95
  0
LINE
  8
2
  6
CONTINUOUS
 62
     1
 10
790.1
 20
403.35
 11
790.1
 21
444.4
  0
LINE
  8
2
  6
CONTINUOUS
 62
     1
 10
790.1
 20
447.8
 11
790.1
 21
488.85
  0
LINE
  8
2
  6
CONTINUOUS
 62
     1
 10
790.1
 20
492.25
 11
790.1
 21
533.3
  0
LINE
  8
2
  6
CONTINUOUS
 62
     1
 10
790.1
 20
536.7
 11
790.1
 21
577.75
  0
LINE
  8
2
  6
CONTINUOUS
 62
     1
 10
790.1
 20
581.15
 11
790.1
 21
622.2
  0
LINE
  8
2
  6
CONTINUOUS
 62
     1
 10
790.1
 20
625.6
 11
790.1
 21
666.65
  0
ARC
  8
2
  6
CONTINUOUS
 62
     1
 10
790.1
 20
623.9
 40
1.7
 50
180.0
 51
270.0
  0
ARC
  8
2
  6
CONTINUOUS
 62
     1
 10
790.1
 20
623.9
 40
1.7
 50
90.0
 51
180.0
  0
ARC
  8
2
  6
CONTINUOUS
 62
     1
 10
790.1
 20
579.45
 40
1.7
 50
180.0
 51
270.0
  0
ARC
  8
2
  6
CONTINUOUS
 62
     1
 10
790.1
 20
579.45
 40
1.7
 50
90.0
 51
180.0
  0
ARC
  8
2
  6
CONTINUOUS
 62
     1
 10
790.1
 20
535.0
 40
1.7
 50
180.0
 51
270.0
  0
ARC
  8
2
  6
CONTINUOUS
 62
     1
 10
790.1
 20
535.0
 40
1.7
 50
90.0
 51
180.0
  0
ARC
  8
2
  6
CONTINUOUS
 62
     1
 10
790.1
 20
490.55
 40
1.7
 50
180.0
 51
270.0
  0
ARC
  8
2
  6
CONTINUOUS
 62
     1
 10
790.1
 20
490.55
 40
1.7
 50
90.0
 51
180.0
  0
ARC
  8
2
  6
CONTINUOUS
 62
     1
 10
790.1
 20
446.1
 40
1.7
 50
180.0
 51
270.0
  0
ARC
  8
2
  6
CONTINUOUS
 62
     1
 10
790.1
 20
446.1
 40
1.7
 50
90.0
 51
180.0
  0
ARC
  8
2
  6
CONTINUOUS
 62
     1
 10
790.1
 20
401.65
 40
1.7
 50
180.0
 51
270.0
  0
ARC
  8
2
  6
CONTINUOUS
 62
     1
 10
790.1
 20
401.65
 40
1.7
 50
90.0
 51
180.0
  0
ARC
  8
2
  6
CONTINUOUS
 62
     1
 10
790.1
 20
357.2
 40
1.7
 50
180.0
 51
270.0
  0
ARC
  8
2
  6
CONTINUOUS
 62
     1
 10
790.1
 20
357.2
 40
1.7
 50
90.0
 51
180.0
  0
ARC
  8
2
  6
CONTINUOUS
 62
     1
 10
790.1
 20
312.75
 40
1.7
 50
180.0
 51
270.0
  0
ARC
  8
2
  6
CONTINUOUS
 62
     1
 10
790.1
 20
312.75
 40
1.7
 50
90.0
 51
180.0
  0
ARC
  8
2
  6
CONTINUOUS
 62
     1
 10
790.1
 20
268.3
 40
1.7
 50
180.0
 51
270.0
  0
ARC
  8
2
  6
CONTINUOUS
 62
     1
 10
790.1
 20
268.3
 40
1.7
 50
90.0
 51
180.0
  0
ARC
  8
2
  6
CONTINUOUS
 62
     1
 10
790.1
 20
223.85
 40
1.7
 50
180.0
 51
270.0
  0
ARC
  8
2
  6
CONTINUOUS
 62
     1
 10
790.1
 20
223.85
 40
1.7
 50
90.0
 51
180.0
  0
ARC
  8
2
  6
CONTINUOUS
 62
     1
 10
790.1
 20
179.4
 40
1.7
 50
90.0
 51
180.0
  0
ARC
  8
2
  6
CONTINUOUS
 62
     1
 10
1241.1
 20
179.4
 40
1.7
 50
345.522487814
 51
0.0
  0
ARC
  8
2
  6
CONTINUOUS
 62
     1
 10
790.1
 20
179.4
 40
1.7
 50
180.0
 51
194.477512186
  0
LINE
  8
0
  6
CONTINUOUS
 62
     1
 10
1484.85
 20
155.575
 11
1888.05
 21
155.575
  0
LINE
  8
0
  6
CONTINUOUS
 62
     1
 10
1484.85
 20
155.575
 11
1484.85
 21
178.975
  0
LINE
  8
0
  6
CONTINUOUS
 62
     1
 10
1486.45
 20
178.975
 11
1484.85
 21
178.975
  0
LINE
  8
0
  6
CONTINUOUS
 62
     1
 10
1888.05
 20
155.575
 11
1888.05
 21
178.975
  0
LINE
  8
0
  6
CONTINUOUS
 62
     1
 10
1886.45
 20
178.975
 11
1888.05
 21
178.975
  0
LINE
  8
0
  6
CONTINUOUS
 62
     1
 10
1484.85
 20
155.575
 11
1484.85
 21
152.375
  0
LINE
  8
0
  6
CONTINUOUS
 62
     1
 10
1535.95
 20
155.575
 11
1535.95
 21
152.375
  0
LINE
  8
0
  6
CONTINUOUS
 62
     1
 10
1484.85
 20
152.375
 11
1535.95
 21
152.375
  0
LINE
  8
0
  6
CONTINUOUS
 62
     1
 10
1888.05
 20
155.575
 11
1888.05
 21
152.375
  0
LINE
  8
0
  6
CONTINUOUS
 62
     1
 10
1836.95
 20
155.575
 11
1836.95
 21
152.375
  0
LINE
  8
0
  6
CONTINUOUS
 62
     1
 10
1888.05
 20
152.375
 11
1836.95
 21
152.375
  0
LINE
  8
0
  6
CONTINUOUS
 62
     2
 10
1839.95
 20
136.375
 11
1839.95
 21
76.375
  0
LINE
  8
0
  6
CONTINUOUS
 62
     2
 10
1884.95
 20
136.375
 11
1839.95
 21
136.375
  0
LINE
  8
0
  6
CONTINUOUS
 62
     2
 10
1884.95
 20
136.375
 11
1884.95
 21
76.375
  0
LINE
  8
0
  6
CONTINUOUS
 62
     2
 10
1854.95
 20
152.375
 11
1854.95
 21
136.375
  0
LINE
  8
0
  6
CONTINUOUS
 62
     2
 10
1869.95
 20
152.375
 11
1869.95
 21
136.375
  0
LINE
  8
0
  6
CONTINUOUS
 62
     2
 10
1884.95
 20
76.375
 11
1839.95
 21
76.375
  0
CIRCLE
  8
0
  6
CONTINUOUS
 62
     2
 10
1493.45
 20
106.375
 40
30.0
  0
LINE
  8
0
  6
CONTINUOUS
 62
     2
 10
1517.95
 20
152.375
 11
1517.95
 21
123.688289693
  0
LINE
  8
0
  6
CONTINUOUS
 62
     2
 10
1502.95
 20
152.375
 11
1502.95
 21
134.83110655
  0
LINE
  8
2
  6
CONTINUOUS
 62
     1
 10
1486.45
 20
735.025
 11
1886.45
 21
735.025
  0
LINE
  8
2
  6
CONTINUOUS
 62
     1
 10
1486.45
 20
157.175
 11
1886.45
 21
157.175
  0
LINE
  8
2
  6
CONTINUOUS
 62
     1
 10
1886.45
 20
157.175
 11
1886.45
 21
735.025
  0
LINE
  8
2
  6
CONTINUOUS
 62
     1
 10
1486.45
 20
157.175
 11
1486.45
 21
735.025
  0
CIRCLE
  8
2
  6
CONTINUOUS
 62
     2
 10
1526.45
 20
725.025
 40
6.0
  0
CIRCLE
  8
2
  6
CONTINUOUS
 62
     2
 10
1846.45
 20
725.025
 40
6.0
  0
CIRCLE
  8
2
  6
CONTINUOUS
 62
     2
 10
1526.45
 20
167.175
 40
6.0
  0
CIRCLE
  8
2
  6
CONTINUOUS
 62
     2
 10
1846.45
 20
167.175
 40
6.0
  0
LINE
  8
0
  6
CONTINUOUS
 62
     1
 10
546.35
 20
155.575
 11
143.15
 21
155.575
  0
LINE
  8
0
  6
CONTINUOUS
 62
     1
 10
546.35
 20
155.575
 11
546.35
 21
178.975
  0
LINE
  8
0
  6
CONTINUOUS
 62
     1
 10
544.75
 20
178.975
 11
546.35
 21
178.975
  0
LINE
  8
0
  6
CONTINUOUS
 62
     1
 10
143.15
 20
155.575
 11
143.15
 21
178.975
  0
LINE
  8
0
  6
CONTINUOUS
 62
     1
 10
144.75
 20
178.975
 11
143.15
 21
178.975
  0
LINE
  8
0
  6
CONTINUOUS
 62
     1
 10
546.35
 20
155.575
 11
546.35
 21
152.375
  0
LINE
  8
0
  6
CONTINUOUS
 62
     1
 10
495.25
 20
155.575
 11
495.25
 21
152.375
  0
LINE
  8
0
  6
CONTINUOUS
 62
     1
 10
546.35
 20
152.375
 11
495.25
 21
152.375
  0
LINE
  8
0
  6
CONTINUOUS
 62
     1
 10
143.15
 20
155.575
 11
143.15
 21
152.375
  0
LINE
  8
0
  6
CONTINUOUS
 62
     1
 10
194.25
 20
155.575
 11
194.25
 21
152.375
  0
LINE
  8
0
  6
CONTINUOUS
 62
     1
 10
143.15
 20
152.375
 11
194.25
 21
152.375
  0
LINE
  8
0
  6
CONTINUOUS
 62
     2
 10
191.25
 20
136.375
 11
191.25
 21
76.375
  0
LINE
  8
0
  6
CONTINUOUS
 62
     2
 10
146.25
 20
136.375
 11
191.25
 21
136.375
  0
LINE
  8
0
  6
CONTINUOUS
 62
     2
 10
146.25
 20
136.375
 11
146.25
 21
76.375
  0
LINE
  8
0
  6
CONTINUOUS
 62
     2
 10
176.25
 20
152.375
 11
176.25
 21
136.375
  0
LINE
  8
0
  6
CONTINUOUS
 62
     2
 10
161.25
 20
152.375
 11
161.25
 21
136.375
  0
LINE
  8
0
  6
CONTINUOUS
 62
     2
 10
146.25
 20
76.375
 11
191.25
 21
76.375
  0
CIRCLE
  8
0
  6
CONTINUOUS
 62
     2
 10
537.75
 20
106.375
 40
30.0
  0
LINE
  8
0
  6
CONTINUOUS
 62
     2
 10
513.25
 20
152.375
 11
513.25
 21
123.688289693
  0
LINE
  8
0
  6
CONTINUOUS
 62
     2
 10
528.25
 20
152.375
 11
528.25
 21
134.83110655
  0
LINE
  8
2
  6
CONTINUOUS
 62
     1
 10
544.75
 20
735.025
 11
144.75
 21
735.025
  0
LINE
  8
2
  6
CONTINUOUS
 62
     1
 10
544.75
 20
157.175
 11
144.75
 21
157.175
  0
LINE
  8
2
  6
CONTINUOUS
 62
     1
 10
144.75
 20
157.175
 11
144.75
 21
735.025
  0
LINE
  8
2
  6
CONTINUOUS
 62
     1
 10
544.75
 20
157.175
 11
544.75
 21
735.025
  0
CIRCLE
  8
2
  6
CONTINUOUS
 62
     2
 10
504.75
 20
725.025
 40
6.0
  0
CIRCLE
  8
2
  6
CONTINUOUS
 62
     2
 10
184.75
 20
725.025
 40
6.0
  0
CIRCLE
  8
2
  6
CONTINUOUS
 62
     2
 10
504.75
 20
167.175
 40
6.0
  0
CIRCLE
  8
2
  6
CONTINUOUS
 62
     2
 10
184.75
 20
167.175
 40
6.0
  0
LINE
  8
0
  6
CONTINUOUS
 62
     2
 10
109.55
 20
76.375
 11
2017.15
 21
76.375
  0
CIRCLE
  8
3
  6
CONTINUOUS
 62
     1
 10
783.0376
 20
779.475
 40
3.1
  0
CIRCLE
  8
3
  6
CONTINUOUS
 62
     1
 10
783.0376
 20
779.475
 40
3.1
  0
LINE
  8
3
  6
CONTINUOUS
 62
     1
 10
790.1
 20
801.7
 11
765.6
 21
801.7
  0
LINE
  8
3
  6
CONTINUOUS
 62
     2
 10
764.0
 20
797.7
 11
765.6
 21
797.7
  0
LINE
  8
3
  6
CONTINUOUS
 62
     2
 10
764.0
 20
765.7
 11
764.0
 21
797.7
  0
LINE
  8
3
  6
CONTINUOUS
 62
     2
 10
764.0
 20
765.7
 11
765.6
 21
765.7
  0
LINE
  8
3
  6
CONTINUOUS
 62
     2
 10
760.8
 20
797.7
 11
757.6
 21
797.7
  0
LINE
  8
3
  6
CONTINUOUS
 62
     2
 10
757.6
 20
765.7
 11
757.6
 21
797.7
  0
LINE
  8
3
  6
CONTINUOUS
 62
     2
 10
760.8
 20
765.7
 11
757.6
 21
765.7
  0
LINE
  8
3
  6
CONTINUOUS
 62
     2
 10
760.8
 20
765.7
 11
760.8
 21
797.7
  0
LINE
  8
3
  6
CONTINUOUS
 62
     1
 10
763.7
 20
761.7
 11
761.1
 21
761.7
  0
LINE
  8
3
  6
CONTINUOUS
 62
     2
 10
765.6
 20
797.7
 11
765.6
 21
765.7
  0
CIRCLE
  8
3
  6
CONTINUOUS
 62
     1
 10
1248.1624
 20
779.475
 40
3.1
  0
CIRCLE
  8
3
  6
CONTINUOUS
 62
     1
 10
1248.1624
 20
779.475
 40
3.1
  0
LINE
  8
3
  6
CONTINUOUS
 62
     1
 10
1241.1
 20
801.7
 11
1265.6
 21
801.7
  0
LINE
  8
3
  6
CONTINUOUS
 62
     2
 10
1267.2
 20
797.7
 11
1265.6
 21
797.7
  0
LINE
  8
3
  6
CONTINUOUS
 62
     2
 10
1267.2
 20
765.7
 11
1267.2
 21
797.7
  0
LINE
  8
3
  6
CONTINUOUS
 62
     2
 10
1267.2
 20
765.7
 11
1265.6
 21
765.7
  0
LINE
  8
3
  6
CONTINUOUS
 62
     2
 10
1270.4
 20
797.7
 11
1273.6
 21
797.7
  0
LINE
  8
3
  6
CONTINUOUS
 62
     2
 10
1273.6
 20
765.7
 11
1273.6
 21
797.7
  0
LINE
  8
3
  6
CONTINUOUS
 62
     2
 10
1270.4
 20
765.7
 11
1273.6
 21
765.7
  0
LINE
  8
3
  6
CONTINUOUS
 62
     2
 10
1270.4
 20
765.7
 11
1270.4
 21
797.7
  0
LINE
  8
3
  6
CONTINUOUS
 62
     1
 10
1267.5
 20
761.7
 11
1270.1
 21
761.7
  0
LINE
  8
3
  6
CONTINUOUS
 62
     2
 10
1265.6
 20
797.7
 11
1265.6
 21
765.7
  0
CIRCLE
  8
3
  6
CONTINUOUS
 62
     1
 10
783.0376
 20
779.475
 40
3.1
  0
CIRCLE
  8
3
  6
CONTINUOUS
 62
     1
 10
783.0376
 20
779.475
 40
3.1
  0
CIRCLE
  8
3
  6
CONTINUOUS
 62
     1
 10
1248.1624
 20
779.475
 40
3.1
  0
CIRCLE
  8
3
  6
CONTINUOUS
 62
     1
 10
1248.1624
 20
779.475
 40
3.1
  0
LINE
  8
3
  6
CONTINUOUS
 62
     1
 10
790.1
 20
791.7
 11
1241.1
 21
791.7
  0
LINE
  8
3
  6
CONTINUOUS
 62
     1
 10
1270.1
 20
811.3
 11
761.1
 21
811.3
  0
CIRCLE
  8
3
  6
CONTINUOUS
 62
     1
 10
783.0376
 20
706.475
 40
3.1
  0
CIRCLE
  8
3
  6
CONTINUOUS
 62
     1
 10
783.0376
 20
674.675
 40
3.1
  0
CIRCLE
  8
3
  6
CONTINUOUS
 62
     1
 10
783.0376
 20
706.475
 40
3.1
  0
CIRCLE
  8
3
  6
CONTINUOUS
 62
     1
 10
783.0376
 20
674.675
 40
3.1
  0
CIRCLE
  8
3
  6
CONTINUOUS
 62
     1
 10
1248.1624
 20
706.475
 40
3.1
  0
CIRCLE
  8
3
  6
CONTINUOUS
 62
     1
 10
1248.1624
 20
674.675
 40
3.1
  0
CIRCLE
  8
3
  6
CONTINUOUS
 62
     1
 10
1248.1624
 20
706.475
 40
3.1
  0
CIRCLE
  8
3
  6
CONTINUOUS
 62
     1
 10
1248.1624
 20
674.675
 40
3.1
  0
CIRCLE
  8
3
  6
CONTINUOUS
 62
     1
 10
783.0376
 20
706.475
 40
3.1
  0
CIRCLE
  8
3
  6
CONTINUOUS
 62
     1
 10
783.0376
 20
706.475
 40
3.1
  0
CIRCLE
  8
3
  6
CONTINUOUS
 62
     1
 10
783.0376
 20
674.675
 40
3.1
  0
CIRCLE
  8
3
  6
CONTINUOUS
 62
     1
 10
783.0376
 20
674.675
 40
3.1
  0
CIRCLE
  8
3
  6
CONTINUOUS
 62
     1
 10
1248.1624
 20
706.475
 40
3.1
  0
CIRCLE
  8
3
  6
CONTINUOUS
 62
     1
 10
1248.1624
 20
706.475
 40
3.1
  0
CIRCLE
  8
3
  6
CONTINUOUS
 62
     1
 10
1248.1624
 20
674.675
 40
3.1
  0
CIRCLE
  8
3
  6
CONTINUOUS
 62
     1
 10
1248.1624
 20
674.675
 40
3.1
  0
ARC
  8
3
  6
CONTINUOUS
 62
     1
 10
1018.85
 20
703.5687
 40
2.0
 50
0.0
 51
179.999922725
  0
ARC
  8
3
  6
CONTINUOUS
 62
     1
 10
1018.85
 20
677.5687
 40
2.0
 50
179.999922725
 51
0.0
  0
LINE
  8
3
  6
CONTINUOUS
 62
     1
 10
1016.85
 20
703.568702697
 11
1016.85
 21
677.568702697
  0
LINE
  8
3
  6
CONTINUOUS
 62
     1
 10
1020.85
 20
703.5687
 11
1020.85
 21
677.5687
  0
ARC
  8
3
  6
CONTINUOUS
 62
     1
 10
1025.35
 20
703.5687
 40
2.0
 50
0.0
 51
179.999922725
  0
ARC
  8
3
  6
CONTINUOUS
 62
     1
 10
1025.35
 20
677.5687
 40
2.0
 50
179.999922725
 51
0.0
  0
LINE
  8
3
  6
CONTINUOUS
 62
     1
 10
1023.35
 20
703.568702697
 11
1023.35
 21
677.568702697
  0
LINE
  8
3
  6
CONTINUOUS
 62
     1
 10
1027.35
 20
703.5687
 11
1027.35
 21
677.5687
  0
ARC
  8
3
  6
CONTINUOUS
 62
     1
 10
1031.85
 20
703.5687
 40
2.0
 50
0.0
 51
179.999922725
  0
ARC
  8
3
  6
CONTINUOUS
 62
     1
 10
1031.85
 20
677.5687
 40
2.0
 50
179.999922725
 51
0.0
  0
LINE
  8
3
  6
CONTINUOUS
 62
     1
 10
1029.85
 20
703.568702697
 11
1029.85
 21
677.568702697
  0
LINE
  8
3
  6
CONTINUOUS
 62
     1
 10
1033.85
 20
703.5687
 11
1033.85
 21
677.5687
  0
ARC
  8
3
  6
CONTINUOUS
 62
     1
 10
1038.35
 20
703.5687
 40
2.0
 50
0.0
 51
179.999922725
  0
ARC
  8
3
  6
CONTINUOUS
 62
     1
 10
1038.35
 20
677.5687
 40
2.0
 50
179.999922725
 51
0.0
  0
LINE
  8
3
  6
CONTINUOUS
 62
     1
 10
1036.35
 20
703.568702697
 11
1036.35
 21
677.568702697
  0
LINE
  8
3
  6
CONTINUOUS
 62
     1
 10
1040.35
 20
703.5687
 11
1040.35
 21
677.5687
  0
ARC
  8
3
  6
CONTINUOUS
 62
     1
 10
1044.85
 20
703.5687
 40
2.0
 50
0.0
 51
179.999922725
  0
ARC
  8
3
  6
CONTINUOUS
 62
     1
 10
1044.85
 20
677.5687
 40
2.0
 50
179.999922725
 51
0.0
  0
LINE
  8
3
  6
CONTINUOUS
 62
     1
 10
1042.85
 20
703.568702697
 11
1042.85
 21
677.568702697
  0
LINE
  8
3
  6
CONTINUOUS
 62
     1
 10
1046.85
 20
703.5687
 11
1046.85
 21
677.5687
  0
ARC
  8
3
  6
CONTINUOUS
 62
     1
 10
1051.35
 20
703.5687
 40
2.0
 50
0.0
 51
179.999922725
  0
ARC
  8
3
  6
CONTINUOUS
 62
     1
 10
1051.35
 20
677.5687
 40
2.0
 50
179.999922725
 51
0.0
  0
LINE
  8
3
  6
CONTINUOUS
 62
     1
 10
1049.35
 20
703.568702697
 11
1049.35
 21
677.568702697
  0
LINE
  8
3
  6
CONTINUOUS
 62
     1
 10
1053.35
 20
703.5687
 11
1053.35
 21
677.5687
  0
ARC
  8
3
  6
CONTINUOUS
 62
     1
 10
1057.85
 20
703.5687
 40
2.0
 50
0.0
 51
179.999922725
  0
ARC
  8
3
  6
CONTINUOUS
 62
     1
 10
1057.85
 20
677.5687
 40
2.0
 50
179.999922725
 51
0.0
  0
LINE
  8
3
  6
CONTINUOUS
 62
     1
 10
1055.85
 20
703.568702697
 11
1055.85
 21
677.568702697
  0
LINE
  8
3
  6
CONTINUOUS
 62
     1
 10
1059.85
 20
703.5687
 11
1059.85
 21
677.5687
  0
ARC
  8
3
  6
CONTINUOUS
 62
     1
 10
1064.35
 20
703.5687
 40
2.0
 50
0.0
 51
179.999922725
  0
ARC
  8
3
  6
CONTINUOUS
 62
     1
 10
1064.35
 20
677.5687
 40
2.0
 50
179.999922725
 51
0.0
  0
LINE
  8
3
  6
CONTINUOUS
 62
     1
 10
1062.35
 20
703.568702697
 11
1062.35
 21
677.568702697
  0
LINE
  8
3
  6
CONTINUOUS
 62
     1
 10
1066.35
 20
703.5687
 11
1066.35
 21
677.5687
  0
ARC
  8
3
  6
CONTINUOUS
 62
     1
 10
1070.85
 20
703.5687
 40
2.0
 50
0.0
 51
179.999922725
  0
ARC
  8
3
  6
CONTINUOUS
 62
     1
 10
1070.85
 20
677.5687
 40
2.0
 50
179.999922725
 51
0.0
  0
LINE
  8
3
  6
CONTINUOUS
 62
     1
 10
1068.85
 20
703.568702697
 11
1068.85
 21
677.568702697
  0
LINE
  8
3
  6
CONTINUOUS
 62
     1
 10
1072.85
 20
703.5687
 11
1072.85
 21
677.5687
  0
ARC
  8
3
  6
CONTINUOUS
 62
     1
 10
1077.35
 20
703.5687
 40
2.0
 50
0.0
 51
179.999922725
  0
ARC
  8
3
  6
CONTINUOUS
 62
     1
 10
1077.35
 20
677.5687
 40
2.0
 50
179.999922725
 51
0.0
  0
LINE
  8
3
  6
CONTINUOUS
 62
     1
 10
1075.35
 20
703.568702697
 11
1075.35
 21
677.568702697
  0
LINE
  8
3
  6
CONTINUOUS
 62
     1
 10
1079.35
 20
703.5687
 11
1079.35
 21
677.5687
  0
ARC
  8
3
  6
CONTINUOUS
 62
     1
 10
1083.85
 20
703.5687
 40
2.0
 50
0.0
 51
179.999922725
  0
ARC
  8
3
  6
CONTINUOUS
 62
     1
 10
1083.85
 20
677.5687
 40
2.0
 50
179.999922725
 51
0.0
  0
LINE
  8
3
  6
CONTINUOUS
 62
     1
 10
1081.85
 20
703.568702697
 11
1081.85
 21
677.568702697
  0
LINE
  8
3
  6
CONTINUOUS
 62
     1
 10
1085.85
 20
703.5687
 11
1085.85
 21
677.5687
  0
ARC
  8
3
  6
CONTINUOUS
 62
     1
 10
1090.35
 20
703.5687
 40
2.0
 50
0.0
 51
179.999922725
  0
ARC
  8
3
  6
CONTINUOUS
 62
     1
 10
1090.35
 20
677.5687
 40
2.0
 50
179.999922725
 51
0.0
  0
LINE
  8
3
  6
CONTINUOUS
 62
     1
 10
1088.35
 20
703.568702697
 11
1088.35
 21
677.568702697
  0
LINE
  8
3
  6
CONTINUOUS
 62
     1
 10
1092.35
 20
703.5687
 11
1092.35
 21
677.5687
  0
ARC
  8
3
  6
CONTINUOUS
 62
     1
 10
1096.85
 20
703.5687
 40
2.0
 50
0.0
 51
179.999922725
  0
ARC
  8
3
  6
CONTINUOUS
 62
     1
 10
1096.85
 20
677.5687
 40
2.0
 50
179.999922725
 51
0.0
  0
LINE
  8
3
  6
CONTINUOUS
 62
     1
 10
1094.85
 20
703.568702697
 11
1094.85
 21
677.568702697
  0
LINE
  8
3
  6
CONTINUOUS
 62
     1
 10
1098.85
 20
703.5687
 11
1098.85
 21
677.5687
  0
ARC
  8
3
  6
CONTINUOUS
 62
     1
 10
1103.35
 20
703.5687
 40
2.0
 50
0.0
 51
179.999922725
  0
ARC
  8
3
  6
CONTINUOUS
 62
     1
 10
1103.35
 20
677.5687
 40
2.0
 50
179.999922725
 51
0.0
  0
LINE
  8
3
  6
CONTINUOUS
 62
     1
 10
1101.35
 20
703.568702697
 11
1101.35
 21
677.568702697
  0
LINE
  8
3
  6
CONTINUOUS
 62
     1
 10
1105.35
 20
703.5687
 11
1105.35
 21
677.5687
  0
ARC
  8
3
  6
CONTINUOUS
 62
     1
 10
1109.85
 20
703.5687
 40
2.0
 50
0.0
 51
179.999922725
  0
ARC
  8
3
  6
CONTINUOUS
 62
     1
 10
1109.85
 20
677.5687
 40
2.0
 50
179.999922725
 51
0.0
  0
LINE
  8
3
  6
CONTINUOUS
 62
     1
 10
1107.85
 20
703.568702697
 11
1107.85
 21
677.568702697
  0
LINE
  8
3
  6
CONTINUOUS
 62
     1
 10
1111.85
 20
703.5687
 11
1111.85
 21
677.5687
  0
ARC
  8
3
  6
CONTINUOUS
 62
     1
 10
1116.35
 20
703.5687
 40
2.0
 50
0.0
 51
179.999922725
  0
ARC
  8
3
  6
CONTINUOUS
 62
     1
 10
1116.35
 20
677.5687
 40
2.0
 50
179.999922725
 51
0.0
  0
LINE
  8
3
  6
CONTINUOUS
 62
     1
 10
1114.35
 20
703.568702697
 11
1114.35
 21
677.568702697
  0
LINE
  8
3
  6
CONTINUOUS
 62
     1
 10
1118.35
 20
703.5687
 11
1118.35
 21
677.5687
  0
ARC
  8
3
  6
CONTINUOUS
 62
     1
 10
1122.85
 20
703.5687
 40
2.0
 50
0.0
 51
179.999922725
  0
ARC
  8
3
  6
CONTINUOUS
 62
     1
 10
1122.85
 20
677.5687
 40
2.0
 50
179.999922725
 51
0.0
  0
LINE
  8
3
  6
CONTINUOUS
 62
     1
 10
1120.85
 20
703.568702697
 11
1120.85
 21
677.568702697
  0
LINE
  8
3
  6
CONTINUOUS
 62
     1
 10
1124.85
 20
703.5687
 11
1124.85
 21
677.5687
  0
ARC
  8
3
  6
CONTINUOUS
 62
     1
 10
1129.35
 20
703.5687
 40
2.0
 50
0.0
 51
179.999922725
  0
ARC
  8
3
  6
CONTINUOUS
 62
     1
 10
1129.35
 20
677.5687
 40
2.0
 50
179.999922725
 51
0.0
  0
LINE
  8
3
  6
CONTINUOUS
 62
     1
 10
1127.35
 20
703.568702697
 11
1127.35
 21
677.568702697
  0
LINE
  8
3
  6
CONTINUOUS
 62
     1
 10
1131.35
 20
703.5687
 11
1131.35
 21
677.5687
  0
ARC
  8
3
  6
CONTINUOUS
 62
     1
 10
1135.85
 20
703.5687
 40
2.0
 50
0.0
 51
179.999922725
  0
ARC
  8
3
  6
CONTINUOUS
 62
     1
 10
1135.85
 20
677.5687
 40
2.0
 50
179.999922725
 51
0.0
  0
LINE
  8
3
  6
CONTINUOUS
 62
     1
 10
1133.85
 20
703.568702697
 11
1133.85
 21
677.568702697
  0
LINE
  8
3
  6
CONTINUOUS
 62
     1
 10
1137.85
 20
703.5687
 11
1137.85
 21
677.5687
  0
ARC
  8
3
  6
CONTINUOUS
 62
     1
 10
1142.35
 20
703.5687
 40
2.0
 50
0.0
 51
179.999922725
  0
ARC
  8
3
  6
CONTINUOUS
 62
     1
 10
1142.35
 20
677.5687
 40
2.0
 50
179.999922725
 51
0.0
  0
LINE
  8
3
  6
CONTINUOUS
 62
     1
 10
1140.35
 20
703.568702697
 11
1140.35
 21
677.568702697
  0
LINE
  8
3
  6
CONTINUOUS
 62
     1
 10
1144.35
 20
703.5687
 11
1144.35
 21
677.5687
  0
ARC
  8
3
  6
CONTINUOUS
 62
     1
 10
1148.85
 20
703.5687
 40
2.0
 50
0.0
 51
179.999922725
  0
ARC
  8
3
  6
CONTINUOUS
 62
     1
 10
1148.85
 20
677.5687
 40
2.0
 50
179.999922725
 51
0.0
  0
LINE
  8
3
  6
CONTINUOUS
 62
     1
 10
1146.85
 20
703.568702697
 11
1146.85
 21
677.568702697
  0
LINE
  8
3
  6
CONTINUOUS
 62
     1
 10
1150.85
 20
703.5687
 11
1150.85
 21
677.5687
  0
ARC
  8
3
  6
CONTINUOUS
 62
     1
 10
1155.35
 20
703.5687
 40
2.0
 50
0.0
 51
179.999922725
  0
ARC
  8
3
  6
CONTINUOUS
 62
     1
 10
1155.35
 20
677.5687
 40
2.0
 50
179.999922725
 51
0.0
  0
LINE
  8
3
  6
CONTINUOUS
 62
     1
 10
1153.35
 20
703.568702697
 11
1153.35
 21
677.568702697
  0
LINE
  8
3
  6
CONTINUOUS
 62
     1
 10
1157.35
 20
703.5687
 11
1157.35
 21
677.5687
  0
ARC
  8
3
  6
CONTINUOUS
 62
     1
 10
1161.85
 20
703.5687
 40
2.0
 50
0.0
 51
179.999922725
  0
ARC
  8
3
  6
CONTINUOUS
 62
     1
 10
1161.85
 20
677.5687
 40
2.0
 50
179.999922725
 51
0.0
  0
LINE
  8
3
  6
CONTINUOUS
 62
     1
 10
1159.85
 20
703.568702697
 11
1159.85
 21
677.568702697
  0
LINE
  8
3
  6
CONTINUOUS
 62
     1
 10
1163.85
 20
703.5687
 11
1163.85
 21
677.5687
  0
ARC
  8
3
  6
CONTINUOUS
 62
     1
 10
1168.35
 20
703.5687
 40
2.0
 50
0.0
 51
179.999922725
  0
ARC
  8
3
  6
CONTINUOUS
 62
     1
 10
1168.35
 20
677.5687
 40
2.0
 50
179.999922725
 51
0.0
  0
LINE
  8
3
  6
CONTINUOUS
 62
     1
 10
1166.35
 20
703.568702697
 11
1166.35
 21
677.568702697
  0
LINE
  8
3
  6
CONTINUOUS
 62
     1
 10
1170.35
 20
703.5687
 11
1170.35
 21
677.5687
  0
ARC
  8
3
  6
CONTINUOUS
 62
     1
 10
1174.85
 20
703.5687
 40
2.0
 50
0.0
 51
179.999922725
  0
ARC
  8
3
  6
CONTINUOUS
 62
     1
 10
1174.85
 20
677.5687
 40
2.0
 50
179.999922725
 51
0.0
  0
LINE
  8
3
  6
CONTINUOUS
 62
     1
 10
1172.85
 20
703.568702697
 11
1172.85
 21
677.568702697
  0
LINE
  8
3
  6
CONTINUOUS
 62
     1
 10
1176.85
 20
703.5687
 11
1176.85
 21
677.5687
  0
ARC
  8
3
  6
CONTINUOUS
 62
     1
 10
1181.35
 20
703.5687
 40
2.0
 50
0.0
 51
179.999922725
  0
ARC
  8
3
  6
CONTINUOUS
 62
     1
 10
1181.35
 20
677.5687
 40
2.0
 50
179.999922725
 51
0.0
  0
LINE
  8
3
  6
CONTINUOUS
 62
     1
 10
1179.35
 20
703.568702697
 11
1179.35
 21
677.568702697
  0
LINE
  8
3
  6
CONTINUOUS
 62
     1
 10
1183.35
 20
703.5687
 11
1183.35
 21
677.5687
  0
ARC
  8
3
  6
CONTINUOUS
 62
     1
 10
1187.85
 20
703.5687
 40
2.0
 50
0.0
 51
179.999922725
  0
ARC
  8
3
  6
CONTINUOUS
 62
     1
 10
1187.85
 20
677.5687
 40
2.0
 50
179.999922725
 51
0.0
  0
LINE
  8
3
  6
CONTINUOUS
 62
     1
 10
1185.85
 20
703.568702697
 11
1185.85
 21
677.568702697
  0
LINE
  8
3
  6
CONTINUOUS
 62
     1
 10
1189.85
 20
703.5687
 11
1189.85
 21
677.5687
  0
ARC
  8
3
  6
CONTINUOUS
 62
     1
 10
1194.35
 20
703.5687
 40
2.0
 50
0.0
 51
179.999922725
  0
ARC
  8
3
  6
CONTINUOUS
 62
     1
 10
1194.35
 20
677.5687
 40
2.0
 50
179.999922725
 51
0.0
  0
LINE
  8
3
  6
CONTINUOUS
 62
     1
 10
1192.35
 20
703.568702697
 11
1192.35
 21
677.568702697
  0
LINE
  8
3
  6
CONTINUOUS
 62
     1
 10
1196.35
 20
703.5687
 11
1196.35
 21
677.5687
  0
ARC
  8
3
  6
CONTINUOUS
 62
     1
 10
1200.85
 20
703.5687
 40
2.0
 50
0.0
 51
179.999922725
  0
ARC
  8
3
  6
CONTINUOUS
 62
     1
 10
1200.85
 20
677.5687
 40
2.0
 50
179.999922725
 51
0.0
  0
LINE
  8
3
  6
CONTINUOUS
 62
     1
 10
1198.85
 20
703.568702697
 11
1198.85
 21
677.568702697
  0
LINE
  8
3
  6
CONTINUOUS
 62
     1
 10
1202.85
 20
703.5687
 11
1202.85
 21
677.5687
  0
ARC
  8
3
  6
CONTINUOUS
 62
     1
 10
1207.35
 20
703.5687
 40
2.0
 50
0.0
 51
179.999922725
  0
ARC
  8
3
  6
CONTINUOUS
 62
     1
 10
1207.35
 20
677.5687
 40
2.0
 50
179.999922725
 51
0.0
  0
LINE
  8
3
  6
CONTINUOUS
 62
     1
 10
1205.35
 20
703.568702697
 11
1205.35
 21
677.568702697
  0
LINE
  8
3
  6
CONTINUOUS
 62
     1
 10
1209.35
 20
703.5687
 11
1209.35
 21
677.5687
  0
ARC
  8
3
  6
CONTINUOUS
 62
     1
 10
1012.35
 20
703.5687
 40
2.0
 50
0.0
 51
179.999922725
  0
ARC
  8
3
  6
CONTINUOUS
 62
     1
 10
1012.35
 20
677.5687
 40
2.0
 50
179.999922725
 51
0.0
  0
LINE
  8
3
  6
CONTINUOUS
 62
     1
 10
1010.35
 20
703.568702697
 11
1010.35
 21
677.568702697
  0
LINE
  8
3
  6
CONTINUOUS
 62
     1
 10
1014.35
 20
703.5687
 11
1014.35
 21
677.5687
  0
ARC
  8
3
  6
CONTINUOUS
 62
     1
 10
1005.85
 20
703.5687
 40
2.0
 50
0.0
 51
179.999922725
  0
ARC
  8
3
  6
CONTINUOUS
 62
     1
 10
1005.85
 20
677.5687
 40
2.0
 50
179.999922725
 51
0.0
  0
LINE
  8
3
  6
CONTINUOUS
 62
     1
 10
1003.85
 20
703.568702697
 11
1003.85
 21
677.568702697
  0
LINE
  8
3
  6
CONTINUOUS
 62
     1
 10
1007.85
 20
703.5687
 11
1007.85
 21
677.5687
  0
ARC
  8
3
  6
CONTINUOUS
 62
     1
 10
999.35
 20
703.5687
 40
2.0
 50
0.0
 51
179.999922725
  0
ARC
  8
3
  6
CONTINUOUS
 62
     1
 10
999.35
 20
677.5687
 40
2.0
 50
179.999922725
 51
0.0
  0
LINE
  8
3
  6
CONTINUOUS
 62
     1
 10
997.35
 20
703.568702697
 11
997.35
 21
677.568702697
  0
LINE
  8
3
  6
CONTINUOUS
 62
     1
 10
1001.35
 20
703.5687
 11
1001.35
 21
677.5687
  0
ARC
  8
3
  6
CONTINUOUS
 62
     1
 10
992.85
 20
703.5687
 40
2.0
 50
0.0
 51
179.999922725
  0
ARC
  8
3
  6
CONTINUOUS
 62
     1
 10
992.85
 20
677.5687
 40
2.0
 50
179.999922725
 51
0.0
  0
LINE
  8
3
  6
CONTINUOUS
 62
     1
 10
990.85
 20
703.568702697
 11
990.85
 21
677.568702697
  0
LINE
  8
3
  6
CONTINUOUS
 62
     1
 10
994.85
 20
703.5687
 11
994.85
 21
677.5687
  0
ARC
  8
3
  6
CONTINUOUS
 62
     1
 10
986.35
 20
703.5687
 40
2.0
 50
0.0
 51
179.999922725
  0
ARC
  8
3
  6
CONTINUOUS
 62
     1
 10
986.35
 20
677.5687
 40
2.0
 50
179.999922725
 51
0.0
  0
LINE
  8
3
  6
CONTINUOUS
 62
     1
 10
984.35
 20
703.568702697
 11
984.35
 21
677.568702697
  0
LINE
  8
3
  6
CONTINUOUS
 62
     1
 10
988.35
 20
703.5687
 11
988.35
 21
677.5687
  0
ARC
  8
3
  6
CONTINUOUS
 62
     1
 10
979.85
 20
703.5687
 40
2.0
 50
0.0
 51
179.999922725
  0
ARC
  8
3
  6
CONTINUOUS
 62
     1
 10
979.85
 20
677.5687
 40
2.0
 50
179.999922725
 51
0.0
  0
LINE
  8
3
  6
CONTINUOUS
 62
     1
 10
977.85
 20
703.568702697
 11
977.85
 21
677.568702697
  0
LINE
  8
3
  6
CONTINUOUS
 62
     1
 10
981.85
 20
703.5687
 11
981.85
 21
677.5687
  0
ARC
  8
3
  6
CONTINUOUS
 62
     1
 10
973.35
 20
703.5687
 40
2.0
 50
0.0
 51
179.999922725
  0
ARC
  8
3
  6
CONTINUOUS
 62
     1
 10
973.35
 20
677.5687
 40
2.0
 50
179.999922725
 51
0.0
  0
LINE
  8
3
  6
CONTINUOUS
 62
     1
 10
971.35
 20
703.568702697
 11
971.35
 21
677.568702697
  0
LINE
  8
3
  6
CONTINUOUS
 62
     1
 10
975.35
 20
703.5687
 11
975.35
 21
677.5687
  0
ARC
  8
3
  6
CONTINUOUS
 62
     1
 10
966.85
 20
703.5687
 40
2.0
 50
0.0
 51
179.999922725
  0
ARC
  8
3
  6
CONTINUOUS
 62
     1
 10
966.85
 20
677.5687
 40
2.0
 50
179.999922725
 51
0.0
  0
LINE
  8
3
  6
CONTINUOUS
 62
     1
 10
964.85
 20
703.568702697
 11
964.85
 21
677.568702697
  0
LINE
  8
3
  6
CONTINUOUS
 62
     1
 10
968.85
 20
703.5687
 11
968.85
 21
677.5687
  0
ARC
  8
3
  6
CONTINUOUS
 62
     1
 10
960.35
 20
703.5687
 40
2.0
 50
0.0
 51
179.999922725
  0
ARC
  8
3
  6
CONTINUOUS
 62
     1
 10
960.35
 20
677.5687
 40
2.0
 50
179.999922725
 51
0.0
  0
LINE
  8
3
  6
CONTINUOUS
 62
     1
 10
958.35
 20
703.568702697
 11
958.35
 21
677.568702697
  0
LINE
  8
3
  6
CONTINUOUS
 62
     1
 10
962.35
 20
703.5687
 11
962.35
 21
677.5687
  0
ARC
  8
3
  6
CONTINUOUS
 62
     1
 10
953.85
 20
703.5687
 40
2.0
 50
0.0
 51
179.999922725
  0
ARC
  8
3
  6
CONTINUOUS
 62
     1
 10
953.85
 20
677.5687
 40
2.0
 50
179.999922725
 51
0.0
  0
LINE
  8
3
  6
CONTINUOUS
 62
     1
 10
951.85
 20
703.568702697
 11
951.85
 21
677.568702697
  0
LINE
  8
3
  6
CONTINUOUS
 62
     1
 10
955.85
 20
703.5687
 11
955.85
 21
677.5687
  0
ARC
  8
3
  6
CONTINUOUS
 62
     1
 10
947.35
 20
703.5687
 40
2.0
 50
0.0
 51
179.999922725
  0
ARC
  8
3
  6
CONTINUOUS
 62
     1
 10
947.35
 20
677.5687
 40
2.0
 50
179.999922725
 51
0.0
  0
LINE
  8
3
  6
CONTINUOUS
 62
     1
 10
945.35
 20
703.568702697
 11
945.35
 21
677.568702697
  0
LINE
  8
3
  6
CONTINUOUS
 62
     1
 10
949.35
 20
703.5687
 11
949.35
 21
677.5687
  0
ARC
  8
3
  6
CONTINUOUS
 62
     1
 10
940.85
 20
703.5687
 40
2.0
 50
0.0
 51
179.999922725
  0
ARC
  8
3
  6
CONTINUOUS
 62
     1
 10
940.85
 20
677.5687
 40
2.0
 50
179.999922725
 51
0.0
  0
LINE
  8
3
  6
CONTINUOUS
 62
     1
 10
938.85
 20
703.568702697
 11
938.85
 21
677.568702697
  0
LINE
  8
3
  6
CONTINUOUS
 62
     1
 10
942.85
 20
703.5687
 11
942.85
 21
677.5687
  0
ARC
  8
3
  6
CONTINUOUS
 62
     1
 10
934.35
 20
703.5687
 40
2.0
 50
0.0
 51
179.999922725
  0
ARC
  8
3
  6
CONTINUOUS
 62
     1
 10
934.35
 20
677.5687
 40
2.0
 50
179.999922725
 51
0.0
  0
LINE
  8
3
  6
CONTINUOUS
 62
     1
 10
932.35
 20
703.568702697
 11
932.35
 21
677.568702697
  0
LINE
  8
3
  6
CONTINUOUS
 62
     1
 10
936.35
 20
703.5687
 11
936.35
 21
677.5687
  0
ARC
  8
3
  6
CONTINUOUS
 62
     1
 10
927.85
 20
703.5687
 40
2.0
 50
0.0
 51
179.999922725
  0
ARC
  8
3
  6
CONTINUOUS
 62
     1
 10
927.85
 20
677.5687
 40
2.0
 50
179.999922725
 51
0.0
  0
LINE
  8
3
  6
CONTINUOUS
 62
     1
 10
925.85
 20
703.568702697
 11
925.85
 21
677.568702697
  0
LINE
  8
3
  6
CONTINUOUS
 62
     1
 10
929.85
 20
703.5687
 11
929.85
 21
677.5687
  0
ARC
  8
3
  6
CONTINUOUS
 62
     1
 10
921.35
 20
703.5687
 40
2.0
 50
0.0
 51
179.999922725
  0
ARC
  8
3
  6
CONTINUOUS
 62
     1
 10
921.35
 20
677.5687
 40
2.0
 50
179.999922725
 51
0.0
  0
LINE
  8
3
  6
CONTINUOUS
 62
     1
 10
919.35
 20
703.568702697
 11
919.35
 21
677.568702697
  0
LINE
  8
3
  6
CONTINUOUS
 62
     1
 10
923.35
 20
703.5687
 11
923.35
 21
677.5687
  0
ARC
  8
3
  6
CONTINUOUS
 62
     1
 10
914.85
 20
703.5687
 40
2.0
 50
0.0
 51
179.999922725
  0
ARC
  8
3
  6
CONTINUOUS
 62
     1
 10
914.85
 20
677.5687
 40
2.0
 50
179.999922725
 51
0.0
  0
LINE
  8
3
  6
CONTINUOUS
 62
     1
 10
912.85
 20
703.568702697
 11
912.85
 21
677.568702697
  0
LINE
  8
3
  6
CONTINUOUS
 62
     1
 10
916.85
 20
703.5687
 11
916.85
 21
677.5687
  0
ARC
  8
3
  6
CONTINUOUS
 62
     1
 10
908.35
 20
703.5687
 40
2.0
 50
0.0
 51
179.999922725
  0
ARC
  8
3
  6
CONTINUOUS
 62
     1
 10
908.35
 20
677.5687
 40
2.0
 50
179.999922725
 51
0.0
  0
LINE
  8
3
  6
CONTINUOUS
 62
     1
 10
906.35
 20
703.568702697
 11
906.35
 21
677.568702697
  0
LINE
  8
3
  6
CONTINUOUS
 62
     1
 10
910.35
 20
703.5687
 11
910.35
 21
677.5687
  0
ARC
  8
3
  6
CONTINUOUS
 62
     1
 10
901.85
 20
703.5687
 40
2.0
 50
0.0
 51
179.999922725
  0
ARC
  8
3
  6
CONTINUOUS
 62
     1
 10
901.85
 20
677.5687
 40
2.0
 50
179.999922725
 51
0.0
  0
LINE
  8
3
  6
CONTINUOUS
 62
     1
 10
899.85
 20
703.568702697
 11
899.85
 21
677.568702697
  0
LINE
  8
3
  6
CONTINUOUS
 62
     1
 10
903.85
 20
703.5687
 11
903.85
 21
677.5687
  0
ARC
  8
3
  6
CONTINUOUS
 62
     1
 10
895.35
 20
703.5687
 40
2.0
 50
0.0
 51
179.999922725
  0
ARC
  8
3
  6
CONTINUOUS
 62
     1
 10
895.35
 20
677.5687
 40
2.0
 50
179.999922725
 51
0.0
  0
LINE
  8
3
  6
CONTINUOUS
 62
     1
 10
893.35
 20
703.568702697
 11
893.35
 21
677.568702697
  0
LINE
  8
3
  6
CONTINUOUS
 62
     1
 10
897.35
 20
703.5687
 11
897.35
 21
677.5687
  0
ARC
  8
3
  6
CONTINUOUS
 62
     1
 10
888.85
 20
703.5687
 40
2.0
 50
0.0
 51
179.999922725
  0
ARC
  8
3
  6
CONTINUOUS
 62
     1
 10
888.85
 20
677.5687
 40
2.0
 50
179.999922725
 51
0.0
  0
LINE
  8
3
  6
CONTINUOUS
 62
     1
 10
886.85
 20
703.568702697
 11
886.85
 21
677.568702697
  0
LINE
  8
3
  6
CONTINUOUS
 62
     1
 10
890.85
 20
703.5687
 11
890.85
 21
677.5687
  0
ARC
  8
3
  6
CONTINUOUS
 62
     1
 10
882.35
 20
703.5687
 40
2.0
 50
0.0
 51
179.999922725
  0
ARC
  8
3
  6
CONTINUOUS
 62
     1
 10
882.35
 20
677.5687
 40
2.0
 50
179.999922725
 51
0.0
  0
LINE
  8
3
  6
CONTINUOUS
 62
     1
 10
880.35
 20
703.568702697
 11
880.35
 21
677.568702697
  0
LINE
  8
3
  6
CONTINUOUS
 62
     1
 10
884.35
 20
703.5687
 11
884.35
 21
677.5687
  0
ARC
  8
3
  6
CONTINUOUS
 62
     1
 10
875.85
 20
703.5687
 40
2.0
 50
0.0
 51
179.999922725
  0
ARC
  8
3
  6
CONTINUOUS
 62
     1
 10
875.85
 20
677.5687
 40
2.0
 50
179.999922725
 51
0.0
  0
LINE
  8
3
  6
CONTINUOUS
 62
     1
 10
873.85
 20
703.568702697
 11
873.85
 21
677.568702697
  0
LINE
  8
3
  6
CONTINUOUS
 62
     1
 10
877.85
 20
703.5687
 11
877.85
 21
677.5687
  0
ARC
  8
3
  6
CONTINUOUS
 62
     1
 10
869.35
 20
703.5687
 40
2.0
 50
0.0
 51
179.999922725
  0
ARC
  8
3
  6
CONTINUOUS
 62
     1
 10
869.35
 20
677.5687
 40
2.0
 50
179.999922725
 51
0.0
  0
LINE
  8
3
  6
CONTINUOUS
 62
     1
 10
867.35
 20
703.568702697
 11
867.35
 21
677.568702697
  0
LINE
  8
3
  6
CONTINUOUS
 62
     1
 10
871.35
 20
703.5687
 11
871.35
 21
677.5687
  0
ARC
  8
3
  6
CONTINUOUS
 62
     1
 10
862.85
 20
703.5687
 40
2.0
 50
0.0
 51
179.999922725
  0
ARC
  8
3
  6
CONTINUOUS
 62
     1
 10
862.85
 20
677.5687
 40
2.0
 50
179.999922725
 51
0.0
  0
LINE
  8
3
  6
CONTINUOUS
 62
     1
 10
860.85
 20
703.568702697
 11
860.85
 21
677.568702697
  0
LINE
  8
3
  6
CONTINUOUS
 62
     1
 10
864.85
 20
703.5687
 11
864.85
 21
677.5687
  0
ARC
  8
3
  6
CONTINUOUS
 62
     1
 10
856.35
 20
703.5687
 40
2.0
 50
0.0
 51
179.999922725
  0
ARC
  8
3
  6
CONTINUOUS
 62
     1
 10
856.35
 20
677.5687
 40
2.0
 50
179.999922725
 51
0.0
  0
LINE
  8
3
  6
CONTINUOUS
 62
     1
 10
854.35
 20
703.568702697
 11
854.35
 21
677.568702697
  0
LINE
  8
3
  6
CONTINUOUS
 62
     1
 10
858.35
 20
703.5687
 11
858.35
 21
677.5687
  0
ARC
  8
3
  6
CONTINUOUS
 62
     1
 10
849.85
 20
703.5687
 40
2.0
 50
0.0
 51
179.999922725
  0
ARC
  8
3
  6
CONTINUOUS
 62
     1
 10
849.85
 20
677.5687
 40
2.0
 50
179.999922725
 51
0.0
  0
LINE
  8
3
  6
CONTINUOUS
 62
     1
 10
847.85
 20
703.568702697
 11
847.85
 21
677.568702697
  0
LINE
  8
3
  6
CONTINUOUS
 62
     1
 10
851.85
 20
703.5687
 11
851.85
 21
677.5687
  0
ARC
  8
3
  6
CONTINUOUS
 62
     1
 10
843.35
 20
703.5687
 40
2.0
 50
0.0
 51
179.999922725
  0
ARC
  8
3
  6
CONTINUOUS
 62
     1
 10
843.35
 20
677.5687
 40
2.0
 50
179.999922725
 51
0.0
  0
LINE
  8
3
  6
CONTINUOUS
 62
     1
 10
841.35
 20
703.568702697
 11
841.35
 21
677.568702697
  0
LINE
  8
3
  6
CONTINUOUS
 62
     1
 10
845.35
 20
703.5687
 11
845.35
 21
677.5687
  0
ARC
  8
3
  6
CONTINUOUS
 62
     1
 10
836.85
 20
703.5687
 40
2.0
 50
0.0
 51
179.999922725
  0
ARC
  8
3
  6
CONTINUOUS
 62
     1
 10
836.85
 20
677.5687
 40
2.0
 50
179.999922725
 51
0.0
  0
LINE
  8
3
  6
CONTINUOUS
 62
     1
 10
834.85
 20
703.568702697
 11
834.85
 21
677.568702697
  0
LINE
  8
3
  6
CONTINUOUS
 62
     1
 10
838.85
 20
703.5687
 11
838.85
 21
677.5687
  0
ARC
  8
3
  6
CONTINUOUS
 62
     1
 10
830.35
 20
703.5687
 40
2.0
 50
0.0
 51
179.999922725
  0
ARC
  8
3
  6
CONTINUOUS
 62
     1
 10
830.35
 20
677.5687
 40
2.0
 50
179.999922725
 51
0.0
  0
LINE
  8
3
  6
CONTINUOUS
 62
     1
 10
828.35
 20
703.568702697
 11
828.35
 21
677.568702697
  0
LINE
  8
3
  6
CONTINUOUS
 62
     1
 10
832.35
 20
703.5687
 11
832.35
 21
677.5687
  0
ARC
  8
3
  6
CONTINUOUS
 62
     1
 10
823.85
 20
703.5687
 40
2.0
 50
0.0
 51
179.999922725
  0
ARC
  8
3
  6
CONTINUOUS
 62
     1
 10
823.85
 20
677.5687
 40
2.0
 50
179.999922725
 51
0.0
  0
LINE
  8
3
  6
CONTINUOUS
 62
     1
 10
821.85
 20
703.568702697
 11
821.85
 21
677.568702697
  0
LINE
  8
3
  6
CONTINUOUS
 62
     1
 10
825.85
 20
703.5687
 11
825.85
 21
677.5687
  0
ARC
  8
3
  6
CONTINUOUS
 62
     1
 10
1213.85
 20
703.5687
 40
2.0
 50
0.0
 51
179.999922725
  0
ARC
  8
3
  6
CONTINUOUS
 62
     1
 10
1213.85
 20
677.5687
 40
2.0
 50
179.999922725
 51
0.0
  0
LINE
  8
3
  6
CONTINUOUS
 62
     1
 10
1211.85
 20
703.568702697
 11
1211.85
 21
677.568702697
  0
LINE
  8
3
  6
CONTINUOUS
 62
     1
 10
1215.85
 20
703.5687
 11
1215.85
 21
677.5687
  0
ARC
  8
3
  6
CONTINUOUS
 62
     1
 10
1220.35
 20
703.5687
 40
2.0
 50
0.0
 51
179.999922725
  0
ARC
  8
3
  6
CONTINUOUS
 62
     1
 10
1220.35
 20
677.5687
 40
2.0
 50
179.999922725
 51
0.0
  0
LINE
  8
3
  6
CONTINUOUS
 62
     1
 10
1218.35
 20
703.568702697
 11
1218.35
 21
677.568702697
  0
LINE
  8
3
  6
CONTINUOUS
 62
     1
 10
1222.35
 20
703.5687
 11
1222.35
 21
677.5687
  0
ARC
  8
3
  6
CONTINUOUS
 62
     1
 10
817.35
 20
703.5687
 40
2.0
 50
0.0
 51
179.999922725
  0
ARC
  8
3
  6
CONTINUOUS
 62
     1
 10
817.35
 20
677.5687
 40
2.0
 50
179.999922725
 51
0.0
  0
LINE
  8
3
  6
CONTINUOUS
 62
     1
 10
815.35
 20
703.568702697
 11
815.35
 21
677.568702697
  0
LINE
  8
3
  6
CONTINUOUS
 62
     1
 10
819.35
 20
703.5687
 11
819.35
 21
677.5687
  0
ARC
  8
3
  6
CONTINUOUS
 62
     1
 10
810.85
 20
703.5687
 40
2.0
 50
0.0
 51
179.999922725
  0
ARC
  8
3
  6
CONTINUOUS
 62
     1
 10
810.85
 20
677.5687
 40
2.0
 50
179.999922725
 51
0.0
  0
LINE
  8
3
  6
CONTINUOUS
 62
     1
 10
808.85
 20
703.568702697
 11
808.85
 21
677.568702697
  0
LINE
  8
3
  6
CONTINUOUS
 62
     1
 10
812.85
 20
703.5687
 11
812.85
 21
677.5687
  0
LINE
  8
3
  6
CONTINUOUS
 62
     1
 10
765.6
 20
668.7187
 11
765.6
 21
801.7
  0
POLYLINE
  8
3
  6
CONTINUOUS
 62
     1
 66
     1
  0
VERTEX
  8
3
  6
CONTINUOUS
 62
     1
 10
765.6
 20
668.7187
  0
VERTEX
  8
3
  6
CONTINUOUS
 62
     1
 10
1265.6
 20
668.7187
  0
VERTEX
  8
3
  6
CONTINUOUS
 62
     1
 10
1265.6
 20
801.7
  0
SEQEND
  0
LINE
  8
3
  6
CONTINUOUS
 62
     1
 10
790.1
 20
791.7
 11
790.1
 21
801.7
  0
LINE
  8
3
  6
CONTINUOUS
 62
     1
 10
1241.1
 20
791.7
 11
1241.1
 21
801.7
  0
LINE
  8
3
  6
CONTINUOUS
 62
     1
 10
1270.1
 20
761.7
 11
1270.1
 21
847.75
  0
LINE
  8
3
  6
CONTINUOUS
 62
     1
 10
1267.5
 20
761.7
 11
1267.5
 21
811.3
  0
LINE
  8
3
  6
CONTINUOUS
 62
     1
 10
763.7
 20
761.7
 11
763.7
 21
811.3
  0
LINE
  8
3
  6
CONTINUOUS
 62
     1
 10
1270.1
 20
847.75
 11
761.1
 21
847.75
  0
LINE
  8
3
  6
CONTINUOUS
 62
     1
 10
761.1
 20
761.7
 11
761.1
 21
847.75
  0
LINE
  8
3
  6
CONTINUOUS
 62
     1
 10
1486.45
 20
735.025
 11
1886.45
 21
735.025
  0
LINE
  8
3
  6
CONTINUOUS
 62
     1
 10
1486.45
 20
735.025
 11
1886.45
 21
735.025
  0
CIRCLE
  8
3
  6
CONTINUOUS
 62
     2
 10
1506.45
 20
781.7
 40
16.0
  0
CIRCLE
  8
3
  6
CONTINUOUS
 62
     2
 10
1506.45
 20
781.7
 40
12.3
  0
CIRCLE
  8
3
  6
CONTINUOUS
 62
     2
 10
1506.45
 20
781.7
 40
5.5
  0
LINE
  8
3
  6
CONTINUOUS
 62
     1
 10
1446.734832329
 20
813.130896424
 11
1729.577544803
 21
1095.973608898
  0
LINE
  8
3
  6
CONTINUOUS
 62
     1
 10
1492.307864376
 20
767.557864376
 11
1446.734832329
 21
813.130896424
  0
ARC
  8
3
  6
CONTINUOUS
 62
     1
 10
1537.55484066
 20
814.219054222
 40
25.0
 50
135.0
 51
226.273344361
  0
ARC
  8
3
  6
CONTINUOUS
 62
     1
 10
1506.45
 20
781.7
 40
20.0
 50
225.000010595
 51
46.273344361
  0
POLYLINE
  8
3
  6
LTYPE1
 62
     2
 66
     1
  0
VERTEX
  8
3
  6
LTYPE1
 62
     2
 10
1513.45
 20
755.275
  0
VERTEX
  8
3
  6
LTYPE1
 62
     2
 10
1515.05
 20
755.275
  0
VERTEX
  8
3
  6
LTYPE1
 62
     2
 10
1515.05
 20
756.875
  0
SEQEND
  0
LINE
  8
3
  6
LTYPE1
 62
     2
 10
1513.45
 20
755.275
 11
1513.45
 21
714.775
  0
LINE
  8
3
  6
LTYPE1
 62
     2
 10
1515.05
 20
713.175
 11
1515.05
 21
714.775
  0
LINE
  8
3
  6
LTYPE1
 62
     2
 10
1515.05
 20
714.775
 11
1513.45
 21
714.775
  0
LINE
  8
3
  6
LTYPE1
 62
     2
 10
1857.85
 20
713.175
 11
1515.05
 21
713.175
  0
LINE
  8
3
  6
LTYPE1
 62
     2
 10
1859.45
 20
714.775
 11
1857.85
 21
714.775
  0
LINE
  8
3
  6
LTYPE1
 62
     2
 10
1857.85
 20
714.775
 11
1857.85
 21
713.175
  0
LINE
  8
3
  6
LTYPE1
 62
     2
 10
1515.05
 20
756.875
 11
1857.85
 21
756.875
  0
LINE
  8
3
  6
LTYPE1
 62
     2
 10
1859.45
 20
755.275
 11
1859.45
 21
714.775
  0
LINE
  8
3
  6
LTYPE1
 62
     2
 10
1857.85
 20
756.875
 11
1857.85
 21
755.275
  0
LINE
  8
3
  6
LTYPE1
 62
     2
 10
1857.85
 20
755.275
 11
1859.45
 21
755.275
  0
LINE
  8
3
  6
CONTINUOUS
 62
     1
 10
1484.85
 20
775.015728753
 11
1484.85
 21
668.35
  0
LINE
  8
3
  6
CONTINUOUS
 62
     1
 10
1486.45
 20
735.025
 11
1486.45
 21
773.415728753
  0
LINE
  8
3
  6
CONTINUOUS
 62
     1
 10
1753.549629499
 20
1065.569182121
 11
1756.76580054
 21
1068.785353162
  0
LINE
  8
3
  6
CONTINUOUS
 62
     1
 10
1519.87717113
 20
831.896723752
 11
1723.533521845
 21
1035.553074467
  0
LINE
  8
3
  6
CONTINUOUS
 62
     1
 10
1747.712748655
 20
1077.838405047
 11
1756.76580054
 21
1068.785353162
  0
LINE
  8
3
  6
CONTINUOUS
 62
     1
 10
1729.577544803
 20
1095.973608898
 11
1739.043384815
 21
1086.507768887
  0
LINE
  8
3
  6
CONTINUOUS
 62
     1
 10
1879.08104936
 20
801.7
 11
1886.45
 21
801.7
  0
LINE
  8
3
  6
CONTINUOUS
 62
     1
 10
1848.294049827
 20
801.7
 11
1856.819704805
 21
801.7
  0
LINE
  8
3
  6
CONTINUOUS
 62
     1
 10
1515.915217711
 20
801.7
 11
1834.785272583
 21
801.7
  0
LINE
  8
4
  6
CONTINUOUS
 62
     1
 10
1766.970704533
 20
989.638714801
 11
1768.2889598
 21
1006.174709406
  0
ARC
  8
4
  6
CONTINUOUS
 62
     1
 10
1764.052400852
 20
1006.512449365
 40
4.25
 50
355.442
 51
175.442
  0
LINE
  8
4
  6
CONTINUOUS
 62
     1
 10
1775.133051284
 20
972.481322939
 11
1776.451306551
 21
989.017317544
  0
ARC
  8
4
  6
CONTINUOUS
 62
     1
 10
1772.214747604
 20
989.355057503
 40
4.25
 50
355.442
 51
175.442
  0
ARC
  8
4
  6
CONTINUOUS
 62
     1
 10
1767.479769956
 20
989.732531576
 40
0.5
 50
175.441276905
 51
355.44250863
  0
LINE
  8
4
  6
CONTINUOUS
 62
     1
 10
1783.295398036
 20
955.323931077
 11
1784.613653303
 21
971.859925682
  0
ARC
  8
4
  6
CONTINUOUS
 62
     1
 10
1780.377094355
 20
972.197665641
 40
4.25
 50
355.442
 51
175.442
  0
ARC
  8
4
  6
CONTINUOUS
 62
     1
 10
1775.642116707
 20
972.575139714
 40
0.5
 50
175.441276905
 51
355.44250863
  0
LINE
  8
4
  6
CONTINUOUS
 62
     1
 10
1791.457744788
 20
938.166539215
 11
1792.776000055
 21
954.70253382
  0
ARC
  8
4
  6
CONTINUOUS
 62
     1
 10
1788.539441107
 20
955.040273779
 40
4.25
 50
355.442
 51
175.442
  0
ARC
  8
4
  6
CONTINUOUS
 62
     1
 10
1783.804463459
 20
955.417747852
 40
0.5
 50
175.441276905
 51
355.44250863
  0
LINE
  8
4
  6
CONTINUOUS
 62
     1
 10
1799.620091539
 20
921.009147353
 11
1800.938346806
 21
937.545141958
  0
ARC
  8
4
  6
CONTINUOUS
 62
     1
 10
1796.701787858
 20
937.882881917
 40
4.25
 50
355.442
 51
175.442
  0
ARC
  8
4
  6
CONTINUOUS
 62
     1
 10
1791.966810211
 20
938.26035599
 40
0.5
 50
175.441276905
 51
355.44250863
  0
LINE
  8
4
  6
CONTINUOUS
 62
     1
 10
1807.782438291
 20
903.851755491
 11
1809.100693558
 21
920.387750096
  0
ARC
  8
4
  6
CONTINUOUS
 62
     1
 10
1804.86413461
 20
920.725490055
 40
4.25
 50
355.442
 51
175.442
  0
ARC
  8
4
  6
CONTINUOUS
 62
     1
 10
1800.129156962
 20
921.102964128
 40
0.5
 50
175.441276905
 51
355.44250863
  0
LINE
  8
4
  6
CONTINUOUS
 62
     1
 10
1815.944785042
 20
886.694363629
 11
1817.26304031
 21
903.230358234
  0
ARC
  8
4
  6
CONTINUOUS
 62
     1
 10
1813.026481362
 20
903.568098193
 40
4.25
 50
355.442
 51
175.442
  0
ARC
  8
4
  6
CONTINUOUS
 62
     1
 10
1808.291503714
 20
903.945572266
 40
0.5
 50
175.441276905
 51
355.44250863
  0
LINE
  8
4
  6
CONTINUOUS
 62
     1
 10
1824.107131794
 20
869.536971767
 11
1825.425387061
 21
886.072966372
  0
ARC
  8
4
  6
CONTINUOUS
 62
     1
 10
1821.188828113
 20
886.410706331
 40
4.25
 50
355.442
 51
175.442
  0
ARC
  8
4
  6
CONTINUOUS
 62
     1
 10
1816.453850466
 20
886.788180404
 40
0.5
 50
175.441276905
 51
355.44250863
  0
LINE
  8
4
  6
CONTINUOUS
 62
     1
 10
1832.269478546
 20
852.379579905
 11
1833.587733813
 21
868.91557451
  0
ARC
  8
4
  6
CONTINUOUS
 62
     1
 10
1829.351174865
 20
869.253314469
 40
4.25
 50
355.442
 51
175.442
  0
ARC
  8
4
  6
CONTINUOUS
 62
     1
 10
1824.616197217
 20
869.630788542
 40
0.5
 50
175.441276905
 51
355.44250863
  0
LINE
  8
4
  6
CONTINUOUS
 62
     1
 10
1840.431825297
 20
835.222188043
 11
1841.750080565
 21
851.758182648
  0
ARC
  8
4
  6
CONTINUOUS
 62
     1
 10
1837.513521617
 20
852.095922607
 40
4.25
 50
355.442
 51
175.442
  0
ARC
  8
4
  6
CONTINUOUS
 62
     1
 10
1832.778543969
 20
852.47339668
 40
0.5
 50
175.441276905
 51
355.44250863
  0
LINE
  8
4
  6
CONTINUOUS
 62
     1
 10
1848.594172049
 20
818.064796181
 11
1849.912427316
 21
834.600790786
  0
ARC
  8
4
  6
CONTINUOUS
 62
     1
 10
1845.675868368
 20
834.938530745
 40
4.25
 50
355.442
 51
175.442
  0
ARC
  8
4
  6
CONTINUOUS
 62
     1
 10
1840.940890721
 20
835.316004818
 40
0.5
 50
175.441276905
 51
355.44250863
  0
ARC
  8
4
  6
CONTINUOUS
 62
     1
 10
1853.83821512
 20
817.781138883
 40
4.25
 50
355.442
 51
175.442
  0
ARC
  8
4
  6
CONTINUOUS
 62
     1
 10
1849.103237472
 20
818.158612956
 40
0.5
 50
175.441276905
 51
355.44250863
  0
ARC
  8
4
  6
CONTINUOUS
 62
     1
 10
1759.317423204
 20
1006.889923438
 40
9.0
 50
175.44182386
 51
268.626738536
  0
ARC
  8
4
  6
CONTINUOUS
 62
     1
 10
1767.479769956
 20
989.732531576
 40
9.0
 50
175.44182386
 51
268.626738536
  0
LINE
  8
4
  6
CONTINUOUS
 62
     1
 10
1758.508235559
 20
990.447773188
 11
1759.10173245
 21
997.892508392
  0
ARC
  8
4
  6
CONTINUOUS
 62
     1
 10
1775.642116707
 20
972.575139714
 40
9.0
 50
175.44182386
 51
268.626738536
  0
LINE
  8
4
  6
CONTINUOUS
 62
     1
 10
1766.67058231
 20
973.290381326
 11
1767.264079202
 21
980.73511653
  0
LINE
  8
4
  6
CONTINUOUS
 62
     1
 10
1774.832929062
 20
956.132989464
 11
1775.426425954
 21
963.577724668
  0
ARC
  8
4
  6
CONTINUOUS
 62
     1
 10
1791.966810211
 20
938.26035599
 40
9.0
 50
175.44182386
 51
268.626738536
  0
LINE
  8
4
  6
CONTINUOUS
 62
     1
 10
1782.995275814
 20
938.975597602
 11
1783.588772705
 21
946.420332806
  0
ARC
  8
4
  6
CONTINUOUS
 62
     1
 10
1800.129156962
 20
921.102964128
 40
9.0
 50
175.44182386
 51
268.626738536
  0
LINE
  8
4
  6
CONTINUOUS
 62
     1
 10
1791.157622565
 20
921.81820574
 11
1791.751119457
 21
929.262940944
  0
ARC
  8
4
  6
CONTINUOUS
 62
     1
 10
1808.291503714
 20
903.945572266
 40
9.0
 50
175.44182386
 51
268.626738536
  0
LINE
  8
4
  6
CONTINUOUS
 62
     1
 10
1799.319969317
 20
904.660813878
 11
1799.913466209
 21
912.105549082
  0
ARC
  8
4
  6
CONTINUOUS
 62
     1
 10
1816.453850466
 20
886.788180404
 40
9.0
 50
175.44182386
 51
268.626738536
  0
LINE
  8
4
  6
CONTINUOUS
 62
     1
 10
1807.482316069
 20
887.503422016
 11
1808.07581296
 21
894.94815722
  0
ARC
  8
4
  6
CONTINUOUS
 62
     1
 10
1824.616197217
 20
869.630788542
 40
9.0
 50
175.44182386
 51
268.626738536
  0
LINE
  8
4
  6
CONTINUOUS
 62
     1
 10
1815.64466282
 20
870.346030154
 11
1816.238159712
 21
877.790765358
  0
ARC
  8
4
  6
CONTINUOUS
 62
     1
 10
1832.778543969
 20
852.47339668
 40
9.0
 50
175.44182386
 51
268.626738536
  0
LINE
  8
4
  6
CONTINUOUS
 62
     1
 10
1823.807009572
 20
853.188638292
 11
1824.400506464
 21
860.633373496
  0
ARC
  8
4
  6
CONTINUOUS
 62
     1
 10
1840.940890721
 20
835.316004818
 40
9.0
 50
175.44182386
 51
268.626738536
  0
LINE
  8
4
  6
CONTINUOUS
 62
     1
 10
1831.969356324
 20
836.03124643
 11
1832.562853215
 21
843.475981634
  0
ARC
  8
4
  6
CONTINUOUS
 62
     1
 10
1849.103237472
 20
818.158612956
 40
9.0
 50
175.44182386
 51
268.626738536
  0
LINE
  8
4
  6
CONTINUOUS
 62
     1
 10
1840.131703075
 20
818.873854568
 11
1840.725199967
 21
826.318589772
  0
LINE
  8
4
  6
CONTINUOUS
 62
     1
 10
1848.294049827
 20
801.716462706
 11
1848.887546718
 21
809.16119791
  0
ARC
  8
4
  6
CONTINUOUS
 62
     1
 10
1783.804463459
 20
955.417747852
 40
9.0
 50
175.44182386
 51
268.626738536
  0
ARC
  8
4
  6
CONTINUOUS
 62
     1
 10
1759.317423204
 20
1006.889923438
 40
0.5
 50
175.44141527
 51
355.44250863
  0
LINE
  8
4
  6
CONTINUOUS
 62
     1
 10
1753.121498968
 20
1029.806869444
 11
1759.074085979
 21
1017.294430184
  0
LINE
  8
4
  6
CONTINUOUS
 62
     1
 10
1750.345888807
 20
1007.60516505
 11
1750.909195067
 21
1014.671193539
  0
LINE
  8
4
  6
CONTINUOUS
 62
     1
 10
1745.445823661
 20
1026.155293266
 11
1750.909195067
 21
1014.671193539
  0
LINE
  8
4
  6
CONTINUOUS
 62
     1
 10
1758.81900491
 20
1006.929662637
 11
1759.472810019
 21
1015.130895001
  0
ARC
  8
4
  6
CONTINUOUS
 62
     1
 10
1755.236251164
 20
1015.468636129
 40
4.25
 50
355.441993058
 51
25.441986746
  0
ARC
  8
4
  6
CONTINUOUS
 62
     1
 10
1749.283661315
 20
1027.981081355
 40
4.25
 50
25.44202567
 51
205.44197433
  0
LINE
  8
4
  6
CONTINUOUS
 62
     1
 10
1706.628809274
 20
1071.087068148
 11
1742.749634247
 21
1088.270956046
  0
CIRCLE
  8
3
  6
CONTINUOUS
 62
     2
 10
524.75
 20
781.7
 40
16.0
  0
CIRCLE
  8
3
  6
CONTINUOUS
 62
     2
 10
524.75
 20
781.7
 40
12.3
  0
CIRCLE
  8
3
  6
CONTINUOUS
 62
     2
 10
524.75
 20
781.7
 40
5.5
  0
LINE
  8
3
  6
CONTINUOUS
 62
     1
 10
544.75
 20
846.15
 11
144.75
 21
846.15
  0
LINE
  8
3
  6
CONTINUOUS
 62
     1
 10
544.75
 20
781.7
 11
544.75
 21
846.15
  0
LINE
  8
3
  6
CONTINUOUS
 62
     1
 10
144.75
 20
846.15
 11
144.75
 21
807.7
  0
ARC
  8
3
  6
CONTINUOUS
 62
     1
 10
479.761112483
 20
782.7
 40
25.0
 50
358.726655639
 51
90.0
  0
ARC
  8
3
  6
CONTINUOUS
 62
     1
 10
524.75
 20
781.7
 40
20.0
 50
178.726655639
 51
359.999989405
  0
LINE
  8
3
  6
CONTINUOUS
 62
     1
 10
143.15
 20
847.75
 11
166.65
 21
847.75
  0
LINE
  8
3
  6
CONTINUOUS
 62
     1
 10
166.65
 20
846.15
 11
166.65
 21
847.75
  0
LINE
  8
3
  6
CONTINUOUS
 62
     1
 10
143.15
 20
811.3
 11
143.15
 21
847.75
  0
LINE
  8
3
  6
CONTINUOUS
 62
     1
 10
546.35
 20
847.75
 11
522.85
 21
847.75
  0
LINE
  8
3
  6
CONTINUOUS
 62
     1
 10
522.85
 20
846.15
 11
522.85
 21
847.75
  0
LINE
  8
3
  6
CONTINUOUS
 62
     1
 10
546.35
 20
811.3
 11
546.35
 21
847.75
  0
POLYLINE
  8
3
  6
LTYPE1
 62
     2
 66
     1
  0
VERTEX
  8
3
  6
LTYPE1
 62
     2
 10
517.75
 20
755.275
  0
VERTEX
  8
3
  6
LTYPE1
 62
     2
 10
516.15
 20
755.275
  0
VERTEX
  8
3
  6
LTYPE1
 62
     2
 10
516.15
 20
756.875
  0
SEQEND
  0
LINE
  8
3
  6
LTYPE1
 62
     2
 10
517.75
 20
755.275
 11
517.75
 21
714.775
  0
LINE
  8
3
  6
LTYPE1
 62
     2
 10
516.15
 20
713.175
 11
516.15
 21
714.775
  0
LINE
  8
3
  6
LTYPE1
 62
     2
 10
516.15
 20
714.775
 11
517.75
 21
714.775
  0
LINE
  8
3
  6
CONTINUOUS
 62
     1
 10
544.75
 20
811.3
 11
546.35
 21
811.3
  0
LINE
  8
3
  6
CONTINUOUS
 62
     1
 10
544.75
 20
735.025
 11
544.75
 21
781.7
  0
LINE
  8
3
  6
CONTINUOUS
 62
     1
 10
144.75
 20
811.3
 11
143.15
 21
811.3
  0
LINE
  8
4
  6
CONTINUOUS
 62
     1
 10
165.250008407
 20
739.477748019
 11
156.955779773
 21
753.843773422
  0
ARC
  8
4
  6
CONTINUOUS
 62
     1
 10
160.636387739
 20
755.968773422
 40
4.25
 50
30.0
 51
210.0
  0
LINE
  8
4
  6
CONTINUOUS
 62
     1
 10
165.250008407
 20
720.477748019
 11
156.955779773
 21
734.843773422
  0
ARC
  8
4
  6
CONTINUOUS
 62
     1
 10
160.636387739
 20
736.968773422
 40
4.25
 50
30.0
 51
210.0
  0
ARC
  8
4
  6
CONTINUOUS
 62
     1
 10
164.750008407
 20
739.343773422
 40
0.5
 50
209.99949137
 51
30.000723095
  0
LINE
  8
4
  6
CONTINUOUS
 62
     1
 10
165.250008407
 20
701.477748019
 11
156.955779773
 21
715.843773422
  0
ARC
  8
4
  6
CONTINUOUS
 62
     1
 10
160.636387739
 20
717.968773422
 40
4.25
 50
30.0
 51
210.0
  0
ARC
  8
4
  6
CONTINUOUS
 62
     1
 10
164.750008407
 20
720.343773422
 40
0.5
 50
209.99949137
 51
30.000723095
  0
LINE
  8
4
  6
CONTINUOUS
 62
     1
 10
165.250008407
 20
682.477748019
 11
156.955779773
 21
696.843773422
  0
ARC
  8
4
  6
CONTINUOUS
 62
     1
 10
160.636387739
 20
698.968773422
 40
4.25
 50
30.0
 51
210.0
  0
ARC
  8
4
  6
CONTINUOUS
 62
     1
 10
164.750008407
 20
701.343773422
 40
0.5
 50
209.99949137
 51
30.000723095
  0
LINE
  8
4
  6
CONTINUOUS
 62
     1
 10
165.250008407
 20
663.477748019
 11
156.955779773
 21
677.843773422
  0
ARC
  8
4
  6
CONTINUOUS
 62
     1
 10
160.636387739
 20
679.968773422
 40
4.25
 50
30.0
 51
210.0
  0
ARC
  8
4
  6
CONTINUOUS
 62
     1
 10
164.750008407
 20
682.343773422
 40
0.5
 50
209.99949137
 51
30.000723095
  0
LINE
  8
4
  6
CONTINUOUS
 62
     1
 10
165.250008407
 20
644.477748019
 11
156.955779773
 21
658.843773422
  0
ARC
  8
4
  6
CONTINUOUS
 62
     1
 10
160.636387739
 20
660.968773422
 40
4.25
 50
30.0
 51
210.0
  0
ARC
  8
4
  6
CONTINUOUS
 62
     1
 10
164.750008407
 20
663.343773422
 40
0.5
 50
209.99949137
 51
30.000723095
  0
LINE
  8
4
  6
CONTINUOUS
 62
     1
 10
165.250008407
 20
625.477748019
 11
156.955779773
 21
639.843773422
  0
ARC
  8
4
  6
CONTINUOUS
 62
     1
 10
160.636387739
 20
641.968773422
 40
4.25
 50
30.0
 51
210.0
  0
ARC
  8
4
  6
CONTINUOUS
 62
     1
 10
164.750008407
 20
644.343773422
 40
0.5
 50
209.99949137
 51
30.000723095
  0
LINE
  8
4
  6
CONTINUOUS
 62
     1
 10
165.250008407
 20
606.477748019
 11
156.955779773
 21
620.843773422
  0
ARC
  8
4
  6
CONTINUOUS
 62
     1
 10
160.636387739
 20
622.968773422
 40
4.25
 50
30.0
 51
210.0
  0
ARC
  8
4
  6
CONTINUOUS
 62
     1
 10
164.750008407
 20
625.343773422
 40
0.5
 50
209.99949137
 51
30.000723095
  0
LINE
  8
4
  6
CONTINUOUS
 62
     1
 10
165.250008407
 20
587.477748019
 11
156.955779773
 21
601.843773422
  0
ARC
  8
4
  6
CONTINUOUS
 62
     1
 10
160.636387739
 20
603.968773422
 40
4.25
 50
30.0
 51
210.0
  0
ARC
  8
4
  6
CONTINUOUS
 62
     1
 10
164.750008407
 20
606.343773422
 40
0.5
 50
209.99949137
 51
30.000723095
  0
LINE
  8
4
  6
CONTINUOUS
 62
     1
 10
165.250008407
 20
568.477748019
 11
156.955779773
 21
582.843773422
  0
ARC
  8
4
  6
CONTINUOUS
 62
     1
 10
160.636387739
 20
584.968773422
 40
4.25
 50
30.0
 51
210.0
  0
ARC
  8
4
  6
CONTINUOUS
 62
     1
 10
164.750008407
 20
587.343773422
 40
0.5
 50
209.99949137
 51
30.000723095
  0
LINE
  8
4
  6
CONTINUOUS
 62
     1
 10
165.250008407
 20
549.477748019
 11
156.955779773
 21
563.843773422
  0
ARC
  8
4
  6
CONTINUOUS
 62
     1
 10
160.636387739
 20
565.968773422
 40
4.25
 50
30.0
 51
210.0
  0
ARC
  8
4
  6
CONTINUOUS
 62
     1
 10
164.750008407
 20
568.343773422
 40
0.5
 50
209.99949137
 51
30.000723095
  0
LINE
  8
4
  6
CONTINUOUS
 62
     1
 10
165.250008407
 20
530.477748019
 11
156.955779773
 21
544.843773422
  0
ARC
  8
4
  6
CONTINUOUS
 62
     1
 10
160.636387739
 20
546.968773422
 40
4.25
 50
30.0
 51
210.0
  0
ARC
  8
4
  6
CONTINUOUS
 62
     1
 10
164.750008407
 20
549.343773422
 40
0.5
 50
209.99949137
 51
30.000723095
  0
LINE
  8
4
  6
CONTINUOUS
 62
     1
 10
165.250008407
 20
511.477748019
 11
156.955779773
 21
525.843773422
  0
ARC
  8
4
  6
CONTINUOUS
 62
     1
 10
160.636387739
 20
527.968773422
 40
4.25
 50
30.0
 51
210.0
  0
ARC
  8
4
  6
CONTINUOUS
 62
     1
 10
164.750008407
 20
530.343773422
 40
0.5
 50
209.99949137
 51
30.000723095
  0
ARC
  8
4
  6
CONTINUOUS
 62
     1
 10
164.750008407
 20
739.343773422
 40
9.0
 50
296.815261464
 51
30.00017614
  0
LINE
  8
4
  6
CONTINUOUS
 62
     1
 10
172.544223207
 20
743.843797383
 11
168.810045894
 21
750.311582214
  0
ARC
  8
4
  6
CONTINUOUS
 62
     1
 10
164.750008407
 20
720.343773422
 40
9.0
 50
296.815261464
 51
30.00017614
  0
LINE
  8
4
  6
CONTINUOUS
 62
     1
 10
172.544223207
 20
724.843797383
 11
168.810045894
 21
731.311582214
  0
LINE
  8
4
  6
CONTINUOUS
 62
     1
 10
172.544223207
 20
705.843797383
 11
168.810045894
 21
712.311582214
  0
ARC
  8
4
  6
CONTINUOUS
 62
     1
 10
164.750008407
 20
682.343773422
 40
9.0
 50
296.815261464
 51
30.00017614
  0
LINE
  8
4
  6
CONTINUOUS
 62
     1
 10
172.544223207
 20
686.843797383
 11
168.810045894
 21
693.311582214
  0
ARC
  8
4
  6
CONTINUOUS
 62
     1
 10
164.750008407
 20
663.343773422
 40
9.0
 50
296.815261464
 51
30.00017614
  0
LINE
  8
4
  6
CONTINUOUS
 62
     1
 10
172.544223207
 20
667.843797383
 11
168.810045894
 21
674.311582214
  0
ARC
  8
4
  6
CONTINUOUS
 62
     1
 10
164.750008407
 20
644.343773422
 40
9.0
 50
296.815261464
 51
30.00017614
  0
LINE
  8
4
  6
CONTINUOUS
 62
     1
 10
172.544223207
 20
648.843797383
 11
168.810045894
 21
655.311582214
  0
ARC
  8
4
  6
CONTINUOUS
 62
     1
 10
164.750008407
 20
625.343773422
 40
9.0
 50
296.815261464
 51
30.00017614
  0
LINE
  8
4
  6
CONTINUOUS
 62
     1
 10
172.544223207
 20
629.843797383
 11
168.810045894
 21
636.311582214
  0
ARC
  8
4
  6
CONTINUOUS
 62
     1
 10
164.750008407
 20
606.343773422
 40
9.0
 50
296.815261464
 51
30.00017614
  0
LINE
  8
4
  6
CONTINUOUS
 62
     1
 10
172.544223207
 20
610.843797383
 11
168.810045894
 21
617.311582214
  0
ARC
  8
4
  6
CONTINUOUS
 62
     1
 10
164.750008407
 20
587.343773422
 40
9.0
 50
296.815261464
 51
30.00017614
  0
LINE
  8
4
  6
CONTINUOUS
 62
     1
 10
172.544223207
 20
591.843797383
 11
168.810045894
 21
598.311582214
  0
ARC
  8
4
  6
CONTINUOUS
 62
     1
 10
164.750008407
 20
568.343773422
 40
9.0
 50
296.815261464
 51
30.00017614
  0
LINE
  8
4
  6
CONTINUOUS
 62
     1
 10
172.544223207
 20
572.843797383
 11
168.810045894
 21
579.311582214
  0
ARC
  8
4
  6
CONTINUOUS
 62
     1
 10
164.750008407
 20
549.343773422
 40
9.0
 50
296.815261464
 51
30.00017614
  0
LINE
  8
4
  6
CONTINUOUS
 62
     1
 10
172.544223207
 20
553.843797383
 11
168.810045894
 21
560.311582214
  0
ARC
  8
4
  6
CONTINUOUS
 62
     1
 10
164.750008407
 20
530.343773422
 40
9.0
 50
296.815261464
 51
30.00017614
  0
LINE
  8
4
  6
CONTINUOUS
 62
     1
 10
172.544223207
 20
534.843797383
 11
168.810045894
 21
541.311582214
  0
LINE
  8
4
  6
CONTINUOUS
 62
     1
 10
172.544223207
 20
515.843797383
 11
168.810045894
 21
522.311582214
  0
ARC
  8
4
  6
CONTINUOUS
 62
     1
 10
160.636387739
 20
508.968773422
 40
4.25
 50
30.0
 51
210.0
  0
ARC
  8
4
  6
CONTINUOUS
 62
     1
 10
164.750008407
 20
511.343773422
 40
0.5
 50
209.99949137
 51
30.000723095
  0
ARC
  8
4
  6
CONTINUOUS
 62
     1
 10
164.750008407
 20
511.343773422
 40
9.0
 50
210.0
 51
30.00017614
  0
ARC
  8
4
  6
CONTINUOUS
 62
     1
 10
164.750008407
 20
701.343773422
 40
9.0
 50
296.815261464
 51
30.00017614
  0
ARC
  8
4
  6
CONTINUOUS
 62
     1
 10
164.750008407
 20
758.343773422
 40
0.5
 50
209.99949137
 51
30.00058473
  0
LINE
  8
4
  6
CONTINUOUS
 62
     1
 10
184.75
 20
838.95
 11
144.75
 21
838.95
  0
LINE
  8
4
  6
CONTINUOUS
 62
     1
 10
184.75
 20
493.95
 11
144.75
 21
493.95
  0
LINE
  8
4
  6
CONTINUOUS
 62
     1
 10
754.5
 20
838.95
 11
759.5
 21
838.95
  0
ARC
  8
4
  6
CONTINUOUS
 62
     1
 10
754.5
 20
828.95
 40
10.0
 50
90.0
 51
180.0
  0
LINE
  8
4
  6
CONTINUOUS
 62
     1
 10
759.5
 20
493.95
 11
759.5
 21
838.95
  0
LINE
  8
4
  6
CONTINUOUS
 62
     1
 10
754.5
 20
493.95
 11
759.5
 21
493.95
  0
ARC
  8
4
  6
CONTINUOUS
 62
     1
 10
754.5
 20
503.95
 40
10.0
 50
179.999967215
 51
270.0
  0
LINE
  8
4
  6
CONTINUOUS
 62
     1
 10
744.5
 20
503.950005722
 11
744.5
 21
828.95
  0
LINE
  8
4
  6
CONTINUOUS
 62
     1
 10
1276.7
 20
838.95
 11
1271.7
 21
838.95
  0
ARC
  8
4
  6
CONTINUOUS
 62
     1
 10
1276.7
 20
828.95
 40
10.0
 50
0.0
 51
90.0
  0
LINE
  8
4
  6
CONTINUOUS
 62
     1
 10
1271.7
 20
493.95
 11
1271.7
 21
838.95
  0
LINE
  8
4
  6
CONTINUOUS
 62
     1
 10
1276.7
 20
493.95
 11
1271.7
 21
493.95
  0
ARC
  8
4
  6
CONTINUOUS
 62
     1
 10
1276.7
 20
503.95
 40
10.0
 50
270.0
 51
0.000032785
  0
LINE
  8
4
  6
CONTINUOUS
 62
     1
 10
1286.7
 20
503.950005722
 11
1286.7
 21
828.95
  0
LINE
  8
3
  6
CONTINUOUS
 62
     1
 10
1484.85
 20
668.35
 11
1486.45
 21
668.35
  0
LINE
  8
3
  6
CONTINUOUS
 62
     1
 10
546.35
 20
668.35
 11
544.75
 21
668.35
  0
LINE
  8
3
  6
CONTINUOUS
 62
     1
 10
546.35
 20
801.7
 11
546.35
 21
668.35
  0
LINE
  8
3
  6
CONTINUOUS
 62
     1
 10
544.75
 20
801.7
 11
546.35
 21
801.7
  0
ARC
  8
2
  6
CONTINUOUS
 62
     1
 10
790.1
 20
668.35
 40
1.7
 50
167.474015716
 51
180.0
  0
ARC
  8
2
  6
CONTINUOUS
 62
     1
 10
1241.1
 20
668.35
 40
1.7
 50
0.0
 51
12.525984283
  0
CIRCLE
  8
3
  6
CONTINUOUS
 62
     2
 10
504.75
 20
745.025
 40
6.1
  0
CIRCLE
  8
3
  6
CONTINUOUS
 62
     2
 10
1526.45
 20
745.025
 40
6.1
  0
CIRCLE
  8
3
  6
CONTINUOUS
 62
     2
 10
1846.45
 20
745.025
 40
6.1
  0
LINE
  8
3
  6
CONTINUOUS
 62
     2
 10
751.1
 20
788.2
 11
757.6
 21
788.2
  0
ARC
  8
3
  6
CONTINUOUS
 62
     2
 10
751.1
 20
786.7
 40
1.5
 50
90.0
 51
180.0
  0
LINE
  8
3
  6
CONTINUOUS
 62
     2
 10
751.1
 20
775.2
 11
757.6
 21
775.2
  0
LINE
  8
3
  6
CONTINUOUS
 62
     2
 10
749.6
 20
776.7
 11
749.6
 21
786.7
  0
ARC
  8
3
  6
CONTINUOUS
 62
     2
 10
751.1
 20
776.7
 40
1.5
 50
180.0
 51
270.0
  0
LINE
  8
3
  6
CONTINUOUS
 62
     2
 10
1280.1
 20
788.2
 11
1273.6
 21
788.2
  0
ARC
  8
3
  6
CONTINUOUS
 62
     2
 10
1280.1
 20
786.7
 40
1.5
 50
0.0
 51
90.0
  0
LINE
  8
3
  6
CONTINUOUS
 62
     2
 10
1280.1
 20
775.2
 11
1273.6
 21
775.2
  0
LINE
  8
3
  6
CONTINUOUS
 62
     2
 10
1281.6
 20
776.7
 11
1281.6
 21
786.7
  0
ARC
  8
3
  6
CONTINUOUS
 62
     2
 10
1280.1
 20
776.7
 40
1.5
 50
270.0
 51
0.0
  0
CIRCLE
  8
3
  6
CONTINUOUS
 62
     1
 10
164.75
 20
823.95
 40
6.5
  0
POLYLINE
  8
4
  6
CONTINUOUS
 62
     2
 66
     1
 70
     1
  0
VERTEX
  8
4
  6
CONTINUOUS
 62
     2
 10
167.75
 20
823.95
  0
VERTEX
  8
4
  6
CONTINUOUS
 62
     2
 10
166.25
 20
826.548076211
  0
VERTEX
  8
4
  6
CONTINUOUS
 62
     2
 10
163.25
 20
826.548076211
  0
VERTEX
  8
4
  6
CONTINUOUS
 62
     2
 10
161.75
 20
823.95
  0
VERTEX
  8
4
  6
CONTINUOUS
 62
     2
 10
163.25
 20
821.351923789
  0
VERTEX
  8
4
  6
CONTINUOUS
 62
     2
 10
166.25
 20
821.351923789
  0
SEQEND
  0
CIRCLE
  8
4
  6
CONTINUOUS
 62
     2
 10
164.75
 20
781.7
 40
16.0
  0
CIRCLE
  8
4
  6
CONTINUOUS
 62
     2
 10
164.75
 20
781.7
 40
22.0
  0
CIRCLE
  8
4
  6
CONTINUOUS
 62
     2
 10
1866.45
 20
781.7
 40
16.0
  0
CIRCLE
  8
4
  6
CONTINUOUS
 62
     2
 10
1866.45
 20
781.7
 40
22.0
  0
CIRCLE
  8
3
  6
CONTINUOUS
 62
     1
 10
1731.133179722
 20
1066.133702732
 40
6.5
  0
POLYLINE
  8
4
  6
CONTINUOUS
 62
     2
 66
     1
 70
     1
  0
VERTEX
  8
4
  6
CONTINUOUS
 62
     2
 10
1734.133179722
 20
1066.133702732
  0
VERTEX
  8
4
  6
CONTINUOUS
 62
     2
 10
1732.633179722
 20
1068.731778944
  0
VERTEX
  8
4
  6
CONTINUOUS
 62
     2
 10
1729.633179722
 20
1068.731778944
  0
VERTEX
  8
4
  6
CONTINUOUS
 62
     2
 10
1728.133179722
 20
1066.133702732
  0
VERTEX
  8
4
  6
CONTINUOUS
 62
     2
 10
1729.633179722
 20
1063.535626521
  0
VERTEX
  8
4
  6
CONTINUOUS
 62
     2
 10
1732.633179722
 20
1063.535626521
  0
SEQEND
  0
LINE
  8
4
  6
CONTINUOUS
 62
     1
 10
146.75
 20
769.050889359
 11
146.75
 21
493.95
  0
LINE
  8
4
  6
CONTINUOUS
 62
     1
 10
146.75
 20
838.95
 11
146.75
 21
794.349110641
  0
LINE
  8
4
  6
CONTINUOUS
 62
     1
 10
144.75
 20
772.53484861
 11
144.75
 21
493.95
  0
LINE
  8
4
  6
CONTINUOUS
 62
     1
 10
144.75
 20
838.95
 11
144.75
 21
790.86515139
  0
LINE
  8
4
  6
CONTINUOUS
 62
     1
 10
182.75
 20
769.050889359
 11
182.75
 21
493.95
  0
LINE
  8
4
  6
CONTINUOUS
 62
     1
 10
182.75
 20
838.95
 11
182.75
 21
794.349110641
  0
LINE
  8
4
  6
CONTINUOUS
 62
     1
 10
184.75
 20
772.53484861
 11
184.75
 21
493.95
  0
LINE
  8
4
  6
CONTINUOUS
 62
     1
 10
184.75
 20
838.95
 11
184.75
 21
790.86515139
  0
LINE
  8
3
  6
CONTINUOUS
 62
     1
 10
496.009189292
 20
801.7
 11
184.75
 21
801.7
  0
LINE
  8
3
  6
CONTINUOUS
 62
     1
 10
479.761112483
 20
807.7
 11
184.75
 21
807.7
  0
ARC
  8
4
  6
CONTINUOUS
 62
     1
 10
164.750008407
 20
758.343773422
 40
9.0
 50
296.815261464
 51
19.815057562
  0
LINE
  8
4
  6
CONTINUOUS
 62
     1
 10
165.183018557
 20
758.593777841
 11
164.543782881
 21
759.70096651
  0
ARC
  8
3
  6
CONTINUOUS
 62
     2
 10
184.75
 20
745.025
 40
6.1
 50
270.0
 51
90.0
  0
LINE
  8
3
  6
LTYPE1
 62
     2
 10
516.15
 20
756.875
 11
184.75
 21
756.875
  0
LINE
  8
3
  6
LTYPE1
 62
     2
 10
184.75
 20
713.175
 11
516.15
 21
713.175
  0
LINE
  8
3
  6
CONTINUOUS
 62
     1
 10
544.75
 20
735.025
 11
184.75
 21
735.025
  0
LINE
  8
3
  6
CONTINUOUS
 62
     1
 10
544.75
 20
735.025
 11
184.75
 21
735.025
  0
LINE
  8
3
  6
CONTINUOUS
 62
     1
 10
172.6460958
 20
735.025
 11
156.955779773
 21
735.025
  0
LINE
  8
4
  6
CONTINUOUS
 62
     1
 10
1852.323306741
 20
764.834753557
 11
1854.839842396
 21
759.544952759
  0
LINE
  8
4
  6
CONTINUOUS
 62
     1
 10
1706.628809274
 20
1071.087068148
 11
1844.452332108
 21
781.379676266
  0
LINE
  8
4
  6
CONTINUOUS
 62
     1
 10
1855.626685995
 20
762.546517968
 11
1856.645883645
 21
760.404147154
  0
LINE
  8
4
  6
CONTINUOUS
 62
     1
 10
1708.434850523
 20
1071.946262543
 11
1844.761035351
 21
785.386300645
  0
LINE
  8
4
  6
CONTINUOUS
 62
     1
 10
1887.418945142
 20
775.043924608
 11
1890.960667369
 21
776.728840657
  0
LINE
  8
4
  6
CONTINUOUS
 62
     1
 10
1854.839842396
 20
759.544952759
 11
1858.385100801
 21
761.231551087
  0
LINE
  8
3
  6
CONTINUOUS
 62
     1
 10
1886.45
 20
735.025
 11
1886.45
 21
772.53484861
  0
LINE
  8
4
  6
CONTINUOUS
 62
     1
 10
1888.137822395
 20
778.006985006
 11
1889.15462612
 21
775.869646262
  0
LINE
  8
4
  6
CONTINUOUS
 62
     1
 10
1740.943592998
 20
1087.411761651
 11
1877.267383902
 21
800.856831824
  0
LINE
  8
4
  6
CONTINUOUS
 62
     1
 10
1888.447802748
 20
782.01092488
 11
1890.960667369
 21
776.728840657
  0
LINE
  8
4
  6
CONTINUOUS
 62
     1
 10
1742.749634247
 20
1088.270956046
 11
1880.569486047
 21
798.571280739
  0
ARC
  8
4
  6
CONTINUOUS
 62
     1
 10
1857.265584224
 20
801.001221094
 40
9.0
 50
175.44182386
 51
213.49897165
  0
LINE
  8
4
  6
CONTINUOUS
 62
     1
 10
1856.801476156
 20
801.471342586
 11
1858.074774068
 21
817.443398924
  0
ARC
  8
4
  6
CONTINUOUS
 62
     1
 10
1862.000561872
 20
800.623747021
 40
4.25
 50
45.423220164
 51
161.03941087
  0
LINE
  8
3
  6
CONTINUOUS
 62
     1
 10
1886.45
 20
790.86515139
 11
1886.45
 21
801.7
  0
ARC
  8
4
  6
CONTINUOUS
 62
     2
 10
718.5
 20
760.700000315
 40
1.0
 50
180.0
 51
269.999998711
  0
LINE
  8
4
  6
CONTINUOUS
 62
     2
 10
731.499999977
 20
759.700000023
 11
718.499999977
 21
759.700000315
  0
ARC
  8
4
  6
CONTINUOUS
 62
     2
 10
731.5
 20
760.700000023
 40
1.0
 50
269.999998711
 51
0.0
  0
ARC
  8
4
  6
CONTINUOUS
 62
     2
 10
718.5
 20
802.700000315
 40
1.0
 50
89.999998711
 51
180.0
  0
LINE
  8
4
  6
CONTINUOUS
 62
     2
 10
731.500000023
 20
803.700000023
 11
718.500000023
 21
803.700000315
  0
ARC
  8
4
  6
CONTINUOUS
 62
     2
 10
731.5
 20
802.700000023
 40
1.0
 50
0.0
 51
89.999998711
  0
LINE
  8
4
  6
CONTINUOUS
 62
     2
 10
717.5
 20
802.700000315
 11
717.5
 21
760.700000315
  0
LINE
  8
4
  6
CONTINUOUS
 62
     2
 10
732.5
 20
802.700000023
 11
732.5
 21
760.700000023
  0
LINE
  8
4
  6
CONTINUOUS
 62
     2
 10
744.5
 20
789.7
 11
732.5
 21
789.7
  0
LINE
  8
4
  6
CONTINUOUS
 62
     2
 10
744.5
 20
773.7
 11
732.5
 21
773.7
  0
ARC
  8
4
  6
CONTINUOUS
 62
     2
 10
1312.7
 20
760.700000315
 40
1.0
 50
270.000001289
 51
0.0
  0
LINE
  8
4
  6
CONTINUOUS
 62
     2
 10
1299.700000023
 20
759.700000023
 11
1312.700000023
 21
759.700000315
  0
ARC
  8
4
  6
CONTINUOUS
 62
     2
 10
1299.7
 20
760.700000023
 40
1.0
 50
180.0
 51
270.000001289
  0
ARC
  8
4
  6
CONTINUOUS
 62
     2
 10
1312.7
 20
802.700000315
 40
1.0
 50
0.0
 51
90.000001289
  0
LINE
  8
4
  6
CONTINUOUS
 62
     2
 10
1299.699999977
 20
803.700000023
 11
1312.699999977
 21
803.700000315
  0
ARC
  8
4
  6
CONTINUOUS
 62
     2
 10
1299.7
 20
802.700000023
 40
1.0
 50
90.000001289
 51
180.0
  0
LINE
  8
4
  6
CONTINUOUS
 62
     2
 10
1313.7
 20
802.700000315
 11
1313.7
 21
760.700000315
  0
LINE
  8
4
  6
CONTINUOUS
 62
     2
 10
1298.7
 20
802.700000023
 11
1298.7
 21
760.700000023
  0
LINE
  8
4
  6
CONTINUOUS
 62
     2
 10
1286.7
 20
789.7
 11
1298.7
 21
789.7
  0
LINE
  8
4
  6
CONTINUOUS
 62
     2
 10
1286.7
 20
773.7
 11
1298.7
 21
773.7
  0
TEXT
  8
7
  6
CONTINUOUS
 62
     2
 10
78.993347099
 20
1372.074999667
 30
1.5
 40
25.0
  1
組立て参考図
 50
0.0
 41
0.94
 51
0.0
  7
KANJI0
  0
TEXT
  8
7
  6
CONTINUOUS
 62
     2
 10
293.443347099
 20
1188.474999667
 30
1.5
 40
25.0
  1
構成商品
 50
0.0
 41
0.94
 51
0.0
  7
KANJI0
  0
TEXT
  8
7
  6
CONTINUOUS
 62
     2
 10
293.443347099
 20
1088.474999667
 30
1.5
 40
25.0
  1
ＡＬＪ－００２－１３Ｕ
 50
0.0
 41
0.94
 51
0.0
  7
KANJI0
  0
TEXT
  8
7
  6
CONTINUOUS
 62
     2
 10
1521.293347099
 20
1329.524999667
 30
1.5
 40
25.0
  1
Ａ３　１／５
 50
0.0
 41
0.94
 51
0.0
  7
KANJI0
  0
LINE
  8
7
  6
CONTINUOUS
 62
     2
 10
544.75
 20
851.15
 11
544.75
 21
903.1687
  0
LINE
  8
7
  6
CONTINUOUS
 62
     2
 10
544.75
 20
893.1687
 11
532.675927171
 21
896.403938064
  0
LINE
  8
7
  6
CONTINUOUS
 62
     2
 10
544.75
 20
893.1687
 11
532.675927171
 21
889.933461936
  0
LINE
  8
7
  6
CONTINUOUS
 62
     2
 10
544.75
 20
893.1687
 11
144.75
 21
893.1687
  0
LINE
  8
7
  6
CONTINUOUS
 62
     2
 10
144.75
 20
893.1687
 11
156.824072829
 21
889.933461936
  0
LINE
  8
7
  6
CONTINUOUS
 62
     2
 10
144.75
 20
893.1687
 11
156.824072829
 21
896.403938064
  0
LINE
  8
7
  6
CONTINUOUS
 62
     2
 10
144.75
 20
851.15
 11
144.75
 21
903.1687
  0
TEXT
  8
7
  6
CONTINUOUS
 62
     2
 10
329.75
 20
903.1687
 30
1.5
 40
15.0
  1
４００
 50
0.0
 41
0.6
 51
0.0
  7
KANJI1
  0
LINE
  8
3
  6
CONTINUOUS
 62
     1
 10
761.1
 20
985.05
 11
761.1
 21
1385.05
  0
CIRCLE
  8
3
  6
CONTINUOUS
 62
     1
 10
783.0376
 20
1207.275
 40
3.1
  0
CIRCLE
  8
3
  6
CONTINUOUS
 62
     1
 10
783.0376
 20
1223.175
 40
3.1
  0
CIRCLE
  8
3
  6
CONTINUOUS
 62
     1
 10
783.0376
 20
1223.175
 40
3.1
  0
CIRCLE
  8
3
  6
CONTINUOUS
 62
     1
 10
783.0376
 20
1191.375
 40
3.1
  0
CIRCLE
  8
3
  6
CONTINUOUS
 62
     1
 10
783.0376
 20
1191.375
 40
3.1
  0
CIRCLE
  8
3
  6
CONTINUOUS
 62
     1
 10
783.0376
 20
1251.725
 40
3.1
  0
CIRCLE
  8
3
  6
CONTINUOUS
 62
     1
 10
783.0376
 20
1267.625
 40
3.1
  0
CIRCLE
  8
3
  6
CONTINUOUS
 62
     1
 10
783.0376
 20
1267.625
 40
3.1
  0
CIRCLE
  8
3
  6
CONTINUOUS
 62
     1
 10
783.0376
 20
1235.825
 40
3.1
  0
CIRCLE
  8
3
  6
CONTINUOUS
 62
     1
 10
783.0376
 20
1235.825
 40
3.1
  0
CIRCLE
  8
3
  6
CONTINUOUS
 62
     1
 10
783.0376
 20
1296.175
 40
3.1
  0
CIRCLE
  8
3
  6
CONTINUOUS
 62
     1
 10
783.0376
 20
1312.075
 40
3.1
  0
CIRCLE
  8
3
  6
CONTINUOUS
 62
     1
 10
783.0376
 20
1312.075
 40
3.1
  0
CIRCLE
  8
3
  6
CONTINUOUS
 62
     1
 10
783.0376
 20
1280.275
 40
3.1
  0
CIRCLE
  8
3
  6
CONTINUOUS
 62
     1
 10
783.0376
 20
1280.275
 40
3.1
  0
CIRCLE
  8
3
  6
CONTINUOUS
 62
     1
 10
783.0376
 20
1340.625
 40
3.1
  0
CIRCLE
  8
3
  6
CONTINUOUS
 62
     1
 10
783.0376
 20
1356.525
 40
3.1
  0
CIRCLE
  8
3
  6
CONTINUOUS
 62
     1
 10
783.0376
 20
1356.525
 40
3.1
  0
CIRCLE
  8
3
  6
CONTINUOUS
 62
     1
 10
783.0376
 20
1324.725
 40
3.1
  0
CIRCLE
  8
3
  6
CONTINUOUS
 62
     1
 10
783.0376
 20
1324.725
 40
3.1
  0
CIRCLE
  8
3
  6
CONTINUOUS
 62
     1
 10
783.0376
 20
1162.825
 40
3.1
  0
CIRCLE
  8
3
  6
CONTINUOUS
 62
     1
 10
783.0376
 20
1178.725
 40
3.1
  0
CIRCLE
  8
3
  6
CONTINUOUS
 62
     1
 10
783.0376
 20
1178.725
 40
3.1
  0
CIRCLE
  8
3
  6
CONTINUOUS
 62
     1
 10
783.0376
 20
1146.925
 40
3.1
  0
CIRCLE
  8
3
  6
CONTINUOUS
 62
     1
 10
783.0376
 20
1146.925
 40
3.1
  0
CIRCLE
  8
3
  6
CONTINUOUS
 62
     1
 10
783.0376
 20
1118.375
 40
3.1
  0
CIRCLE
  8
3
  6
CONTINUOUS
 62
     1
 10
783.0376
 20
1134.275
 40
3.1
  0
CIRCLE
  8
3
  6
CONTINUOUS
 62
     1
 10
783.0376
 20
1134.275
 40
3.1
  0
CIRCLE
  8
3
  6
CONTINUOUS
 62
     1
 10
783.0376
 20
1102.475
 40
3.1
  0
CIRCLE
  8
3
  6
CONTINUOUS
 62
     1
 10
783.0376
 20
1102.475
 40
3.1
  0
CIRCLE
  8
3
  6
CONTINUOUS
 62
     1
 10
783.0376
 20
1073.925
 40
3.1
  0
CIRCLE
  8
3
  6
CONTINUOUS
 62
     1
 10
783.0376
 20
1089.825
 40
3.1
  0
CIRCLE
  8
3
  6
CONTINUOUS
 62
     1
 10
783.0376
 20
1089.825
 40
3.1
  0
CIRCLE
  8
3
  6
CONTINUOUS
 62
     1
 10
783.0376
 20
1058.025
 40
3.1
  0
CIRCLE
  8
3
  6
CONTINUOUS
 62
     1
 10
783.0376
 20
1058.025
 40
3.1
  0
CIRCLE
  8
3
  6
CONTINUOUS
 62
     1
 10
783.0376
 20
1029.475
 40
3.1
  0
CIRCLE
  8
3
  6
CONTINUOUS
 62
     1
 10
783.0376
 20
1045.375
 40
3.1
  0
CIRCLE
  8
3
  6
CONTINUOUS
 62
     1
 10
783.0376
 20
1045.375
 40
3.1
  0
CIRCLE
  8
3
  6
CONTINUOUS
 62
     1
 10
783.0376
 20
1013.575
 40
3.1
  0
CIRCLE
  8
3
  6
CONTINUOUS
 62
     1
 10
783.0376
 20
1013.575
 40
3.1
  0
CIRCLE
  8
3
  6
CONTINUOUS
 62
     1
 10
783.0376
 20
1000.925
 40
3.1
  0
CIRCLE
  8
3
  6
CONTINUOUS
 62
     1
 10
783.0376
 20
1000.925
 40
3.1
  0
CIRCLE
  8
3
  6
CONTINUOUS
 62
     1
 10
783.0376
 20
1369.175
 40
3.1
  0
CIRCLE
  8
3
  6
CONTINUOUS
 62
     1
 10
783.0376
 20
1369.175
 40
3.1
  0
CIRCLE
  8
3
  6
CONTINUOUS
 62
     1
 10
1248.1624
 20
1000.925
 40
3.1
  0
CIRCLE
  8
3
  6
CONTINUOUS
 62
     1
 10
1248.1624
 20
1000.925
 40
3.1
  0
CIRCLE
  8
3
  6
CONTINUOUS
 62
     1
 10
1248.1624
 20
1369.175
 40
3.1
  0
CIRCLE
  8
3
  6
CONTINUOUS
 62
     1
 10
1248.1624
 20
1369.175
 40
3.1
  0
LINE
  8
3
  6
CONTINUOUS
 62
     1
 10
1270.1
 20
983.45
 11
1270.1
 21
1006.95
  0
LINE
  8
3
  6
CONTINUOUS
 62
     1
 10
761.1
 20
983.45
 11
1270.1
 21
983.45
  0
LINE
  8
3
  6
CONTINUOUS
 62
     1
 10
761.1
 20
1006.95
 11
1270.1
 21
1006.95
  0
LINE
  8
3
  6
CONTINUOUS
 62
     1
 10
761.1
 20
1363.15
 11
1270.1
 21
1363.15
  0
LINE
  8
3
  6
CONTINUOUS
 62
     1
 10
761.1
 20
1386.65
 11
1270.1
 21
1386.65
  0
LINE
  8
3
  6
CONTINUOUS
 62
     1
 10
1270.1
 20
1386.65
 11
1270.1
 21
1363.15
  0
LINE
  8
3
  6
CONTINUOUS
 62
     1
 10
761.1
 20
1386.65
 11
761.1
 21
1363.15
  0
LINE
  8
3
  6
CONTINUOUS
 62
     1
 10
761.1
 20
983.45
 11
761.1
 21
1006.95
  0
LINE
  8
3
  6
CONTINUOUS
 62
     1
 10
790.1
 20
1008.95
 11
790.1
 21
1050.0
  0
LINE
  8
3
  6
CONTINUOUS
 62
     1
 10
790.1
 20
1053.4
 11
790.1
 21
1094.45
  0
LINE
  8
3
  6
CONTINUOUS
 62
     1
 10
790.1
 20
1097.85
 11
790.1
 21
1138.9
  0
LINE
  8
3
  6
CONTINUOUS
 62
     1
 10
790.1
 20
1142.3
 11
790.1
 21
1183.35
  0
LINE
  8
3
  6
CONTINUOUS
 62
     1
 10
790.1
 20
1186.75
 11
790.1
 21
1227.8
  0
LINE
  8
3
  6
CONTINUOUS
 62
     1
 10
790.1
 20
1231.2
 11
790.1
 21
1272.25
  0
LINE
  8
3
  6
CONTINUOUS
 62
     1
 10
790.1
 20
1275.65
 11
790.1
 21
1316.7
  0
LINE
  8
3
  6
CONTINUOUS
 62
     1
 10
790.1
 20
1320.1
 11
790.1
 21
1361.15
  0
ARC
  8
3
  6
CONTINUOUS
 62
     1
 10
790.1
 20
1229.5
 40
1.7
 50
90.0
 51
180.0
  0
ARC
  8
3
  6
CONTINUOUS
 62
     1
 10
790.1
 20
1229.5
 40
1.7
 50
180.0
 51
270.0
  0
ARC
  8
3
  6
CONTINUOUS
 62
     1
 10
790.1
 20
1185.05
 40
1.7
 50
180.0
 51
270.0
  0
ARC
  8
3
  6
CONTINUOUS
 62
     1
 10
790.1
 20
1185.05
 40
1.7
 50
90.0
 51
180.0
  0
ARC
  8
3
  6
CONTINUOUS
 62
     1
 10
790.1
 20
1273.95
 40
1.7
 50
90.0
 51
180.0
  0
ARC
  8
3
  6
CONTINUOUS
 62
     1
 10
790.1
 20
1273.95
 40
1.7
 50
180.0
 51
270.0
  0
ARC
  8
3
  6
CONTINUOUS
 62
     1
 10
790.1
 20
1318.4
 40
1.7
 50
90.0
 51
180.0
  0
ARC
  8
3
  6
CONTINUOUS
 62
     1
 10
790.1
 20
1318.4
 40
1.7
 50
180.0
 51
270.0
  0
ARC
  8
3
  6
CONTINUOUS
 62
     1
 10
790.1
 20
1362.85
 40
1.7
 50
180.0
 51
270.0
  0
ARC
  8
3
  6
CONTINUOUS
 62
     1
 10
790.1
 20
1140.6
 40
1.7
 50
180.0
 51
270.0
  0
ARC
  8
3
  6
CONTINUOUS
 62
     1
 10
790.1
 20
1140.6
 40
1.7
 50
90.0
 51
180.0
  0
ARC
  8
3
  6
CONTINUOUS
 62
     1
 10
790.1
 20
1096.15
 40
1.7
 50
180.0
 51
270.0
  0
ARC
  8
3
  6
CONTINUOUS
 62
     1
 10
790.1
 20
1096.15
 40
1.7
 50
90.0
 51
180.0
  0
ARC
  8
3
  6
CONTINUOUS
 62
     1
 10
790.1
 20
1051.7
 40
1.7
 50
180.0
 51
270.0
  0
ARC
  8
3
  6
CONTINUOUS
 62
     1
 10
790.1
 20
1051.7
 40
1.7
 50
90.0
 51
180.0
  0
ARC
  8
3
  6
CONTINUOUS
 62
     1
 10
790.1
 20
1007.25
 40
1.7
 50
90.0
 51
180.0
  0
LINE
  8
3
  6
CONTINUOUS
 62
     1
 10
1270.1
 20
985.05
 11
1270.1
 21
1385.05
  0
CIRCLE
  8
3
  6
CONTINUOUS
 62
     1
 10
1248.1624
 20
1207.275
 40
3.1
  0
CIRCLE
  8
3
  6
CONTINUOUS
 62
     1
 10
1248.1624
 20
1223.175
 40
3.1
  0
CIRCLE
  8
3
  6
CONTINUOUS
 62
     1
 10
1248.1624
 20
1223.175
 40
3.1
  0
CIRCLE
  8
3
  6
CONTINUOUS
 62
     1
 10
1248.1624
 20
1191.375
 40
3.1
  0
CIRCLE
  8
3
  6
CONTINUOUS
 62
     1
 10
1248.1624
 20
1191.375
 40
3.1
  0
CIRCLE
  8
3
  6
CONTINUOUS
 62
     1
 10
1248.1624
 20
1251.725
 40
3.1
  0
CIRCLE
  8
3
  6
CONTINUOUS
 62
     1
 10
1248.1624
 20
1267.625
 40
3.1
  0
CIRCLE
  8
3
  6
CONTINUOUS
 62
     1
 10
1248.1624
 20
1267.625
 40
3.1
  0
CIRCLE
  8
3
  6
CONTINUOUS
 62
     1
 10
1248.1624
 20
1235.825
 40
3.1
  0
CIRCLE
  8
3
  6
CONTINUOUS
 62
     1
 10
1248.1624
 20
1235.825
 40
3.1
  0
CIRCLE
  8
3
  6
CONTINUOUS
 62
     1
 10
1248.1624
 20
1296.175
 40
3.1
  0
CIRCLE
  8
3
  6
CONTINUOUS
 62
     1
 10
1248.1624
 20
1312.075
 40
3.1
  0
CIRCLE
  8
3
  6
CONTINUOUS
 62
     1
 10
1248.1624
 20
1312.075
 40
3.1
  0
CIRCLE
  8
3
  6
CONTINUOUS
 62
     1
 10
1248.1624
 20
1280.275
 40
3.1
  0
CIRCLE
  8
3
  6
CONTINUOUS
 62
     1
 10
1248.1624
 20
1280.275
 40
3.1
  0
CIRCLE
  8
3
  6
CONTINUOUS
 62
     1
 10
1248.1624
 20
1340.625
 40
3.1
  0
CIRCLE
  8
3
  6
CONTINUOUS
 62
     1
 10
1248.1624
 20
1356.525
 40
3.1
  0
CIRCLE
  8
3
  6
CONTINUOUS
 62
     1
 10
1248.1624
 20
1356.525
 40
3.1
  0
CIRCLE
  8
3
  6
CONTINUOUS
 62
     1
 10
1248.1624
 20
1324.725
 40
3.1
  0
CIRCLE
  8
3
  6
CONTINUOUS
 62
     1
 10
1248.1624
 20
1324.725
 40
3.1
  0
CIRCLE
  8
3
  6
CONTINUOUS
 62
     1
 10
1248.1624
 20
1162.825
 40
3.1
  0
CIRCLE
  8
3
  6
CONTINUOUS
 62
     1
 10
1248.1624
 20
1178.725
 40
3.1
  0
CIRCLE
  8
3
  6
CONTINUOUS
 62
     1
 10
1248.1624
 20
1178.725
 40
3.1
  0
CIRCLE
  8
3
  6
CONTINUOUS
 62
     1
 10
1248.1624
 20
1146.925
 40
3.1
  0
CIRCLE
  8
3
  6
CONTINUOUS
 62
     1
 10
1248.1624
 20
1146.925
 40
3.1
  0
CIRCLE
  8
3
  6
CONTINUOUS
 62
     1
 10
1248.1624
 20
1118.375
 40
3.1
  0
CIRCLE
  8
3
  6
CONTINUOUS
 62
     1
 10
1248.1624
 20
1134.275
 40
3.1
  0
CIRCLE
  8
3
  6
CONTINUOUS
 62
     1
 10
1248.1624
 20
1134.275
 40
3.1
  0
CIRCLE
  8
3
  6
CONTINUOUS
 62
     1
 10
1248.1624
 20
1102.475
 40
3.1
  0
CIRCLE
  8
3
  6
CONTINUOUS
 62
     1
 10
1248.1624
 20
1102.475
 40
3.1
  0
CIRCLE
  8
3
  6
CONTINUOUS
 62
     1
 10
1248.1624
 20
1073.925
 40
3.1
  0
CIRCLE
  8
3
  6
CONTINUOUS
 62
     1
 10
1248.1624
 20
1089.825
 40
3.1
  0
CIRCLE
  8
3
  6
CONTINUOUS
 62
     1
 10
1248.1624
 20
1089.825
 40
3.1
  0
CIRCLE
  8
3
  6
CONTINUOUS
 62
     1
 10
1248.1624
 20
1058.025
 40
3.1
  0
CIRCLE
  8
3
  6
CONTINUOUS
 62
     1
 10
1248.1624
 20
1058.025
 40
3.1
  0
CIRCLE
  8
3
  6
CONTINUOUS
 62
     1
 10
1248.1624
 20
1029.475
 40
3.1
  0
CIRCLE
  8
3
  6
CONTINUOUS
 62
     1
 10
1248.1624
 20
1045.375
 40
3.1
  0
CIRCLE
  8
3
  6
CONTINUOUS
 62
     1
 10
1248.1624
 20
1045.375
 40
3.1
  0
CIRCLE
  8
3
  6
CONTINUOUS
 62
     1
 10
1248.1624
 20
1013.575
 40
3.1
  0
CIRCLE
  8
3
  6
CONTINUOUS
 62
     1
 10
1248.1624
 20
1013.575
 40
3.1
  0
LINE
  8
3
  6
CONTINUOUS
 62
     1
 10
1241.1
 20
1008.95
 11
1241.1
 21
1050.0
  0
LINE
  8
3
  6
CONTINUOUS
 62
     1
 10
1241.1
 20
1053.4
 11
1241.1
 21
1094.45
  0
LINE
  8
3
  6
CONTINUOUS
 62
     1
 10
1241.1
 20
1097.85
 11
1241.1
 21
1138.9
  0
LINE
  8
3
  6
CONTINUOUS
 62
     1
 10
1241.1
 20
1142.3
 11
1241.1
 21
1183.35
  0
LINE
  8
3
  6
CONTINUOUS
 62
     1
 10
1241.1
 20
1186.75
 11
1241.1
 21
1227.8
  0
LINE
  8
3
  6
CONTINUOUS
 62
     1
 10
1241.1
 20
1231.2
 11
1241.1
 21
1272.25
  0
LINE
  8
3
  6
CONTINUOUS
 62
     1
 10
1241.1
 20
1275.65
 11
1241.1
 21
1316.7
  0
LINE
  8
3
  6
CONTINUOUS
 62
     1
 10
1241.1
 20
1320.1
 11
1241.1
 21
1361.15
  0
ARC
  8
3
  6
CONTINUOUS
 62
     1
 10
1241.1
 20
1229.5
 40
1.7
 50
0.0
 51
90.0
  0
ARC
  8
3
  6
CONTINUOUS
 62
     1
 10
1241.1
 20
1229.5
 40
1.7
 50
270.0
 51
0.0
  0
ARC
  8
3
  6
CONTINUOUS
 62
     1
 10
1241.1
 20
1185.05
 40
1.7
 50
270.0
 51
0.0
  0
ARC
  8
3
  6
CONTINUOUS
 62
     1
 10
1241.1
 20
1185.05
 40
1.7
 50
0.0
 51
90.0
  0
ARC
  8
3
  6
CONTINUOUS
 62
     1
 10
1241.1
 20
1273.95
 40
1.7
 50
0.0
 51
90.0
  0
ARC
  8
3
  6
CONTINUOUS
 62
     1
 10
1241.1
 20
1273.95
 40
1.7
 50
270.0
 51
0.0
  0
ARC
  8
3
  6
CONTINUOUS
 62
     1
 10
1241.1
 20
1318.4
 40
1.7
 50
0.0
 51
90.0
  0
ARC
  8
3
  6
CONTINUOUS
 62
     1
 10
1241.1
 20
1318.4
 40
1.7
 50
270.0
 51
0.0
  0
ARC
  8
3
  6
CONTINUOUS
 62
     1
 10
1241.1
 20
1362.85
 40
1.7
 50
270.0
 51
0.0
  0
ARC
  8
3
  6
CONTINUOUS
 62
     1
 10
1241.1
 20
1140.6
 40
1.7
 50
270.0
 51
0.0
  0
ARC
  8
3
  6
CONTINUOUS
 62
     1
 10
1241.1
 20
1140.6
 40
1.7
 50
0.0
 51
90.0
  0
ARC
  8
3
  6
CONTINUOUS
 62
     1
 10
1241.1
 20
1096.15
 40
1.7
 50
270.0
 51
0.0
  0
ARC
  8
3
  6
CONTINUOUS
 62
     1
 10
1241.1
 20
1096.15
 40
1.7
 50
0.0
 51
90.0
  0
ARC
  8
3
  6
CONTINUOUS
 62
     1
 10
1241.1
 20
1051.7
 40
1.7
 50
270.0
 51
0.0
  0
ARC
  8
3
  6
CONTINUOUS
 62
     1
 10
1241.1
 20
1051.7
 40
1.7
 50
0.0
 51
90.0
  0
ARC
  8
3
  6
CONTINUOUS
 62
     1
 10
1241.1
 20
1007.25
 40
1.7
 50
0.0
 51
90.0
  0
ARC
  8
3
  6
CONTINUOUS
 62
     1
 10
790.1
 20
1007.25
 40
1.7
 50
180.0
 51
190.164248622
  0
ARC
  8
3
  6
CONTINUOUS
 62
     1
 10
1241.1
 20
1007.25
 40
1.7
 50
349.835751379
 51
0.0
  0
ARC
  8
3
  6
CONTINUOUS
 62
     1
 10
1241.1
 20
1362.85
 40
1.7
 50
0.0
 51
10.164248621
  0
ARC
  8
3
  6
CONTINUOUS
 62
     1
 10
790.1
 20
1362.85
 40
1.7
 50
169.835751378
 51
180.0
  0
LINE
  8
4
  6
CONTINUOUS
 62
     1
 10
759.5
 20
1345.05
 11
759.5
 21
1385.05
  0
LINE
  8
4
  6
CONTINUOUS
 62
     1
 10
759.5
 20
1385.05
 11
744.5
 21
1385.05
  0
LINE
  8
4
  6
CONTINUOUS
 62
     1
 10
744.5
 20
1345.05
 11
759.5
 21
1345.05
  0
LINE
  8
4
  6
CONTINUOUS
 62
     1
 10
744.5
 20
1345.05
 11
744.5
 21
1347.05
  0
LINE
  8
4
  6
CONTINUOUS
 62
     1
 10
744.5
 20
1383.05
 11
744.5
 21
1385.05
  0
LINE
  8
4
  6
CONTINUOUS
 62
     1
 10
744.5
 20
1347.05
 11
757.5
 21
1347.05
  0
LINE
  8
4
  6
CONTINUOUS
 62
     1
 10
757.5
 20
1347.05
 11
757.5
 21
1383.05
  0
LINE
  8
4
  6
CONTINUOUS
 62
     1
 10
757.5
 20
1383.05
 11
744.5
 21
1383.05
  0
LINE
  8
3
  6
CONTINUOUS
 62
     2
 10
760.8
 20
1021.05
 11
757.6
 21
1021.05
  0
LINE
  8
3
  6
CONTINUOUS
 62
     2
 10
757.6
 20
989.05
 11
757.6
 21
1021.05
  0
LINE
  8
3
  6
CONTINUOUS
 62
     2
 10
760.8
 20
989.05
 11
757.6
 21
989.05
  0
LINE
  8
3
  6
CONTINUOUS
 62
     2
 10
760.8
 20
989.05
 11
760.8
 21
1021.05
  0
LINE
  8
3
  6
CONTINUOUS
 62
     2
 10
751.1
 20
1011.55
 11
757.6
 21
1011.55
  0
ARC
  8
3
  6
CONTINUOUS
 62
     2
 10
751.1
 20
1010.05
 40
1.5
 50
90.0
 51
180.0
  0
LINE
  8
3
  6
CONTINUOUS
 62
     2
 10
751.1
 20
998.55
 11
757.6
 21
998.55
  0
LINE
  8
3
  6
CONTINUOUS
 62
     2
 10
749.6
 20
1000.05
 11
749.6
 21
1010.05
  0
ARC
  8
3
  6
CONTINUOUS
 62
     2
 10
751.1
 20
1000.05
 40
1.5
 50
180.0
 51
270.0
  0
LINE
  8
3
  6
CONTINUOUS
 62
     2
 10
1270.4
 20
1021.05
 11
1273.6
 21
1021.05
  0
LINE
  8
3
  6
CONTINUOUS
 62
     2
 10
1273.6
 20
989.05
 11
1273.6
 21
1021.05
  0
LINE
  8
3
  6
CONTINUOUS
 62
     2
 10
1270.4
 20
989.05
 11
1273.6
 21
989.05
  0
LINE
  8
3
  6
CONTINUOUS
 62
     2
 10
1270.4
 20
989.05
 11
1270.4
 21
1021.05
  0
LINE
  8
3
  6
CONTINUOUS
 62
     2
 10
1280.1
 20
1011.55
 11
1273.6
 21
1011.55
  0
ARC
  8
3
  6
CONTINUOUS
 62
     2
 10
1280.1
 20
1010.05
 40
1.5
 50
0.0
 51
90.0
  0
LINE
  8
3
  6
CONTINUOUS
 62
     2
 10
1280.1
 20
998.55
 11
1273.6
 21
998.55
  0
LINE
  8
3
  6
CONTINUOUS
 62
     2
 10
1281.6
 20
1000.05
 11
1281.6
 21
1010.05
  0
ARC
  8
3
  6
CONTINUOUS
 62
     2
 10
1280.1
 20
1000.05
 40
1.5
 50
270.0
 51
0.0
  0
LINE
  8
3
  6
CONTINUOUS
 62
     2
 10
751.0
 20
1371.55
 11
757.5
 21
1371.55
  0
ARC
  8
3
  6
CONTINUOUS
 62
     2
 10
751.0
 20
1370.05
 40
1.5
 50
90.0
 51
180.0
  0
LINE
  8
3
  6
CONTINUOUS
 62
     2
 10
751.0
 20
1358.55
 11
757.5
 21
1358.55
  0
LINE
  8
3
  6
CONTINUOUS
 62
     2
 10
749.5
 20
1360.05
 11
749.5
 21
1370.05
  0
ARC
  8
3
  6
CONTINUOUS
 62
     2
 10
751.0
 20
1360.05
 40
1.5
 50
180.0
 51
270.0
  0
ARC
  8
4
  6
CONTINUOUS
 62
     2
 10
718.5
 20
1344.050000315
 40
1.0
 50
180.0
 51
269.999998711
  0
LINE
  8
4
  6
CONTINUOUS
 62
     2
 10
731.499999977
 20
1343.050000023
 11
718.499999977
 21
1343.050000315
  0
ARC
  8
4
  6
CONTINUOUS
 62
     2
 10
731.5
 20
1344.050000023
 40
1.0
 50
269.999998711
 51
0.0
  0
ARC
  8
4
  6
CONTINUOUS
 62
     2
 10
718.5
 20
1386.050000315
 40
1.0
 50
89.999998711
 51
180.0
  0
LINE
  8
4
  6
CONTINUOUS
 62
     2
 10
731.500000023
 20
1387.050000023
 11
718.500000023
 21
1387.050000315
  0
ARC
  8
4
  6
CONTINUOUS
 62
     2
 10
731.5
 20
1386.050000023
 40
1.0
 50
0.0
 51
89.999998711
  0
LINE
  8
4
  6
CONTINUOUS
 62
     2
 10
717.5
 20
1386.050000315
 11
717.5
 21
1344.050000315
  0
LINE
  8
4
  6
CONTINUOUS
 62
     2
 10
732.5
 20
1386.050000023
 11
732.5
 21
1344.050000023
  0
LINE
  8
4
  6
CONTINUOUS
 62
     2
 10
757.5
 20
1357.05
 11
732.5
 21
1357.05
  0
LINE
  8
4
  6
CONTINUOUS
 62
     2
 10
757.5
 20
1373.05
 11
732.5
 21
1373.05
  0
LINE
  8
4
  6
CONTINUOUS
 62
     1
 10
1271.7
 20
1345.05
 11
1271.7
 21
1385.05
  0
LINE
  8
4
  6
CONTINUOUS
 62
     1
 10
1271.7
 20
1385.05
 11
1286.7
 21
1385.05
  0
LINE
  8
4
  6
CONTINUOUS
 62
     1
 10
1286.7
 20
1345.05
 11
1271.7
 21
1345.05
  0
LINE
  8
4
  6
CONTINUOUS
 62
     1
 10
1286.7
 20
1345.05
 11
1286.7
 21
1347.05
  0
LINE
  8
4
  6
CONTINUOUS
 62
     1
 10
1286.7
 20
1383.05
 11
1286.7
 21
1385.05
  0
LINE
  8
4
  6
CONTINUOUS
 62
     1
 10
1286.7
 20
1347.05
 11
1273.7
 21
1347.05
  0
LINE
  8
4
  6
CONTINUOUS
 62
     1
 10
1273.7
 20
1347.05
 11
1273.7
 21
1383.05
  0
LINE
  8
4
  6
CONTINUOUS
 62
     1
 10
1273.7
 20
1383.05
 11
1286.7
 21
1383.05
  0
LINE
  8
3
  6
CONTINUOUS
 62
     2
 10
1280.2
 20
1371.55
 11
1273.7
 21
1371.55
  0
ARC
  8
3
  6
CONTINUOUS
 62
     2
 10
1280.2
 20
1370.05
 40
1.5
 50
0.0
 51
90.0
  0
LINE
  8
3
  6
CONTINUOUS
 62
     2
 10
1280.2
 20
1358.55
 11
1273.7
 21
1358.55
  0
LINE
  8
3
  6
CONTINUOUS
 62
     2
 10
1281.7
 20
1360.05
 11
1281.7
 21
1370.05
  0
ARC
  8
3
  6
CONTINUOUS
 62
     2
 10
1280.2
 20
1360.05
 40
1.5
 50
270.0
 51
0.0
  0
ARC
  8
4
  6
CONTINUOUS
 62
     2
 10
1312.7
 20
1344.050000315
 40
1.0
 50
270.000001289
 51
0.0
  0
LINE
  8
4
  6
CONTINUOUS
 62
     2
 10
1299.700000023
 20
1343.050000023
 11
1312.700000023
 21
1343.050000315
  0
ARC
  8
4
  6
CONTINUOUS
 62
     2
 10
1299.7
 20
1344.050000023
 40
1.0
 50
180.0
 51
270.000001289
  0
ARC
  8
4
  6
CONTINUOUS
 62
     2
 10
1312.7
 20
1386.050000315
 40
1.0
 50
0.0
 51
90.000001289
  0
LINE
  8
4
  6
CONTINUOUS
 62
     2
 10
1299.699999977
 20
1387.050000023
 11
1312.699999977
 21
1387.050000315
  0
ARC
  8
4
  6
CONTINUOUS
 62
     2
 10
1299.7
 20
1386.050000023
 40
1.0
 50
90.000001289
 51
180.0
  0
LINE
  8
4
  6
CONTINUOUS
 62
     2
 10
1313.7
 20
1386.050000315
 11
1313.7
 21
1344.050000315
  0
LINE
  8
4
  6
CONTINUOUS
 62
     2
 10
1298.7
 20
1386.050000023
 11
1298.7
 21
1344.050000023
  0
LINE
  8
4
  6
CONTINUOUS
 62
     2
 10
1273.7
 20
1357.05
 11
1298.7
 21
1357.05
  0
LINE
  8
4
  6
CONTINUOUS
 62
     2
 10
1273.7
 20
1373.05
 11
1298.7
 21
1373.05
  0
LINE
  8
7
  6
CONTINUOUS
 62
     2
 10
765.6
 20
806.7
 11
765.6
 21
903.1687
  0
LINE
  8
7
  6
CONTINUOUS
 62
     2
 10
765.6
 20
893.1687
 11
777.674072829
 21
889.933461936
  0
LINE
  8
7
  6
CONTINUOUS
 62
     2
 10
765.6
 20
893.1687
 11
777.674072829
 21
896.403938064
  0
LINE
  8
7
  6
CONTINUOUS
 62
     2
 10
765.6
 20
893.1687
 11
1265.6
 21
893.1687
  0
LINE
  8
7
  6
CONTINUOUS
 62
     2
 10
1265.6
 20
893.1687
 11
1253.525927171
 21
896.403938064
  0
LINE
  8
7
  6
CONTINUOUS
 62
     2
 10
1265.6
 20
893.1687
 11
1253.525927171
 21
889.933461936
  0
LINE
  8
7
  6
CONTINUOUS
 62
     2
 10
1265.6
 20
806.7
 11
1265.6
 21
903.1687
  0
TEXT
  8
7
  6
CONTINUOUS
 62
     2
 10
1000.6
 20
903.1687
 30
1.5
 40
15.0
  1
５００
 50
0.0
 41
0.6
 51
0.0
  7
KANJI1
  0
LINE
  8
7
  6
CONTINUOUS
 62
     2
 10
1275.1
 20
1006.95
 11
1366.0
 21
1006.95
  0
LINE
  8
7
  6
CONTINUOUS
 62
     2
 10
1356.0
 20
1006.95
 11
1359.235238064
 21
1019.024072829
  0
LINE
  8
7
  6
CONTINUOUS
 62
     2
 10
1356.0
 20
1006.95
 11
1352.764761936
 21
1019.024072829
  0
LINE
  8
7
  6
CONTINUOUS
 62
     2
 10
1356.0
 20
1006.95
 11
1356.0
 21
1363.15
  0
LINE
  8
7
  6
CONTINUOUS
 62
     2
 10
1356.0
 20
1363.15
 11
1352.764761936
 21
1351.075927171
  0
LINE
  8
7
  6
CONTINUOUS
 62
     2
 10
1356.0
 20
1363.15
 11
1359.235238064
 21
1351.075927171
  0
LINE
  8
7
  6
CONTINUOUS
 62
     2
 10
1275.1
 20
1363.15
 11
1366.0
 21
1363.15
  0
TEXT
  8
7
  6
CONTINUOUS
 62
     2
 10
1346.0
 20
1175.3
 30
1.5
 40
15.0
  1
８Ｕ
 50
90.0
 41
0.6
 51
0.0
  7
KANJI1
  0
LINE
  8
7
  6
CONTINUOUS
 62
     2
 10
1270.6
 20
668.7187
 11
1366.0
 21
668.7187
  0
LINE
  8
7
  6
CONTINUOUS
 62
     2
 10
1356.0
 20
668.7187
 11
1352.764761936
 21
656.644627171
  0
LINE
  8
7
  6
CONTINUOUS
 62
     2
 10
1356.0
 20
668.7187
 11
1359.235238064
 21
656.644627171
  0
LINE
  8
7
  6
CONTINUOUS
 62
     2
 10
1356.0
 20
668.7187
 11
1356.0
 21
178.975
  0
LINE
  8
7
  6
CONTINUOUS
 62
     2
 10
1356.0
 20
178.975
 11
1359.235238064
 21
191.049072829
  0
LINE
  8
7
  6
CONTINUOUS
 62
     2
 10
1356.0
 20
178.975
 11
1352.764761936
 21
191.049072829
  0
LINE
  8
7
  6
CONTINUOUS
 62
     2
 10
1270.6
 20
178.975
 11
1366.0
 21
178.975
  0
TEXT
  8
7
  6
CONTINUOUS
 62
     2
 10
1346.0
 20
408.84685
 30
1.5
 40
15.0
  1
１１Ｕ
 50
90.0
 41
0.6
 51
0.0
  7
KANJI1
  0
LINE
  8
7
  6
CONTINUOUS
 62
     2
 10
681.55
 20
76.375
 11
684.785238064
 21
88.449072829
  0
LINE
  8
7
  6
CONTINUOUS
 62
     2
 10
681.55
 20
76.375
 11
678.314761936
 21
88.449072829
  0
LINE
  8
7
  6
CONTINUOUS
 62
     2
 10
681.55
 20
76.375
 11
681.55
 21
847.75
  0
LINE
  8
7
  6
CONTINUOUS
 62
     2
 10
681.55
 20
847.75
 11
678.314761936
 21
835.675927171
  0
LINE
  8
7
  6
CONTINUOUS
 62
     2
 10
681.55
 20
847.75
 11
684.785238064
 21
835.675927171
  0
LINE
  8
7
  6
CONTINUOUS
 62
     2
 10
756.1
 20
847.75
 11
671.55
 21
847.75
  0
TEXT
  8
7
  6
CONTINUOUS
 62
     2
 10
671.55
 20
436.5625
 30
1.5
 40
15.0
  1
（７１１）
 50
90.0
 41
0.6
 51
0.0
  7
KANJI1
  0
TEXT
  8
7
  6
CONTINUOUS
 62
     2
 10
293.443347099
 20
1138.474999667
 30
1.5
 40
25.0
  1
ＡＬＪ－００４
 50
0.0
 41
0.47
 51
0.0
  7
KANJI2
  0
ENDSEC
  0
EOF
