  0
SECTION
  2
HEADER
  9
$EXTMIN
 10
0.0
 20
0.0
 30
0.0
  9
$EXTMAX
 10
4455.0
 20
3150.0
 30
0.0
  9
$LIMMIN
 10
0.0
 20
0.0
  9
$LIMMAX
 10
4455.0
 20
3150.0
  9
$LTSCALE
 40
1.0
  9
$PDMODE
 70
     0
  0
ENDSEC
  0
SECTION
  2
TABLES
  0
TABLE
  2
LTYPE
 70
     1
  0
LTYPE
  2
CONTINUOUS
 70
    64
  3
Solid line
 72
    65
 73
     0
 40
0.0
  0
ENDTAB
  0
TABLE
  2
LAYER
 70
   128
  0
LAYER
  2
0
 70
     0
 62
     7
  6
CONTINUOUS
  0
LAYER
  2
1
 70
     0
 62
     7
  6
CONTINUOUS
  0
LAYER
  2
2
 70
     0
 62
     7
  6
CONTINUOUS
  0
LAYER
  2
3
 70
     0
 62
     7
  6
CONTINUOUS
  0
LAYER
  2
4
 70
     0
 62
     7
  6
CONTINUOUS
  0
LAYER
  2
5
 70
     0
 62
     7
  6
CONTINUOUS
  0
LAYER
  2
6
 70
     0
 62
     7
  6
CONTINUOUS
  0
LAYER
  2
7
 70
     0
 62
     7
  6
CONTINUOUS
  0
LAYER
  2
8
 70
     0
 62
     7
  6
CONTINUOUS
  0
LAYER
  2
9
 70
     0
 62
     7
  6
CONTINUOUS
  0
LAYER
  2
10
 70
     0
 62
     7
  6
CONTINUOUS
  0
LAYER
  2
11
 70
     0
 62
     7
  6
CONTINUOUS
  0
LAYER
  2
12
 70
     0
 62
     7
  6
CONTINUOUS
  0
LAYER
  2
13
 70
     0
 62
     7
  6
CONTINUOUS
  0
LAYER
  2
14
 70
     0
 62
     7
  6
CONTINUOUS
  0
LAYER
  2
15
 70
     0
 62
     7
  6
CONTINUOUS
  0
LAYER
  2
16
 70
     0
 62
     7
  6
CONTINUOUS
  0
LAYER
  2
17
 70
     0
 62
     7
  6
CONTINUOUS
  0
LAYER
  2
18
 70
     0
 62
     7
  6
CONTINUOUS
  0
LAYER
  2
19
 70
     0
 62
     7
  6
CONTINUOUS
  0
LAYER
  2
20
 70
     0
 62
     7
  6
CONTINUOUS
  0
LAYER
  2
21
 70
     0
 62
     7
  6
CONTINUOUS
  0
LAYER
  2
22
 70
     0
 62
     7
  6
CONTINUOUS
  0
LAYER
  2
23
 70
     0
 62
     7
  6
CONTINUOUS
  0
LAYER
  2
24
 70
     0
 62
     7
  6
CONTINUOUS
  0
LAYER
  2
25
 70
     0
 62
     7
  6
CONTINUOUS
  0
LAYER
  2
26
 70
     0
 62
     7
  6
CONTINUOUS
  0
LAYER
  2
27
 70
     0
 62
     7
  6
CONTINUOUS
  0
LAYER
  2
28
 70
     0
 62
     7
  6
CONTINUOUS
  0
LAYER
  2
29
 70
     0
 62
     7
  6
CONTINUOUS
  0
LAYER
  2
30
 70
     0
 62
     7
  6
CONTINUOUS
  0
LAYER
  2
31
 70
     0
 62
     7
  6
CONTINUOUS
  0
LAYER
  2
32
 70
     0
 62
     7
  6
CONTINUOUS
  0
LAYER
  2
33
 70
     0
 62
     7
  6
CONTINUOUS
  0
LAYER
  2
34
 70
     0
 62
     7
  6
CONTINUOUS
  0
LAYER
  2
35
 70
     0
 62
     7
  6
CONTINUOUS
  0
LAYER
  2
36
 70
     0
 62
     7
  6
CONTINUOUS
  0
LAYER
  2
37
 70
     0
 62
     7
  6
CONTINUOUS
  0
LAYER
  2
38
 70
     0
 62
     7
  6
CONTINUOUS
  0
LAYER
  2
39
 70
     0
 62
     7
  6
CONTINUOUS
  0
LAYER
  2
40
 70
     0
 62
     7
  6
CONTINUOUS
  0
LAYER
  2
41
 70
     0
 62
     7
  6
CONTINUOUS
  0
LAYER
  2
42
 70
     0
 62
     7
  6
CONTINUOUS
  0
LAYER
  2
43
 70
     0
 62
     7
  6
CONTINUOUS
  0
LAYER
  2
44
 70
     0
 62
     7
  6
CONTINUOUS
  0
LAYER
  2
45
 70
     0
 62
     7
  6
CONTINUOUS
  0
LAYER
  2
46
 70
     0
 62
     7
  6
CONTINUOUS
  0
LAYER
  2
47
 70
     0
 62
     7
  6
CONTINUOUS
  0
LAYER
  2
48
 70
     0
 62
     7
  6
CONTINUOUS
  0
LAYER
  2
49
 70
     0
 62
     7
  6
CONTINUOUS
  0
LAYER
  2
50
 70
     0
 62
     7
  6
CONTINUOUS
  0
LAYER
  2
51
 70
     0
 62
     7
  6
CONTINUOUS
  0
LAYER
  2
52
 70
     0
 62
     7
  6
CONTINUOUS
  0
LAYER
  2
53
 70
     0
 62
     7
  6
CONTINUOUS
  0
LAYER
  2
54
 70
     0
 62
     7
  6
CONTINUOUS
  0
LAYER
  2
55
 70
     0
 62
     7
  6
CONTINUOUS
  0
LAYER
  2
56
 70
     0
 62
     7
  6
CONTINUOUS
  0
LAYER
  2
57
 70
     0
 62
     7
  6
CONTINUOUS
  0
LAYER
  2
58
 70
     0
 62
     7
  6
CONTINUOUS
  0
LAYER
  2
59
 70
     0
 62
     7
  6
CONTINUOUS
  0
LAYER
  2
60
 70
     0
 62
     7
  6
CONTINUOUS
  0
LAYER
  2
61
 70
     0
 62
     7
  6
CONTINUOUS
  0
LAYER
  2
62
 70
     0
 62
     7
  6
CONTINUOUS
  0
LAYER
  2
63
 70
     0
 62
     7
  6
CONTINUOUS
  0
LAYER
  2
64
 70
     0
 62
     7
  6
CONTINUOUS
  0
LAYER
  2
65
 70
     0
 62
     7
  6
CONTINUOUS
  0
LAYER
  2
66
 70
     0
 62
     7
  6
CONTINUOUS
  0
LAYER
  2
67
 70
     0
 62
     7
  6
CONTINUOUS
  0
LAYER
  2
68
 70
     0
 62
     7
  6
CONTINUOUS
  0
LAYER
  2
69
 70
     0
 62
     7
  6
CONTINUOUS
  0
LAYER
  2
70
 70
     0
 62
     7
  6
CONTINUOUS
  0
LAYER
  2
71
 70
     0
 62
     7
  6
CONTINUOUS
  0
LAYER
  2
72
 70
     0
 62
     7
  6
CONTINUOUS
  0
LAYER
  2
73
 70
     0
 62
     7
  6
CONTINUOUS
  0
LAYER
  2
74
 70
     0
 62
     7
  6
CONTINUOUS
  0
LAYER
  2
75
 70
     0
 62
     7
  6
CONTINUOUS
  0
LAYER
  2
76
 70
     0
 62
     7
  6
CONTINUOUS
  0
LAYER
  2
77
 70
     0
 62
     7
  6
CONTINUOUS
  0
LAYER
  2
78
 70
     0
 62
     7
  6
CONTINUOUS
  0
LAYER
  2
79
 70
     0
 62
     7
  6
CONTINUOUS
  0
LAYER
  2
80
 70
     0
 62
     7
  6
CONTINUOUS
  0
LAYER
  2
81
 70
     0
 62
     7
  6
CONTINUOUS
  0
LAYER
  2
82
 70
     0
 62
     7
  6
CONTINUOUS
  0
LAYER
  2
83
 70
     0
 62
     7
  6
CONTINUOUS
  0
LAYER
  2
84
 70
     0
 62
     7
  6
CONTINUOUS
  0
LAYER
  2
85
 70
     0
 62
     7
  6
CONTINUOUS
  0
LAYER
  2
86
 70
     0
 62
     7
  6
CONTINUOUS
  0
LAYER
  2
87
 70
     0
 62
     7
  6
CONTINUOUS
  0
LAYER
  2
88
 70
     0
 62
     7
  6
CONTINUOUS
  0
LAYER
  2
89
 70
     0
 62
     7
  6
CONTINUOUS
  0
LAYER
  2
90
 70
     0
 62
     7
  6
CONTINUOUS
  0
LAYER
  2
91
 70
     0
 62
     7
  6
CONTINUOUS
  0
LAYER
  2
92
 70
     0
 62
     7
  6
CONTINUOUS
  0
LAYER
  2
93
 70
     0
 62
     7
  6
CONTINUOUS
  0
LAYER
  2
94
 70
     0
 62
     7
  6
CONTINUOUS
  0
LAYER
  2
95
 70
     0
 62
     7
  6
CONTINUOUS
  0
LAYER
  2
96
 70
     0
 62
     7
  6
CONTINUOUS
  0
LAYER
  2
97
 70
     0
 62
     7
  6
CONTINUOUS
  0
LAYER
  2
98
 70
     0
 62
     7
  6
CONTINUOUS
  0
LAYER
  2
99
 70
     0
 62
     7
  6
CONTINUOUS
  0
LAYER
  2
100
 70
     0
 62
     7
  6
CONTINUOUS
  0
LAYER
  2
101
 70
     0
 62
     7
  6
CONTINUOUS
  0
LAYER
  2
102
 70
     0
 62
     7
  6
CONTINUOUS
  0
LAYER
  2
103
 70
     0
 62
     7
  6
CONTINUOUS
  0
LAYER
  2
104
 70
     0
 62
     7
  6
CONTINUOUS
  0
LAYER
  2
105
 70
     0
 62
     7
  6
CONTINUOUS
  0
LAYER
  2
106
 70
     0
 62
     7
  6
CONTINUOUS
  0
LAYER
  2
107
 70
     0
 62
     7
  6
CONTINUOUS
  0
LAYER
  2
108
 70
     0
 62
     7
  6
CONTINUOUS
  0
LAYER
  2
109
 70
     0
 62
     7
  6
CONTINUOUS
  0
LAYER
  2
110
 70
     0
 62
     7
  6
CONTINUOUS
  0
LAYER
  2
111
 70
     0
 62
     7
  6
CONTINUOUS
  0
LAYER
  2
112
 70
     0
 62
     7
  6
CONTINUOUS
  0
LAYER
  2
113
 70
     0
 62
     7
  6
CONTINUOUS
  0
LAYER
  2
114
 70
     0
 62
     7
  6
CONTINUOUS
  0
LAYER
  2
115
 70
     0
 62
     7
  6
CONTINUOUS
  0
LAYER
  2
116
 70
     0
 62
     7
  6
CONTINUOUS
  0
LAYER
  2
117
 70
     0
 62
     7
  6
CONTINUOUS
  0
LAYER
  2
118
 70
     0
 62
     7
  6
CONTINUOUS
  0
LAYER
  2
119
 70
     0
 62
     7
  6
CONTINUOUS
  0
LAYER
  2
120
 70
     0
 62
     7
  6
CONTINUOUS
  0
LAYER
  2
121
 70
     0
 62
     7
  6
CONTINUOUS
  0
LAYER
  2
122
 70
     0
 62
     7
  6
CONTINUOUS
  0
LAYER
  2
123
 70
     0
 62
     7
  6
CONTINUOUS
  0
LAYER
  2
124
 70
     0
 62
     7
  6
CONTINUOUS
  0
LAYER
  2
125
 70
     0
 62
     7
  6
CONTINUOUS
  0
LAYER
  2
126
 70
     0
 62
     7
  6
CONTINUOUS
  0
LAYER
  2
127
 70
     0
 62
     7
  6
CONTINUOUS
  0
ENDTAB
  0
TABLE
  2
STYLE
 70
     6
  0
STYLE
  2
STANDARD
 70
     0
 40
0.0
 41
1.0
 50
0.0
 71
     0
 42
0.2
  3
txt
  4

  0
STYLE
  2
KANJI0
 70
     4
 40
37.5
 41
1.0
 50
0.0
 71
     0
 42
37.5
  3

  4
bigfont
  0
STYLE
  2
KANJI1
 70
     0
 40
45.0
 41
0.9
 50
0.0
 71
     0
 42
45.0
  3

  4
bigfont
  0
STYLE
  2
KANJI2
 70
     0
 40
90.0
 41
0.6
 50
0.0
 71
     0
 42
90.0
  3

  4
bigfont
  0
STYLE
  2
KANJI3
 70
     0
 40
45.0
 41
0.45
 50
0.0
 71
     0
 42
45.0
  3

  4
bigfont
  0
STYLE
  2
KANJI4
 70
     0
 40
45.0
 41
1.0
 50
0.0
 71
     0
 42
45.0
  3

  4
bigfont
  0
ENDTAB
  0
TABLE
  2
VIEW
 70
     0
  0
ENDTAB
  0
ENDSEC
  0
SECTION
  2
BLOCKS
  0
ENDSEC
  0
SECTION
  2
ENTITIES
  0
LINE
  8
1
  6
CONTINUOUS
 62
     1
 10
3480.0
 20
420.0
 11
4305.0
 21
420.0
  0
LINE
  8
1
  6
CONTINUOUS
 62
     1
 10
3150.0
 20
240.0
 11
3150.0
 21
150.0
  0
TEXT
  8
1
  6
CONTINUOUS
 62
     1
 10
3176.25
 20
232.5
 30
0.0
 40
37.5
  1
日付
 50
0.0
 41
1.0
 51
0.0
  7
KANJI0
  0
TEXT
  8
1
  6
CONTINUOUS
 62
     1
 10
3176.25
 20
322.5
 30
0.0
 40
37.5
  1
尺度
 50
0.0
 41
1.0
 51
0.0
  7
KANJI0
  0
LINE
  8
1
  6
CONTINUOUS
 62
     1
 10
3150.0
 20
330.0
 11
4305.0
 21
330.0
  0
TEXT
  8
1
  6
CONTINUOUS
 62
     1
 10
3570.0
 20
258.0
 30
4.5
 40
45.0
  1
－－－
 50
0.0
 41
0.9
 51
0.0
  7
KANJI1
  0
POINT
  8
1
  6
CONTINUOUS
 62
     1
 10
4305.0
 20
780.0
  0
LINE
  8
1
  6
CONTINUOUS
 62
     1
 10
150.0
 20
150.0
 11
4305.0
 21
150.0
  0
LINE
  8
1
  6
CONTINUOUS
 62
     1
 10
150.0
 20
150.0
 11
150.0
 21
3000.0
  0
LINE
  8
1
  6
CONTINUOUS
 62
     1
 10
150.0
 20
3000.0
 11
4305.0
 21
3000.0
  0
LINE
  8
1
  6
CONTINUOUS
 62
     1
 10
4305.0
 20
150.0
 11
4305.0
 21
3000.0
  0
LINE
  8
1
  6
CONTINUOUS
 62
     1
 10
3150.0
 20
420.0
 11
3480.0
 21
420.0
  0
LINE
  8
1
  6
CONTINUOUS
 62
     1
 10
3150.0
 20
420.0
 11
3150.0
 21
240.0
  0
TEXT
  8
1
  6
CONTINUOUS
 62
     1
 10
3176.25
 20
412.5
 30
0.0
 40
37.5
  1
用紙
 50
0.0
 41
1.0
 51
0.0
  7
KANJI0
  0
LINE
  8
6
  6
CONTINUOUS
 62
     1
 10
2695.073491935
 20
2164.392076064
 11
2935.937418756
 21
2581.580635028
  0
LINE
  8
6
  6
CONTINUOUS
 62
     1
 10
3103.14524669
 20
2378.296222187
 11
3065.64524669
 21
2443.248127471
  0
LINE
  8
6
  6
CONTINUOUS
 62
     1
 10
3103.14524669
 20
2378.296222187
 11
3038.193341406
 21
2415.796222187
  0
ARC
  8
6
  6
CONTINUOUS
 62
     1
 10
2429.835605954
 20
1704.986581452
 40
952.203625605
 50
45.0
 51
60.0
  0
LINE
  8
6
  6
CONTINUOUS
 62
     1
 10
2905.937418756
 20
2529.619110801
 11
2958.970427345
 21
2476.586102212
  0
LINE
  8
6
  6
CONTINUOUS
 62
     1
 10
2905.937418756
 20
2529.619110801
 11
2978.381855728
 21
2510.207682419
  0
LINE
  8
6
  6
CONTINUOUS
 62
     1
 10
2815.271875056
 20
2090.422850554
 11
3145.571653561
 21
2420.722629059
  0
LINE
  8
6
  6
CONTINUOUS
 62
     1
 10
3355.592290621
 20
1768.835188713
 11
3336.180862238
 21
1841.279625685
  0
LINE
  8
6
  6
CONTINUOUS
 62
     1
 10
3355.592290621
 20
1768.835188713
 11
3375.003719004
 21
1841.279625685
  0
ARC
  8
6
  6
CONTINUOUS
 62
     1
 10
2493.684213215
 20
1768.835188713
 40
861.908077405
 50
0.0
 51
45.0
  0
LINE
  8
6
  6
CONTINUOUS
 62
     1
 10
3103.145259508
 20
2378.296235006
 11
3140.645259508
 21
2313.344329722
  0
LINE
  8
6
  6
CONTINUOUS
 62
     1
 10
3103.145259508
 20
2378.296235006
 11
3168.097164792
 21
2340.796235006
  0
LINE
  8
6
  6
CONTINUOUS
 62
     1
 10
2994.455551506
 20
1768.835188713
 11
3415.592290621
 21
1768.835188713
  0
LINE
  8
6
  6
CONTINUOUS
 62
     1
 10
2964.455551506
 20
1814.335188713
 11
2964.455551506
 21
2380.38507271
  0
LINE
  8
6
  6
CONTINUOUS
 62
     1
 10
2964.455551506
 20
2320.38507271
 11
2892.011114534
 21
2339.796501093
  0
LINE
  8
6
  6
CONTINUOUS
 62
     1
 10
2964.455551506
 20
2320.38507271
 11
2892.011114534
 21
2300.973644328
  0
LINE
  8
6
  6
CONTINUOUS
 62
     1
 10
2964.455551506
 20
2320.38507271
 11
2310.455551506
 21
2320.38507271
  0
LINE
  8
6
  6
CONTINUOUS
 62
     1
 10
2310.455551506
 20
2320.38507271
 11
2382.899988478
 21
2300.973644328
  0
LINE
  8
6
  6
CONTINUOUS
 62
     1
 10
2310.455551506
 20
2320.38507271
 11
2382.899988478
 21
2339.796501093
  0
LINE
  8
6
  6
CONTINUOUS
 62
     1
 10
2310.455551506
 20
1811.335188713
 11
2310.455551506
 21
2380.38507271
  0
LINE
  8
6
  6
CONTINUOUS
 62
     1
 10
2374.455551506
 20
982.421501093
 11
2374.455551506
 21
554.78631395
  0
LINE
  8
6
  6
CONTINUOUS
 62
     1
 10
2374.455551506
 20
614.78631395
 11
2446.899988478
 21
595.374885567
  0
LINE
  8
6
  6
CONTINUOUS
 62
     1
 10
2374.455551506
 20
614.78631395
 11
2446.899988478
 21
634.197742333
  0
LINE
  8
6
  6
CONTINUOUS
 62
     1
 10
2374.455551506
 20
614.78631395
 11
2904.455551506
 21
614.78631395
  0
LINE
  8
6
  6
CONTINUOUS
 62
     1
 10
2904.455551506
 20
614.78631395
 11
2832.011114534
 21
634.197742333
  0
LINE
  8
6
  6
CONTINUOUS
 62
     1
 10
2904.455551506
 20
614.78631395
 11
2832.011114534
 21
595.374885567
  0
LINE
  8
6
  6
CONTINUOUS
 62
     1
 10
2904.455551506
 20
982.421501093
 11
2904.455551506
 21
554.78631395
  0
LINE
  8
6
  6
CONTINUOUS
 62
     1
 10
2284.455551506
 20
1784.335188713
 11
2045.705551506
 21
1784.335188713
  0
LINE
  8
6
  6
CONTINUOUS
 62
     1
 10
2105.705551506
 20
1784.335188713
 11
2086.294123123
 21
1711.890751742
  0
LINE
  8
6
  6
CONTINUOUS
 62
     1
 10
2105.705551506
 20
1784.335188713
 11
2125.116979889
 21
1711.890751742
  0
LINE
  8
6
  6
CONTINUOUS
 62
     1
 10
2105.705551506
 20
1784.335188713
 11
2105.705551506
 21
884.821501093
  0
LINE
  8
6
  6
CONTINUOUS
 62
     1
 10
2105.705551506
 20
884.821501093
 11
2125.116979889
 21
957.265938065
  0
LINE
  8
6
  6
CONTINUOUS
 62
     1
 10
2105.705551506
 20
884.821501093
 11
2086.294123123
 21
957.265938065
  0
LINE
  8
6
  6
CONTINUOUS
 62
     1
 10
1912.568051506
 20
884.821501093
 11
1931.979479889
 21
957.265938065
  0
LINE
  8
6
  6
CONTINUOUS
 62
     1
 10
1912.568051506
 20
884.821501093
 11
1893.156623123
 21
957.265938065
  0
LINE
  8
6
  6
CONTINUOUS
 62
     1
 10
1912.568051506
 20
884.821501093
 11
1912.568051506
 21
2146.16131395
  0
LINE
  8
6
  6
CONTINUOUS
 62
     1
 10
1912.568051506
 20
2146.16131395
 11
1893.156623123
 21
2073.716876978
  0
LINE
  8
6
  6
CONTINUOUS
 62
     1
 10
1912.568051506
 20
2146.16131395
 11
1931.979479889
 21
2073.716876978
  0
LINE
  8
6
  6
CONTINUOUS
 62
     1
 10
2636.650098177
 20
2146.16131395
 11
1852.568051506
 21
2146.16131395
  0
LINE
  8
6
  6
CONTINUOUS
 62
     1
 10
1630.693051506
 20
2176.16131395
 11
1630.693051506
 21
2380.38507271
  0
LINE
  8
6
  6
CONTINUOUS
 62
     1
 10
1630.693051506
 20
2320.38507271
 11
1558.248614534
 21
2339.796501093
  0
LINE
  8
6
  6
CONTINUOUS
 62
     1
 10
1630.693051506
 20
2320.38507271
 11
1558.248614534
 21
2300.973644328
  0
LINE
  8
6
  6
CONTINUOUS
 62
     1
 10
1630.693051506
 20
2320.38507271
 11
1070.693051506
 21
2320.38507271
  0
LINE
  8
6
  6
CONTINUOUS
 62
     1
 10
1070.693051506
 20
2320.38507271
 11
1143.137488478
 21
2300.973644328
  0
LINE
  8
6
  6
CONTINUOUS
 62
     1
 10
1070.693051506
 20
2320.38507271
 11
1143.137488478
 21
2339.796501093
  0
LINE
  8
6
  6
CONTINUOUS
 62
     1
 10
1070.693051506
 20
2176.16131395
 11
1070.693051506
 21
2380.38507271
  0
TEXT
  8
6
  6
CONTINUOUS
 62
     1
 10
2956.361488029
 20
2539.009637282
 30
9.0
 40
90.0
  1
１５゜
 50
322.5
 41
0.6
 51
0.0
  7
KANJI2
  0
TEXT
  8
6
  6
CONTINUOUS
 62
     1
 10
1260.693051506
 20
2350.38507271
 30
9.0
 40
90.0
  1
５６５
 50
0.0
 41
0.6
 51
0.0
  7
KANJI2
  0
TEXT
  8
6
  6
CONTINUOUS
 62
     1
 10
2484.455551506
 20
2350.38507271
 30
9.0
 40
90.0
  1
６６０
 50
0.0
 41
0.6
 51
0.0
  7
KANJI2
  0
TEXT
  8
6
  6
CONTINUOUS
 62
     1
 10
1882.568051506
 20
1362.491407521
 30
9.0
 40
90.0
  1
１２６５
 50
90.0
 41
0.6
 51
0.0
  7
KANJI2
  0
TEXT
  8
6
  6
CONTINUOUS
 62
     1
 10
2075.705551506
 20
1181.578344903
 30
9.0
 40
90.0
  1
９００
 50
90.0
 41
0.6
 51
0.0
  7
KANJI2
  0
TEXT
  8
6
  6
CONTINUOUS
 62
     1
 10
2549.455551506
 20
644.78631395
 30
9.0
 40
90.0
  1
５３０
 50
0.0
 41
0.6
 51
0.0
  7
KANJI2
  0
TEXT
  8
6
  6
CONTINUOUS
 62
     1
 10
1490.205551506
 20
619.78631395
 30
9.0
 40
90.0
  1
突起含まず
 50
0.0
 41
0.6
 51
0.0
  7
KANJI2
  0
LINE
  8
6
  6
CONTINUOUS
 62
     1
 10
1071.693051506
 20
1354.371501093
 11
803.661801506
 21
1354.371501093
  0
LINE
  8
6
  6
CONTINUOUS
 62
     1
 10
863.661801506
 20
1354.371501093
 11
844.250373123
 21
1281.927064121
  0
LINE
  8
6
  6
CONTINUOUS
 62
     1
 10
863.661801506
 20
1354.371501093
 11
883.073229889
 21
1281.927064121
  0
LINE
  8
6
  6
CONTINUOUS
 62
     1
 10
863.661801506
 20
1354.371501093
 11
863.661801506
 21
1086.471501093
  0
LINE
  8
6
  6
CONTINUOUS
 62
     1
 10
863.661801506
 20
1086.471501093
 11
883.073229889
 21
1158.915938065
  0
LINE
  8
6
  6
CONTINUOUS
 62
     1
 10
863.661801506
 20
1086.471501093
 11
844.250373123
 21
1158.915938065
  0
LINE
  8
6
  6
CONTINUOUS
 62
     1
 10
1071.693051506
 20
1086.471501093
 11
803.661801506
 21
1086.471501093
  0
LINE
  8
6
  6
CONTINUOUS
 62
     1
 10
1071.693051506
 20
1654.2588846
 11
803.661801506
 21
1654.2588846
  0
LINE
  8
6
  6
CONTINUOUS
 62
     1
 10
863.661801506
 20
1654.2588846
 11
883.073229889
 21
1726.703321572
  0
LINE
  8
6
  6
CONTINUOUS
 62
     1
 10
863.661801506
 20
1654.2588846
 11
844.250373123
 21
1726.703321572
  0
LINE
  8
6
  6
CONTINUOUS
 62
     1
 10
863.661801506
 20
1654.2588846
 11
863.661801506
 21
2075.14723084
  0
LINE
  8
6
  6
CONTINUOUS
 62
     1
 10
863.661801506
 20
2075.14723084
 11
844.250373123
 21
2002.702793868
  0
LINE
  8
6
  6
CONTINUOUS
 62
     1
 10
863.661801506
 20
2075.14723084
 11
883.073229889
 21
2002.702793868
  0
LINE
  8
6
  6
CONTINUOUS
 62
     1
 10
1071.693051506
 20
2075.14723084
 11
803.661801506
 21
2075.14723084
  0
TEXT
  8
6
  6
CONTINUOUS
 62
     1
 10
833.661801506
 20
1774.70305772
 30
9.0
 40
90.0
  1
１２Ｕ
 50
90.0
 41
0.6
 51
0.0
  7
KANJI2
  0
TEXT
  8
6
  6
CONTINUOUS
 62
     1
 10
833.661801506
 20
1161.921501093
 30
9.0
 40
90.0
  1
６Ｕ
 50
90.0
 41
0.6
 51
0.0
  7
KANJI2
  0
TEXT
  8
6
  6
CONTINUOUS
 62
     1
 10
3222.985681301
 20
2338.813817425
 30
9.0
 40
90.0
  1
４５゜（４分割）
 50
292.5
 41
0.6
 51
0.0
  7
KANJI2
  0
LINE
  8
0
  6
CONTINUOUS
 62
     1
 10
2873.455551506
 20
1074.421501093
 11
2405.455551506
 21
1074.421501093
  0
LINE
  8
0
  6
CONTINUOUS
 62
     1
 10
2873.455551506
 20
1042.421501093
 11
2405.455551506
 21
1042.421501093
  0
CIRCLE
  8
0
  6
CONTINUOUS
 62
     1
 10
2357.955551506
 20
934.821501093
 40
50.0
  0
LINE
  8
0
  6
CONTINUOUS
 62
     1
 10
2904.455551506
 20
1012.421501093
 11
2873.455551506
 21
1012.421501093
  0
CIRCLE
  8
0
  6
CONTINUOUS
 62
     1
 10
2920.955551506
 20
934.821501093
 40
50.0
  0
LINE
  8
0
  6
CONTINUOUS
 62
     1
 10
2964.455551506
 20
1784.335188713
 11
2314.455551506
 21
1784.335188713
  0
LINE
  8
0
  6
CONTINUOUS
 62
     1
 10
2964.455551506
 20
1753.335188713
 11
2314.455551506
 21
1753.335188713
  0
LINE
  8
0
  6
CONTINUOUS
 62
     1
 10
2964.455551506
 20
1753.335188713
 11
2965.455551506
 21
1753.335188713
  0
ARC
  8
0
  6
CONTINUOUS
 62
     1
 10
2965.455551506
 20
1756.335188713
 40
3.0
 50
270.0
 51
0.0
  0
LINE
  8
0
  6
CONTINUOUS
 62
     1
 10
2964.455551506
 20
1784.335188713
 11
2965.455551506
 21
1784.335188713
  0
ARC
  8
0
  6
CONTINUOUS
 62
     1
 10
2965.455551506
 20
1781.335188713
 40
3.0
 50
0.0
 51
90.0
  0
LINE
  8
0
  6
CONTINUOUS
 62
     1
 10
2968.455551506
 20
1781.335188713
 11
2968.455551506
 21
1756.335188713
  0
LINE
  8
0
  6
CONTINUOUS
 62
     1
 10
2314.455551506
 20
1784.335188713
 11
2313.455551506
 21
1784.335188713
  0
ARC
  8
0
  6
CONTINUOUS
 62
     1
 10
2313.455551506
 20
1781.335188713
 40
3.0
 50
90.0
 51
180.0
  0
LINE
  8
0
  6
CONTINUOUS
 62
     1
 10
2314.455551506
 20
1753.335188713
 11
2313.455551506
 21
1753.335188713
  0
ARC
  8
0
  6
CONTINUOUS
 62
     1
 10
2313.455551506
 20
1756.335188713
 40
3.0
 50
180.0
 51
270.0
  0
LINE
  8
0
  6
CONTINUOUS
 62
     1
 10
2310.455551506
 20
1756.335188713
 11
2310.455551506
 21
1781.335188713
  0
CIRCLE
  8
0
  6
CONTINUOUS
 62
     1
 10
2516.673065927
 20
1713.335188713
 40
5.0
  0
LINE
  8
0
  6
CONTINUOUS
 62
     1
 10
2374.455551506
 20
1412.421501093
 11
2374.455551506
 21
1012.421501093
  0
ARC
  8
0
  6
CONTINUOUS
 62
     1
 10
2509.955551506
 20
1536.912046807
 40
104.5
 50
135.000016732
 51
250.0
  0
LINE
  8
0
  6
CONTINUOUS
 62
     1
 10
2474.214446528
 20
1438.714167935
 11
2815.299264424
 21
1314.569446861
  0
ARC
  8
0
  6
CONTINUOUS
 62
     1
 10
2768.955551506
 20
1187.241090738
 40
135.5
 50
0.0
 51
70.000007426
  0
LINE
  8
0
  6
CONTINUOUS
 62
     1
 10
2904.455551506
 20
1012.421501093
 11
2904.455551506
 21
1187.241090738
  0
CIRCLE
  8
0
  6
CONTINUOUS
 62
     1
 10
2456.673065927
 20
1713.335188713
 40
4.5
  0
CIRCLE
  8
0
  6
CONTINUOUS
 62
     1
 10
2457.825949103
 20
1701.629769392
 40
4.5
  0
CIRCLE
  8
0
  6
CONTINUOUS
 62
     1
 10
2461.240293976
 20
1690.374182771
 40
4.5
  0
CIRCLE
  8
0
  6
CONTINUOUS
 62
     1
 10
2466.784889189
 20
1680.000974732
 40
4.5
  0
CIRCLE
  8
0
  6
CONTINUOUS
 62
     1
 10
2474.246659056
 20
1670.908781842
 40
4.5
  0
LINE
  8
0
  6
CONTINUOUS
 62
     1
 10
2693.496885694
 20
2130.66131395
 11
2693.996885694
 21
2131.527339354
  0
ARC
  8
0
  6
CONTINUOUS
 62
     1
 10
2691.398809483
 20
2133.027339354
 40
3.0
 50
330.0
 51
60.0
  0
LINE
  8
0
  6
CONTINUOUS
 62
     1
 10
2666.650098177
 20
2146.16131395
 11
2667.150098177
 21
2147.027339354
  0
ARC
  8
0
  6
CONTINUOUS
 62
     1
 10
2669.748174388
 20
2145.527339354
 40
3.0
 50
60.0
 51
150.0
  0
LINE
  8
0
  6
CONTINUOUS
 62
     1
 10
2671.248174388
 20
2148.125415565
 11
2692.898809483
 21
2135.625415565
  0
LINE
  8
0
  6
CONTINUOUS
 62
     1
 10
2341.650098177
 20
1583.24480149
 11
2341.150098177
 21
1582.378776086
  0
ARC
  8
0
  6
CONTINUOUS
 62
     1
 10
2343.748174388
 20
1580.878776086
 40
3.0
 50
150.0
 51
240.0
  0
LINE
  8
0
  6
CONTINUOUS
 62
     1
 10
2368.496885694
 20
1567.74480149
 11
2367.996885694
 21
1566.878776086
  0
ARC
  8
0
  6
CONTINUOUS
 62
     1
 10
2365.398809483
 20
1568.378776086
 40
3.0
 50
240.0
 51
330.0
  0
LINE
  8
0
  6
CONTINUOUS
 62
     1
 10
2363.898809483
 20
1565.780699875
 11
2342.248174388
 21
1578.280699875
  0
LINE
  8
0
  6
CONTINUOUS
 62
     1
 10
2805.018826729
 20
2058.24949201
 11
2805.72593351
 21
2058.956598791
  0
ARC
  8
0
  6
CONTINUOUS
 62
     1
 10
2803.604613167
 20
2061.077919135
 40
3.0
 50
315.0
 51
45.0
  0
LINE
  8
0
  6
CONTINUOUS
 62
     1
 10
2783.098516512
 20
2080.169802227
 11
2783.805623293
 21
2080.876909008
  0
ARC
  8
0
  6
CONTINUOUS
 62
     1
 10
2785.926943637
 20
2078.755588664
 40
3.0
 50
45.0
 51
135.0
  0
LINE
  8
0
  6
CONTINUOUS
 62
     1
 10
2788.04826398
 20
2080.876909008
 11
2805.72593351
 21
2063.199239478
  0
LINE
  8
0
  6
CONTINUOUS
 62
     1
 10
2323.479108741
 20
1620.550394455
 11
2322.77200196
 21
1619.843287674
  0
ARC
  8
0
  6
CONTINUOUS
 62
     1
 10
2324.893322303
 20
1617.721967331
 40
3.0
 50
135.0
 51
225.0
  0
LINE
  8
0
  6
CONTINUOUS
 62
     1
 10
2345.399418958
 20
1598.630084239
 11
2344.692312177
 21
1597.922977458
  0
ARC
  8
0
  6
CONTINUOUS
 62
     1
 10
2342.570991833
 20
1600.044297801
 40
3.0
 50
225.0
 51
315.0
  0
LINE
  8
0
  6
CONTINUOUS
 62
     1
 10
2340.449671489
 20
1597.922977458
 11
2322.77200196
 21
1615.600646987
  0
CIRCLE
  8
0
  6
CONTINUOUS
 62
     1
 10
2823.455551506
 20
1058.421501093
 40
11.25
  0
CIRCLE
  8
0
  6
CONTINUOUS
 62
     1
 10
2514.628615504
 20
1697.806046007
 40
5.0
  0
ARC
  8
0
  6
CONTINUOUS
 62
     1
 10
2768.955551506
 20
1187.241090738
 40
104.5
 50
0.000005915
 51
70.000005559
  0
LINE
  8
0
  6
CONTINUOUS
 62
     1
 10
2405.455551506
 20
1012.421501093
 11
2374.455551506
 21
1012.421501093
  0
LINE
  8
0
  6
CONTINUOUS
 62
     1
 10
2463.61180303
 20
1409.583703626
 11
2804.696646956
 21
1285.438973078
  0
ARC
  8
0
  6
CONTINUOUS
 62
     1
 10
2509.955551506
 20
1536.912046807
 40
135.5
 50
134.999993548
 51
249.999991426
  0
LINE
  8
0
  6
CONTINUOUS
 62
     1
 10
2557.581065109
 20
1375.381689294
 11
2556.691812736
 21
1372.93848848
  0
LINE
  8
0
  6
CONTINUOUS
 62
     1
 10
2556.691812736
 20
1372.938488479
 11
2408.055551506
 21
1268.862257915
  0
LINE
  8
0
  6
CONTINUOUS
 62
     1
 10
2408.055551506
 20
1268.862257915
 11
2405.455551506
 21
1268.862257915
  0
LINE
  8
0
  6
CONTINUOUS
 62
     1
 10
2462.722550658
 20
1407.140502812
 11
2408.055551506
 21
1368.862257915
  0
LINE
  8
0
  6
CONTINUOUS
 62
     1
 10
2405.455551506
 20
1368.862257915
 11
2408.055551506
 21
1368.862257915
  0
LINE
  8
0
  6
CONTINUOUS
 62
     1
 10
2463.61180303
 20
1409.583703626
 11
2462.722550658
 21
1407.140502812
  0
CIRCLE
  8
0
  6
CONTINUOUS
 62
     1
 10
2449.154885554
 20
1368.862257915
 40
16.0
  0
CIRCLE
  8
0
  6
CONTINUOUS
 62
     1
 10
2488.060809743
 20
1354.181132959
 40
16.0
  0
CIRCLE
  8
0
  6
CONTINUOUS
 62
     1
 10
2449.154885554
 20
1326.938911561
 40
16.0
  0
ARC
  8
0
  6
CONTINUOUS
 62
     1
 10
2486.673065927
 20
1688.335188713
 40
40.0
 50
209.999981072
 51
330.000018928
  0
LINE
  8
0
  6
CONTINUOUS
 62
     1
 10
2566.673065927
 20
1746.899253319
 11
2566.673065927
 21
1753.335188713
  0
LINE
  8
0
  6
CONTINUOUS
 62
     1
 10
2521.314088686
 20
1668.335200157
 11
2566.673065927
 21
1746.899253319
  0
LINE
  8
0
  6
CONTINUOUS
 62
     1
 10
2406.673065927
 20
1746.899253319
 11
2406.673065927
 21
1753.335188713
  0
LINE
  8
0
  6
CONTINUOUS
 62
     1
 10
2452.032043169
 20
1668.335200157
 11
2406.673065927
 21
1746.899253319
  0
LINE
  8
0
  6
CONTINUOUS
 62
     1
 10
2405.455551506
 20
1412.421501093
 11
2405.455551506
 21
1413.421501093
  0
ARC
  8
0
  6
CONTINUOUS
 62
     1
 10
2402.455551506
 20
1413.421501093
 40
3.0
 50
0.0
 51
90.0
  0
LINE
  8
0
  6
CONTINUOUS
 62
     1
 10
2374.455551506
 20
1412.421501093
 11
2374.455551506
 21
1413.421501093
  0
ARC
  8
0
  6
CONTINUOUS
 62
     1
 10
2377.455551506
 20
1413.421501093
 40
3.0
 50
90.0
 51
180.0
  0
LINE
  8
0
  6
CONTINUOUS
 62
     1
 10
2377.455551506
 20
1416.421501093
 11
2402.455551506
 21
1416.421501093
  0
LINE
  8
0
  6
CONTINUOUS
 62
     1
 10
2805.018826729
 20
2058.24949201
 11
2581.104523432
 21
1834.335188713
  0
LINE
  8
0
  6
CONTINUOUS
 62
     1
 10
2783.098516512
 20
2080.169802227
 11
2537.263902999
 21
1834.335188713
  0
LINE
  8
0
  6
CONTINUOUS
 62
     1
 10
2693.496885694
 20
2130.66131395
 11
2522.412917521
 21
1834.335188713
  0
LINE
  8
0
  6
CONTINUOUS
 62
     1
 10
2666.650098177
 20
2146.16131395
 11
2486.617200831
 21
1834.335188713
  0
LINE
  8
0
  6
CONTINUOUS
 62
     1
 10
2414.142593445
 20
1632.725026448
 11
2451.197770245
 21
1669.780203248
  0
LINE
  8
0
  6
CONTINUOUS
 62
     1
 10
2436.062871293
 20
1610.804683862
 11
2475.257043185
 21
1649.998855754
  0
LINE
  8
0
  6
CONTINUOUS
 62
     1
 10
2385.86631586
 20
1682.937601575
 11
2323.479108741
 21
1620.550394455
  0
LINE
  8
0
  6
CONTINUOUS
 62
     1
 10
2392.537039501
 20
1671.383569306
 11
2341.650098177
 21
1583.24480149
  0
LINE
  8
0
  6
CONTINUOUS
 62
     1
 10
2401.913096657
 20
1655.143761938
 11
2345.399418958
 21
1598.630084239
  0
LINE
  8
0
  6
CONTINUOUS
 62
     1
 10
2410.434897846
 20
1640.383569306
 11
2368.496885694
 21
1567.74480149
  0
LINE
  8
0
  6
CONTINUOUS
 62
     1
 10
2405.455551506
 20
1042.421501093
 11
2405.455551506
 21
1012.421501093
  0
LINE
  8
0
  6
CONTINUOUS
 62
     1
 10
2405.455551506
 20
1412.421501093
 11
2405.455551506
 21
1074.421501093
  0
LINE
  8
0
  6
CONTINUOUS
 62
     1
 10
2873.455551506
 20
1074.421501093
 11
2873.455551506
 21
1187.241101528
  0
LINE
  8
0
  6
CONTINUOUS
 62
     1
 10
2873.455551506
 20
1012.421501093
 11
2873.455551506
 21
1042.421501093
  0
CIRCLE
  8
0
  6
CONTINUOUS
 62
     1
 10
1583.255551506
 20
1109.096501093
 40
3.1
  0
CIRCLE
  8
0
  6
CONTINUOUS
 62
     1
 10
1583.255551506
 20
1124.996501093
 40
3.1
  0
CIRCLE
  8
0
  6
CONTINUOUS
 62
     1
 10
1583.255551506
 20
1093.196501093
 40
3.1
  0
CIRCLE
  8
0
  6
CONTINUOUS
 62
     1
 10
1583.255551506
 20
1153.546501093
 40
3.1
  0
CIRCLE
  8
0
  6
CONTINUOUS
 62
     1
 10
1583.255551506
 20
1169.446501093
 40
3.1
  0
CIRCLE
  8
0
  6
CONTINUOUS
 62
     1
 10
1583.255551506
 20
1137.646501093
 40
3.1
  0
CIRCLE
  8
0
  6
CONTINUOUS
 62
     1
 10
1583.255551506
 20
1197.996501093
 40
3.1
  0
CIRCLE
  8
0
  6
CONTINUOUS
 62
     1
 10
1583.255551506
 20
1213.896501093
 40
3.1
  0
CIRCLE
  8
0
  6
CONTINUOUS
 62
     1
 10
1583.255551506
 20
1182.096501093
 40
3.1
  0
CIRCLE
  8
0
  6
CONTINUOUS
 62
     1
 10
1583.255551506
 20
1242.446501093
 40
3.1
  0
CIRCLE
  8
0
  6
CONTINUOUS
 62
     1
 10
1583.255551506
 20
1258.346501093
 40
3.1
  0
CIRCLE
  8
0
  6
CONTINUOUS
 62
     1
 10
1583.255551506
 20
1226.546501093
 40
3.1
  0
CIRCLE
  8
0
  6
CONTINUOUS
 62
     1
 10
1583.255551506
 20
1286.896501093
 40
3.1
  0
CIRCLE
  8
0
  6
CONTINUOUS
 62
     1
 10
1583.255551506
 20
1302.796501093
 40
3.1
  0
CIRCLE
  8
0
  6
CONTINUOUS
 62
     1
 10
1583.255551506
 20
1270.996501093
 40
3.1
  0
CIRCLE
  8
0
  6
CONTINUOUS
 62
     1
 10
1583.255551506
 20
1331.346501093
 40
3.1
  0
CIRCLE
  8
0
  6
CONTINUOUS
 62
     1
 10
1583.255551506
 20
1347.246501093
 40
3.1
  0
CIRCLE
  8
0
  6
CONTINUOUS
 62
     1
 10
1583.255551506
 20
1315.446501093
 40
3.1
  0
CIRCLE
  8
0
  6
CONTINUOUS
 62
     1
 10
1118.130551506
 20
1109.096501093
 40
3.1
  0
CIRCLE
  8
0
  6
CONTINUOUS
 62
     1
 10
1118.130551506
 20
1124.996501093
 40
3.1
  0
CIRCLE
  8
0
  6
CONTINUOUS
 62
     1
 10
1118.130551506
 20
1093.196501093
 40
3.1
  0
CIRCLE
  8
0
  6
CONTINUOUS
 62
     1
 10
1118.130551506
 20
1153.546501093
 40
3.1
  0
CIRCLE
  8
0
  6
CONTINUOUS
 62
     1
 10
1118.130551506
 20
1169.446501093
 40
3.1
  0
CIRCLE
  8
0
  6
CONTINUOUS
 62
     1
 10
1118.130551506
 20
1137.646501093
 40
3.1
  0
CIRCLE
  8
0
  6
CONTINUOUS
 62
     1
 10
1118.130551506
 20
1197.996501093
 40
3.1
  0
CIRCLE
  8
0
  6
CONTINUOUS
 62
     1
 10
1118.130551506
 20
1213.896501093
 40
3.1
  0
CIRCLE
  8
0
  6
CONTINUOUS
 62
     1
 10
1118.130551506
 20
1182.096501093
 40
3.1
  0
CIRCLE
  8
0
  6
CONTINUOUS
 62
     1
 10
1118.130551506
 20
1242.446501093
 40
3.1
  0
CIRCLE
  8
0
  6
CONTINUOUS
 62
     1
 10
1118.130551506
 20
1258.346501093
 40
3.1
  0
CIRCLE
  8
0
  6
CONTINUOUS
 62
     1
 10
1118.130551506
 20
1226.546501093
 40
3.1
  0
CIRCLE
  8
0
  6
CONTINUOUS
 62
     1
 10
1118.130551506
 20
1286.896501093
 40
3.1
  0
CIRCLE
  8
0
  6
CONTINUOUS
 62
     1
 10
1118.130551506
 20
1302.796501093
 40
3.1
  0
CIRCLE
  8
0
  6
CONTINUOUS
 62
     1
 10
1118.130551506
 20
1270.996501093
 40
3.1
  0
CIRCLE
  8
0
  6
CONTINUOUS
 62
     1
 10
1118.130551506
 20
1331.346501093
 40
3.1
  0
CIRCLE
  8
0
  6
CONTINUOUS
 62
     1
 10
1118.130551506
 20
1347.246501093
 40
3.1
  0
CIRCLE
  8
0
  6
CONTINUOUS
 62
     1
 10
1118.130551506
 20
1315.446501093
 40
3.1
  0
LINE
  8
0
  6
CONTINUOUS
 62
     1
 10
1630.693051506
 20
1012.421501093
 11
1599.693051506
 21
1012.421501093
  0
LINE
  8
0
  6
CONTINUOUS
 62
     1
 10
1070.693051506
 20
1012.421501093
 11
1101.693051506
 21
1012.421501093
  0
LINE
  8
0
  6
CONTINUOUS
 62
     1
 10
1101.693051506
 20
1032.821501093
 11
1599.693051506
 21
1032.821501093
  0
LINE
  8
0
  6
CONTINUOUS
 62
     1
 10
1101.693051506
 20
1086.471501093
 11
1599.693051506
 21
1086.471501093
  0
LINE
  8
0
  6
CONTINUOUS
 62
     1
 10
1101.693051506
 20
1408.021501093
 11
1599.693051506
 21
1408.021501093
  0
LINE
  8
0
  6
CONTINUOUS
 62
     1
 10
1101.693051506
 20
1354.371501093
 11
1599.693051506
 21
1354.371501093
  0
LINE
  8
0
  6
CONTINUOUS
 62
     1
 10
1630.693051506
 20
1412.421501093
 11
1630.693051506
 21
1413.421501093
  0
ARC
  8
0
  6
CONTINUOUS
 62
     1
 10
1627.693051506
 20
1413.421501093
 40
3.0
 50
0.0
 51
90.0
  0
LINE
  8
0
  6
CONTINUOUS
 62
     1
 10
1599.693051506
 20
1412.421501093
 11
1599.693051506
 21
1413.421501093
  0
ARC
  8
0
  6
CONTINUOUS
 62
     1
 10
1602.693051506
 20
1413.421501093
 40
3.0
 50
90.0
 51
180.0
  0
LINE
  8
0
  6
CONTINUOUS
 62
     1
 10
1602.693051506
 20
1416.421501093
 11
1627.693051506
 21
1416.421501093
  0
LINE
  8
0
  6
CONTINUOUS
 62
     1
 10
1101.693051506
 20
1412.421501093
 11
1101.693051506
 21
1413.421501093
  0
ARC
  8
0
  6
CONTINUOUS
 62
     1
 10
1098.693051506
 20
1413.421501093
 40
3.0
 50
0.0
 51
90.0
  0
LINE
  8
0
  6
CONTINUOUS
 62
     1
 10
1070.693051506
 20
1412.421501093
 11
1070.693051506
 21
1413.421501093
  0
ARC
  8
0
  6
CONTINUOUS
 62
     1
 10
1073.693051506
 20
1413.421501093
 40
3.0
 50
90.0
 51
180.0
  0
LINE
  8
0
  6
CONTINUOUS
 62
     1
 10
1073.693051506
 20
1416.421501093
 11
1098.693051506
 21
1416.421501093
  0
LINE
  8
0
  6
CONTINUOUS
 62
     1
 10
1628.693051506
 20
984.821501093
 11
1601.693051506
 21
984.821501093
  0
LINE
  8
0
  6
CONTINUOUS
 62
     1
 10
1628.693051506
 20
984.821501093
 11
1628.693051506
 21
884.821501093
  0
LINE
  8
0
  6
CONTINUOUS
 62
     1
 10
1628.693051506
 20
884.821501093
 11
1601.693051506
 21
884.821501093
  0
LINE
  8
0
  6
CONTINUOUS
 62
     1
 10
1601.693051506
 20
984.821501093
 11
1601.693051506
 21
884.821501093
  0
LINE
  8
0
  6
CONTINUOUS
 62
     1
 10
1072.693051506
 20
984.821501093
 11
1099.693051506
 21
984.821501093
  0
LINE
  8
0
  6
CONTINUOUS
 62
     1
 10
1072.693051506
 20
984.821501093
 11
1072.693051506
 21
884.821501093
  0
LINE
  8
0
  6
CONTINUOUS
 62
     1
 10
1072.693051506
 20
884.821501093
 11
1099.693051506
 21
884.821501093
  0
LINE
  8
0
  6
CONTINUOUS
 62
     1
 10
1099.693051506
 20
984.821501093
 11
1099.693051506
 21
884.821501093
  0
LINE
  8
0
  6
CONTINUOUS
 62
     1
 10
1125.130551506
 20
1354.371501093
 11
1125.130551506
 21
1086.471501093
  0
LINE
  8
0
  6
CONTINUOUS
 62
     1
 10
1576.255551506
 20
1354.371501093
 11
1576.255551506
 21
1086.471501093
  0
LINE
  8
0
  6
CONTINUOUS
 62
     1
 10
1630.693051506
 20
2146.16131395
 11
1599.693051506
 21
2146.16131395
  0
LINE
  8
0
  6
CONTINUOUS
 62
     1
 10
1070.693051506
 20
2146.16131395
 11
1101.693051506
 21
2146.16131395
  0
LINE
  8
0
  6
CONTINUOUS
 62
     1
 10
1101.693051506
 20
2139.23311072
 11
1599.693051506
 21
2139.23311072
  0
LINE
  8
0
  6
CONTINUOUS
 62
     1
 10
1599.693051506
 20
2075.14723084
 11
1101.693051506
 21
2075.14723084
  0
LINE
  8
0
  6
CONTINUOUS
 62
     1
 10
1630.693051506
 20
1583.24480149
 11
1599.693051506
 21
1583.24480149
  0
LINE
  8
0
  6
CONTINUOUS
 62
     1
 10
1070.693051506
 20
1583.24480149
 11
1101.693051506
 21
1583.24480149
  0
LINE
  8
0
  6
CONTINUOUS
 62
     1
 10
1101.693051506
 20
1590.17300472
 11
1599.693051506
 21
1590.17300472
  0
LINE
  8
0
  6
CONTINUOUS
 62
     1
 10
1599.693051506
 20
1654.2588846
 11
1101.693051506
 21
1654.2588846
  0
LINE
  8
0
  6
CONTINUOUS
 62
     1
 10
1630.693051506
 20
2146.16131395
 11
1630.693051506
 21
1012.421501093
  0
LINE
  8
0
  6
CONTINUOUS
 62
     1
 10
1599.693051506
 20
2146.16131395
 11
1599.693051506
 21
1012.421501093
  0
LINE
  8
0
  6
CONTINUOUS
 62
     1
 10
1101.693051506
 20
2146.16131395
 11
1101.693051506
 21
1012.421501093
  0
LINE
  8
0
  6
CONTINUOUS
 62
     1
 10
1070.693051506
 20
2146.16131395
 11
1070.693051506
 21
1012.421501093
  0
LINE
  8
0
  6
CONTINUOUS
 62
     1
 10
1630.693051506
 20
1567.74480149
 11
1599.693051506
 21
1567.74480149
  0
LINE
  8
0
  6
CONTINUOUS
 62
     1
 10
1070.693051506
 20
1567.74480149
 11
1101.693051506
 21
1567.74480149
  0
LINE
  8
0
  6
CONTINUOUS
 62
     1
 10
1576.255551506
 20
2075.14723084
 11
1576.255551506
 21
1654.2588846
  0
CIRCLE
  8
0
  6
CONTINUOUS
 62
     1
 10
1583.255551506
 20
1829.87223084
 40
3.1
  0
CIRCLE
  8
0
  6
CONTINUOUS
 62
     1
 10
1583.255551506
 20
1845.77223084
 40
3.1
  0
CIRCLE
  8
0
  6
CONTINUOUS
 62
     1
 10
1583.255551506
 20
1813.97223084
 40
3.1
  0
CIRCLE
  8
0
  6
CONTINUOUS
 62
     1
 10
1583.255551506
 20
1874.32223084
 40
3.1
  0
CIRCLE
  8
0
  6
CONTINUOUS
 62
     1
 10
1583.255551506
 20
1890.22223084
 40
3.1
  0
CIRCLE
  8
0
  6
CONTINUOUS
 62
     1
 10
1583.255551506
 20
1858.42223084
 40
3.1
  0
CIRCLE
  8
0
  6
CONTINUOUS
 62
     1
 10
1583.255551506
 20
1918.77223084
 40
3.1
  0
CIRCLE
  8
0
  6
CONTINUOUS
 62
     1
 10
1583.255551506
 20
1934.67223084
 40
3.1
  0
CIRCLE
  8
0
  6
CONTINUOUS
 62
     1
 10
1583.255551506
 20
1902.87223084
 40
3.1
  0
CIRCLE
  8
0
  6
CONTINUOUS
 62
     1
 10
1583.255551506
 20
1963.22223084
 40
3.1
  0
CIRCLE
  8
0
  6
CONTINUOUS
 62
     1
 10
1583.255551506
 20
1979.12223084
 40
3.1
  0
CIRCLE
  8
0
  6
CONTINUOUS
 62
     1
 10
1583.255551506
 20
1947.32223084
 40
3.1
  0
CIRCLE
  8
0
  6
CONTINUOUS
 62
     1
 10
1583.255551506
 20
2007.67223084
 40
3.1
  0
CIRCLE
  8
0
  6
CONTINUOUS
 62
     1
 10
1583.255551506
 20
2023.57223084
 40
3.1
  0
CIRCLE
  8
0
  6
CONTINUOUS
 62
     1
 10
1583.255551506
 20
1991.77223084
 40
3.1
  0
CIRCLE
  8
0
  6
CONTINUOUS
 62
     1
 10
1583.255551506
 20
2052.12223084
 40
3.1
  0
CIRCLE
  8
0
  6
CONTINUOUS
 62
     1
 10
1583.255551506
 20
2068.02223084
 40
3.1
  0
CIRCLE
  8
0
  6
CONTINUOUS
 62
     1
 10
1583.255551506
 20
2036.22223084
 40
3.1
  0
CIRCLE
  8
0
  6
CONTINUOUS
 62
     1
 10
1583.255551506
 20
1785.42223084
 40
3.1
  0
CIRCLE
  8
0
  6
CONTINUOUS
 62
     1
 10
1583.255551506
 20
1801.32223084
 40
3.1
  0
CIRCLE
  8
0
  6
CONTINUOUS
 62
     1
 10
1583.255551506
 20
1769.52223084
 40
3.1
  0
CIRCLE
  8
0
  6
CONTINUOUS
 62
     1
 10
1583.255551506
 20
1740.97223084
 40
3.1
  0
CIRCLE
  8
0
  6
CONTINUOUS
 62
     1
 10
1583.255551506
 20
1756.87223084
 40
3.1
  0
CIRCLE
  8
0
  6
CONTINUOUS
 62
     1
 10
1583.255551506
 20
1725.07223084
 40
3.1
  0
CIRCLE
  8
0
  6
CONTINUOUS
 62
     1
 10
1583.255551506
 20
1696.52223084
 40
3.1
  0
CIRCLE
  8
0
  6
CONTINUOUS
 62
     1
 10
1583.255551506
 20
1712.42223084
 40
3.1
  0
CIRCLE
  8
0
  6
CONTINUOUS
 62
     1
 10
1583.255551506
 20
1680.62223084
 40
3.1
  0
CIRCLE
  8
0
  6
CONTINUOUS
 62
     1
 10
1583.255551506
 20
1667.97223084
 40
3.1
  0
LINE
  8
0
  6
CONTINUOUS
 62
     1
 10
1128.955551506
 20
2075.14723084
 11
1128.955551506
 21
1654.2588846
  0
CIRCLE
  8
0
  6
CONTINUOUS
 62
     1
 10
1121.955551506
 20
1829.87223084
 40
3.1
  0
CIRCLE
  8
0
  6
CONTINUOUS
 62
     1
 10
1121.955551506
 20
1845.77223084
 40
3.1
  0
CIRCLE
  8
0
  6
CONTINUOUS
 62
     1
 10
1121.955551506
 20
1813.97223084
 40
3.1
  0
CIRCLE
  8
0
  6
CONTINUOUS
 62
     1
 10
1121.955551506
 20
1874.32223084
 40
3.1
  0
CIRCLE
  8
0
  6
CONTINUOUS
 62
     1
 10
1121.955551506
 20
1890.22223084
 40
3.1
  0
CIRCLE
  8
0
  6
CONTINUOUS
 62
     1
 10
1121.955551506
 20
1858.42223084
 40
3.1
  0
CIRCLE
  8
0
  6
CONTINUOUS
 62
     1
 10
1121.955551506
 20
1918.77223084
 40
3.1
  0
CIRCLE
  8
0
  6
CONTINUOUS
 62
     1
 10
1121.955551506
 20
1934.67223084
 40
3.1
  0
CIRCLE
  8
0
  6
CONTINUOUS
 62
     1
 10
1121.955551506
 20
1902.87223084
 40
3.1
  0
CIRCLE
  8
0
  6
CONTINUOUS
 62
     1
 10
1121.955551506
 20
1963.22223084
 40
3.1
  0
CIRCLE
  8
0
  6
CONTINUOUS
 62
     1
 10
1121.955551506
 20
1979.12223084
 40
3.1
  0
CIRCLE
  8
0
  6
CONTINUOUS
 62
     1
 10
1121.955551506
 20
1947.32223084
 40
3.1
  0
CIRCLE
  8
0
  6
CONTINUOUS
 62
     1
 10
1121.955551506
 20
2007.67223084
 40
3.1
  0
CIRCLE
  8
0
  6
CONTINUOUS
 62
     1
 10
1121.955551506
 20
2023.57223084
 40
3.1
  0
CIRCLE
  8
0
  6
CONTINUOUS
 62
     1
 10
1121.955551506
 20
1991.77223084
 40
3.1
  0
CIRCLE
  8
0
  6
CONTINUOUS
 62
     1
 10
1121.955551506
 20
2052.12223084
 40
3.1
  0
CIRCLE
  8
0
  6
CONTINUOUS
 62
     1
 10
1121.955551506
 20
2068.02223084
 40
3.1
  0
CIRCLE
  8
0
  6
CONTINUOUS
 62
     1
 10
1121.955551506
 20
2036.22223084
 40
3.1
  0
CIRCLE
  8
0
  6
CONTINUOUS
 62
     1
 10
1121.955551506
 20
1785.42223084
 40
3.1
  0
CIRCLE
  8
0
  6
CONTINUOUS
 62
     1
 10
1121.955551506
 20
1801.32223084
 40
3.1
  0
CIRCLE
  8
0
  6
CONTINUOUS
 62
     1
 10
1121.955551506
 20
1769.52223084
 40
3.1
  0
CIRCLE
  8
0
  6
CONTINUOUS
 62
     1
 10
1121.955551506
 20
1740.97223084
 40
3.1
  0
CIRCLE
  8
0
  6
CONTINUOUS
 62
     1
 10
1121.955551506
 20
1756.87223084
 40
3.1
  0
CIRCLE
  8
0
  6
CONTINUOUS
 62
     1
 10
1121.955551506
 20
1725.07223084
 40
3.1
  0
CIRCLE
  8
0
  6
CONTINUOUS
 62
     1
 10
1121.955551506
 20
1696.52223084
 40
3.1
  0
CIRCLE
  8
0
  6
CONTINUOUS
 62
     1
 10
1121.955551506
 20
1712.42223084
 40
3.1
  0
CIRCLE
  8
0
  6
CONTINUOUS
 62
     1
 10
1121.955551506
 20
1680.62223084
 40
3.1
  0
CIRCLE
  8
0
  6
CONTINUOUS
 62
     1
 10
1121.955551506
 20
1667.97223084
 40
3.1
  0
LINE
  8
0
  6
CONTINUOUS
 62
     1
 10
3003.783359334
 20
884.821501093
 11
976.455551506
 21
884.821501093
  0
LINE
  8
1
  6
CONTINUOUS
 62
     1
 10
3480.0
 20
150.0
 11
3480.0
 21
420.0
  0
TEXT
  8
1
  6
CONTINUOUS
 62
     1
 10
3506.25
 20
412.5
 30
0.0
 40
37.5
  1
図名
 50
0.0
 41
1.0
 51
0.0
  7
KANJI0
  0
LINE
  8
1
  6
CONTINUOUS
 62
     1
 10
4305.0
 20
240.0
 11
3150.0
 21
240.0
  0
TEXT
  8
1
  6
CONTINUOUS
 62
     1
 10
3270.0
 20
348.0
 30
4.5
 40
45.0
  1
Ａ４
 50
0.0
 41
0.9
 51
0.0
  7
KANJI1
  0
TEXT
  8
1
  6
CONTINUOUS
 62
     1
 10
3270.0
 20
258.0
 30
4.5
 40
45.0
  1
１／１５
 50
0.0
 41
0.45
 51
0.0
  7
KANJI3
  0
TEXT
  8
1
  6
CONTINUOUS
 62
     1
 10
3210.0
 20
168.0
 30
4.5
 40
45.0
  1
００／０８／１６
 50
0.0
 41
0.45
 51
0.0
  7
KANJI3
  0
TEXT
  8
1
  6
CONTINUOUS
 62
     1
 10
3495.0
 20
172.5
 30
16.666666667
 40
45.0
  1
オオハシ産業株式会社
 50
0.0
 41
1.0
 51
0.0
  7
KANJI4
  0
TEXT
  8
1
  6
CONTINUOUS
 62
     1
 10
3570.0
 20
348.0
 30
4.5
 40
45.0
  1
ＡＬＢ－６１２
 50
0.0
 41
0.9
 51
0.0
  7
KANJI1
  0
ENDSEC
  0
EOF
