  0
SECTION
  2
HEADER
  9
$EXTMIN
 10
0.0
 20
0.0
 30
0.0
  9
$EXTMAX
 10
3564.0
 20
2520.0
 30
0.0
  9
$LIMMIN
 10
0.0
 20
0.0
  9
$LIMMAX
 10
3564.0
 20
2520.0
  9
$LTSCALE
 40
1.0
  9
$PDMODE
 70
     0
  0
ENDSEC
  0
SECTION
  2
TABLES
  0
TABLE
  2
LTYPE
 70
     1
  0
LTYPE
  2
CONTINUOUS
 70
    64
  3
Solid line
 72
    65
 73
     0
 40
0.0
  0
ENDTAB
  0
TABLE
  2
LAYER
 70
   128
  0
LAYER
  2
0
 70
     0
 62
     7
  6
CONTINUOUS
  0
LAYER
  2
1
 70
     0
 62
     7
  6
CONTINUOUS
  0
LAYER
  2
2
 70
     0
 62
     7
  6
CONTINUOUS
  0
LAYER
  2
3
 70
     0
 62
     7
  6
CONTINUOUS
  0
LAYER
  2
4
 70
     0
 62
     7
  6
CONTINUOUS
  0
LAYER
  2
5
 70
     0
 62
     7
  6
CONTINUOUS
  0
LAYER
  2
6
 70
     0
 62
     7
  6
CONTINUOUS
  0
LAYER
  2
7
 70
     0
 62
     7
  6
CONTINUOUS
  0
LAYER
  2
8
 70
     0
 62
     7
  6
CONTINUOUS
  0
LAYER
  2
9
 70
     0
 62
     7
  6
CONTINUOUS
  0
LAYER
  2
10
 70
     0
 62
     7
  6
CONTINUOUS
  0
LAYER
  2
11
 70
     0
 62
     7
  6
CONTINUOUS
  0
LAYER
  2
12
 70
     0
 62
     7
  6
CONTINUOUS
  0
LAYER
  2
13
 70
     0
 62
     7
  6
CONTINUOUS
  0
LAYER
  2
14
 70
     0
 62
     7
  6
CONTINUOUS
  0
LAYER
  2
15
 70
     0
 62
     7
  6
CONTINUOUS
  0
LAYER
  2
16
 70
     0
 62
     7
  6
CONTINUOUS
  0
LAYER
  2
17
 70
     0
 62
     7
  6
CONTINUOUS
  0
LAYER
  2
18
 70
     0
 62
     7
  6
CONTINUOUS
  0
LAYER
  2
19
 70
     0
 62
     7
  6
CONTINUOUS
  0
LAYER
  2
20
 70
     0
 62
     7
  6
CONTINUOUS
  0
LAYER
  2
21
 70
     0
 62
     7
  6
CONTINUOUS
  0
LAYER
  2
22
 70
     0
 62
     7
  6
CONTINUOUS
  0
LAYER
  2
23
 70
     0
 62
     7
  6
CONTINUOUS
  0
LAYER
  2
24
 70
     0
 62
     7
  6
CONTINUOUS
  0
LAYER
  2
25
 70
     0
 62
     7
  6
CONTINUOUS
  0
LAYER
  2
26
 70
     0
 62
     7
  6
CONTINUOUS
  0
LAYER
  2
27
 70
     0
 62
     7
  6
CONTINUOUS
  0
LAYER
  2
28
 70
     0
 62
     7
  6
CONTINUOUS
  0
LAYER
  2
29
 70
     0
 62
     7
  6
CONTINUOUS
  0
LAYER
  2
30
 70
     0
 62
     7
  6
CONTINUOUS
  0
LAYER
  2
31
 70
     0
 62
     7
  6
CONTINUOUS
  0
LAYER
  2
32
 70
     0
 62
     7
  6
CONTINUOUS
  0
LAYER
  2
33
 70
     0
 62
     7
  6
CONTINUOUS
  0
LAYER
  2
34
 70
     0
 62
     7
  6
CONTINUOUS
  0
LAYER
  2
35
 70
     0
 62
     7
  6
CONTINUOUS
  0
LAYER
  2
36
 70
     0
 62
     7
  6
CONTINUOUS
  0
LAYER
  2
37
 70
     0
 62
     7
  6
CONTINUOUS
  0
LAYER
  2
38
 70
     0
 62
     7
  6
CONTINUOUS
  0
LAYER
  2
39
 70
     0
 62
     7
  6
CONTINUOUS
  0
LAYER
  2
40
 70
     0
 62
     7
  6
CONTINUOUS
  0
LAYER
  2
41
 70
     0
 62
     7
  6
CONTINUOUS
  0
LAYER
  2
42
 70
     0
 62
     7
  6
CONTINUOUS
  0
LAYER
  2
43
 70
     0
 62
     7
  6
CONTINUOUS
  0
LAYER
  2
44
 70
     0
 62
     7
  6
CONTINUOUS
  0
LAYER
  2
45
 70
     0
 62
     7
  6
CONTINUOUS
  0
LAYER
  2
46
 70
     0
 62
     7
  6
CONTINUOUS
  0
LAYER
  2
47
 70
     0
 62
     7
  6
CONTINUOUS
  0
LAYER
  2
48
 70
     0
 62
     7
  6
CONTINUOUS
  0
LAYER
  2
49
 70
     0
 62
     7
  6
CONTINUOUS
  0
LAYER
  2
50
 70
     0
 62
     7
  6
CONTINUOUS
  0
LAYER
  2
51
 70
     0
 62
     7
  6
CONTINUOUS
  0
LAYER
  2
52
 70
     0
 62
     7
  6
CONTINUOUS
  0
LAYER
  2
53
 70
     0
 62
     7
  6
CONTINUOUS
  0
LAYER
  2
54
 70
     0
 62
     7
  6
CONTINUOUS
  0
LAYER
  2
55
 70
     0
 62
     7
  6
CONTINUOUS
  0
LAYER
  2
56
 70
     0
 62
     7
  6
CONTINUOUS
  0
LAYER
  2
57
 70
     0
 62
     7
  6
CONTINUOUS
  0
LAYER
  2
58
 70
     0
 62
     7
  6
CONTINUOUS
  0
LAYER
  2
59
 70
     0
 62
     7
  6
CONTINUOUS
  0
LAYER
  2
60
 70
     0
 62
     7
  6
CONTINUOUS
  0
LAYER
  2
61
 70
     0
 62
     7
  6
CONTINUOUS
  0
LAYER
  2
62
 70
     0
 62
     7
  6
CONTINUOUS
  0
LAYER
  2
63
 70
     0
 62
     7
  6
CONTINUOUS
  0
LAYER
  2
64
 70
     0
 62
     7
  6
CONTINUOUS
  0
LAYER
  2
65
 70
     0
 62
     7
  6
CONTINUOUS
  0
LAYER
  2
66
 70
     0
 62
     7
  6
CONTINUOUS
  0
LAYER
  2
67
 70
     0
 62
     7
  6
CONTINUOUS
  0
LAYER
  2
68
 70
     0
 62
     7
  6
CONTINUOUS
  0
LAYER
  2
69
 70
     0
 62
     7
  6
CONTINUOUS
  0
LAYER
  2
70
 70
     0
 62
     7
  6
CONTINUOUS
  0
LAYER
  2
71
 70
     0
 62
     7
  6
CONTINUOUS
  0
LAYER
  2
72
 70
     0
 62
     7
  6
CONTINUOUS
  0
LAYER
  2
73
 70
     0
 62
     7
  6
CONTINUOUS
  0
LAYER
  2
74
 70
     0
 62
     7
  6
CONTINUOUS
  0
LAYER
  2
75
 70
     0
 62
     7
  6
CONTINUOUS
  0
LAYER
  2
76
 70
     0
 62
     7
  6
CONTINUOUS
  0
LAYER
  2
77
 70
     0
 62
     7
  6
CONTINUOUS
  0
LAYER
  2
78
 70
     0
 62
     7
  6
CONTINUOUS
  0
LAYER
  2
79
 70
     0
 62
     7
  6
CONTINUOUS
  0
LAYER
  2
80
 70
     0
 62
     7
  6
CONTINUOUS
  0
LAYER
  2
81
 70
     0
 62
     7
  6
CONTINUOUS
  0
LAYER
  2
82
 70
     0
 62
     7
  6
CONTINUOUS
  0
LAYER
  2
83
 70
     0
 62
     7
  6
CONTINUOUS
  0
LAYER
  2
84
 70
     0
 62
     7
  6
CONTINUOUS
  0
LAYER
  2
85
 70
     0
 62
     7
  6
CONTINUOUS
  0
LAYER
  2
86
 70
     0
 62
     7
  6
CONTINUOUS
  0
LAYER
  2
87
 70
     0
 62
     7
  6
CONTINUOUS
  0
LAYER
  2
88
 70
     0
 62
     7
  6
CONTINUOUS
  0
LAYER
  2
89
 70
     0
 62
     7
  6
CONTINUOUS
  0
LAYER
  2
90
 70
     0
 62
     7
  6
CONTINUOUS
  0
LAYER
  2
91
 70
     0
 62
     7
  6
CONTINUOUS
  0
LAYER
  2
92
 70
     0
 62
     7
  6
CONTINUOUS
  0
LAYER
  2
93
 70
     0
 62
     7
  6
CONTINUOUS
  0
LAYER
  2
94
 70
     0
 62
     7
  6
CONTINUOUS
  0
LAYER
  2
95
 70
     0
 62
     7
  6
CONTINUOUS
  0
LAYER
  2
96
 70
     0
 62
     7
  6
CONTINUOUS
  0
LAYER
  2
97
 70
     0
 62
     7
  6
CONTINUOUS
  0
LAYER
  2
98
 70
     0
 62
     7
  6
CONTINUOUS
  0
LAYER
  2
99
 70
     0
 62
     7
  6
CONTINUOUS
  0
LAYER
  2
100
 70
     0
 62
     7
  6
CONTINUOUS
  0
LAYER
  2
101
 70
     0
 62
     7
  6
CONTINUOUS
  0
LAYER
  2
102
 70
     0
 62
     7
  6
CONTINUOUS
  0
LAYER
  2
103
 70
     0
 62
     7
  6
CONTINUOUS
  0
LAYER
  2
104
 70
     0
 62
     7
  6
CONTINUOUS
  0
LAYER
  2
105
 70
     0
 62
     7
  6
CONTINUOUS
  0
LAYER
  2
106
 70
     0
 62
     7
  6
CONTINUOUS
  0
LAYER
  2
107
 70
     0
 62
     7
  6
CONTINUOUS
  0
LAYER
  2
108
 70
     0
 62
     7
  6
CONTINUOUS
  0
LAYER
  2
109
 70
     0
 62
     7
  6
CONTINUOUS
  0
LAYER
  2
110
 70
     0
 62
     7
  6
CONTINUOUS
  0
LAYER
  2
111
 70
     0
 62
     7
  6
CONTINUOUS
  0
LAYER
  2
112
 70
     0
 62
     7
  6
CONTINUOUS
  0
LAYER
  2
113
 70
     0
 62
     7
  6
CONTINUOUS
  0
LAYER
  2
114
 70
     0
 62
     7
  6
CONTINUOUS
  0
LAYER
  2
115
 70
     0
 62
     7
  6
CONTINUOUS
  0
LAYER
  2
116
 70
     0
 62
     7
  6
CONTINUOUS
  0
LAYER
  2
117
 70
     0
 62
     7
  6
CONTINUOUS
  0
LAYER
  2
118
 70
     0
 62
     7
  6
CONTINUOUS
  0
LAYER
  2
119
 70
     0
 62
     7
  6
CONTINUOUS
  0
LAYER
  2
120
 70
     0
 62
     7
  6
CONTINUOUS
  0
LAYER
  2
121
 70
     0
 62
     7
  6
CONTINUOUS
  0
LAYER
  2
122
 70
     0
 62
     7
  6
CONTINUOUS
  0
LAYER
  2
123
 70
     0
 62
     7
  6
CONTINUOUS
  0
LAYER
  2
124
 70
     0
 62
     7
  6
CONTINUOUS
  0
LAYER
  2
125
 70
     0
 62
     7
  6
CONTINUOUS
  0
LAYER
  2
126
 70
     0
 62
     7
  6
CONTINUOUS
  0
LAYER
  2
127
 70
     0
 62
     7
  6
CONTINUOUS
  0
ENDTAB
  0
TABLE
  2
STYLE
 70
     6
  0
STYLE
  2
STANDARD
 70
     0
 40
0.0
 41
1.0
 50
0.0
 71
     0
 42
0.2
  3
txt
  4

  0
STYLE
  2
KANJI0
 70
     4
 40
30.0
 41
1.0
 50
0.0
 71
     0
 42
30.0
  3

  4
bigfont
  0
STYLE
  2
KANJI1
 70
     0
 40
36.0
 41
0.9
 50
0.0
 71
     0
 42
36.0
  3

  4
bigfont
  0
STYLE
  2
KANJI2
 70
     0
 40
36.0
 41
1.0
 50
0.0
 71
     0
 42
36.0
  3

  4
bigfont
  0
STYLE
  2
KANJI3
 70
     0
 40
36.0
 41
0.45
 50
0.0
 71
     0
 42
36.0
  3

  4
bigfont
  0
STYLE
  2
KANJI4
 70
     0
 40
36.0
 41
0.6
 50
0.0
 71
     0
 42
36.0
  3

  4
bigfont
  0
ENDTAB
  0
TABLE
  2
VIEW
 70
     0
  0
ENDTAB
  0
ENDSEC
  0
SECTION
  2
BLOCKS
  0
ENDSEC
  0
SECTION
  2
ENTITIES
  0
LINE
  8
1
  6
CONTINUOUS
 62
     1
 10
2784.0
 20
336.0
 11
3444.0
 21
336.0
  0
LINE
  8
1
  6
CONTINUOUS
 62
     1
 10
2520.0
 20
192.0
 11
2520.0
 21
120.0
  0
TEXT
  8
1
  6
CONTINUOUS
 62
     1
 10
2541.0
 20
186.0
 30
0.0
 40
30.0
  1
日付
 50
0.0
 41
1.0
 51
0.0
  7
KANJI0
  0
TEXT
  8
1
  6
CONTINUOUS
 62
     1
 10
2541.0
 20
258.0
 30
0.0
 40
30.0
  1
尺度
 50
0.0
 41
1.0
 51
0.0
  7
KANJI0
  0
LINE
  8
1
  6
CONTINUOUS
 62
     1
 10
2520.0
 20
264.0
 11
3444.0
 21
264.0
  0
TEXT
  8
1
  6
CONTINUOUS
 62
     1
 10
2856.0
 20
206.4
 30
3.6
 40
36.0
  1
－－－
 50
0.0
 41
0.9
 51
0.0
  7
KANJI1
  0
POINT
  8
1
  6
CONTINUOUS
 62
     1
 10
3444.0
 20
624.0
  0
LINE
  8
1
  6
CONTINUOUS
 62
     1
 10
120.0
 20
120.0
 11
3444.0
 21
120.0
  0
LINE
  8
1
  6
CONTINUOUS
 62
     1
 10
120.0
 20
120.0
 11
120.0
 21
2400.0
  0
LINE
  8
1
  6
CONTINUOUS
 62
     1
 10
120.0
 20
2400.0
 11
3444.0
 21
2400.0
  0
LINE
  8
1
  6
CONTINUOUS
 62
     1
 10
3444.0
 20
120.0
 11
3444.0
 21
2400.0
  0
LINE
  8
1
  6
CONTINUOUS
 62
     1
 10
2520.0
 20
336.0
 11
2784.0
 21
336.0
  0
LINE
  8
1
  6
CONTINUOUS
 62
     1
 10
2520.0
 20
336.0
 11
2520.0
 21
192.0
  0
TEXT
  8
1
  6
CONTINUOUS
 62
     1
 10
2541.0
 20
330.0
 30
0.0
 40
30.0
  1
用紙
 50
0.0
 41
1.0
 51
0.0
  7
KANJI0
  0
LINE
  8
1
  6
CONTINUOUS
 62
     1
 10
2784.0
 20
120.0
 11
2784.0
 21
336.0
  0
TEXT
  8
1
  6
CONTINUOUS
 62
     1
 10
2805.0
 20
330.0
 30
0.0
 40
30.0
  1
図名
 50
0.0
 41
1.0
 51
0.0
  7
KANJI0
  0
LINE
  8
1
  6
CONTINUOUS
 62
     1
 10
3444.0
 20
192.0
 11
2520.0
 21
192.0
  0
TEXT
  8
1
  6
CONTINUOUS
 62
     1
 10
2616.0
 20
278.4
 30
3.6
 40
36.0
  1
Ａ４
 50
0.0
 41
0.9
 51
0.0
  7
KANJI1
  0
TEXT
  8
1
  6
CONTINUOUS
 62
     1
 10
2796.0
 20
138.0
 30
13.333333333
 40
36.0
  1
オオハシ産業株式会社
 50
0.0
 41
1.0
 51
0.0
  7
KANJI2
  0
TEXT
  8
1
  6
CONTINUOUS
 62
     1
 10
2856.0
 20
278.4
 30
3.6
 40
36.0
  1
ＡＬＢ－１１８
 50
0.0
 41
0.9
 51
0.0
  7
KANJI1
  0
TEXT
  8
1
  6
CONTINUOUS
 62
     1
 10
2616.0
 20
206.4
 30
3.6
 40
36.0
  1
１／１２
 50
0.0
 41
0.45
 51
0.0
  7
KANJI3
  0
TEXT
  8
1
  6
CONTINUOUS
 62
     1
 10
2568.0
 20
134.4
 30
3.6
 40
36.0
  1
００／０９／０６
 50
0.0
 41
0.45
 51
0.0
  7
KANJI3
  0
LINE
  8
0
  6
CONTINUOUS
 62
     1
 10
1500.1875
 20
710.25
 11
1469.1875
 21
710.25
  0
LINE
  8
0
  6
CONTINUOUS
 62
     1
 10
1500.1875
 20
1310.25
 11
1469.1875
 21
1310.25
  0
CIRCLE
  8
0
  6
CONTINUOUS
 62
     1
 10
1452.75
 20
836.375
 40
3.1
  0
CIRCLE
  8
0
  6
CONTINUOUS
 62
     1
 10
1452.75
 20
852.275
 40
3.1
  0
CIRCLE
  8
0
  6
CONTINUOUS
 62
     1
 10
1452.75
 20
820.475
 40
3.1
  0
CIRCLE
  8
0
  6
CONTINUOUS
 62
     1
 10
1452.75
 20
880.825
 40
3.1
  0
CIRCLE
  8
0
  6
CONTINUOUS
 62
     1
 10
1452.75
 20
896.725
 40
3.1
  0
CIRCLE
  8
0
  6
CONTINUOUS
 62
     1
 10
1452.75
 20
864.925
 40
3.1
  0
CIRCLE
  8
0
  6
CONTINUOUS
 62
     1
 10
1452.75
 20
925.275
 40
3.1
  0
CIRCLE
  8
0
  6
CONTINUOUS
 62
     1
 10
1452.75
 20
941.175
 40
3.1
  0
CIRCLE
  8
0
  6
CONTINUOUS
 62
     1
 10
1452.75
 20
909.375
 40
3.1
  0
CIRCLE
  8
0
  6
CONTINUOUS
 62
     1
 10
1452.75
 20
969.725
 40
3.1
  0
CIRCLE
  8
0
  6
CONTINUOUS
 62
     1
 10
1452.75
 20
985.625
 40
3.1
  0
CIRCLE
  8
0
  6
CONTINUOUS
 62
     1
 10
1452.75
 20
953.825
 40
3.1
  0
CIRCLE
  8
0
  6
CONTINUOUS
 62
     1
 10
1452.75
 20
1014.175
 40
3.1
  0
CIRCLE
  8
0
  6
CONTINUOUS
 62
     1
 10
1452.75
 20
1030.075
 40
3.1
  0
CIRCLE
  8
0
  6
CONTINUOUS
 62
     1
 10
1452.75
 20
998.275
 40
3.1
  0
CIRCLE
  8
0
  6
CONTINUOUS
 62
     1
 10
1452.75
 20
1058.625
 40
3.1
  0
CIRCLE
  8
0
  6
CONTINUOUS
 62
     1
 10
1452.75
 20
1074.525
 40
3.1
  0
CIRCLE
  8
0
  6
CONTINUOUS
 62
     1
 10
1452.75
 20
1042.725
 40
3.1
  0
CIRCLE
  8
0
  6
CONTINUOUS
 62
     1
 10
1452.75
 20
1103.075
 40
3.1
  0
CIRCLE
  8
0
  6
CONTINUOUS
 62
     1
 10
1452.75
 20
1118.975
 40
3.1
  0
CIRCLE
  8
0
  6
CONTINUOUS
 62
     1
 10
1452.75
 20
1087.175
 40
3.1
  0
CIRCLE
  8
0
  6
CONTINUOUS
 62
     1
 10
1452.75
 20
1147.525
 40
3.1
  0
CIRCLE
  8
0
  6
CONTINUOUS
 62
     1
 10
1452.75
 20
1163.425
 40
3.1
  0
CIRCLE
  8
0
  6
CONTINUOUS
 62
     1
 10
1452.75
 20
1131.625
 40
3.1
  0
CIRCLE
  8
0
  6
CONTINUOUS
 62
     1
 10
1452.75
 20
1191.975
 40
3.1
  0
CIRCLE
  8
0
  6
CONTINUOUS
 62
     1
 10
1452.75
 20
1207.875
 40
3.1
  0
CIRCLE
  8
0
  6
CONTINUOUS
 62
     1
 10
1452.75
 20
1176.075
 40
3.1
  0
CIRCLE
  8
0
  6
CONTINUOUS
 62
     1
 10
1452.75
 20
1236.425
 40
3.1
  0
CIRCLE
  8
0
  6
CONTINUOUS
 62
     1
 10
1452.75
 20
1252.325
 40
3.1
  0
CIRCLE
  8
0
  6
CONTINUOUS
 62
     1
 10
1452.75
 20
1220.525
 40
3.1
  0
CIRCLE
  8
0
  6
CONTINUOUS
 62
     1
 10
1452.75
 20
791.925
 40
3.1
  0
CIRCLE
  8
0
  6
CONTINUOUS
 62
     1
 10
1452.75
 20
807.825
 40
3.1
  0
CIRCLE
  8
0
  6
CONTINUOUS
 62
     1
 10
1452.75
 20
776.025
 40
3.1
  0
LINE
  8
0
  6
CONTINUOUS
 62
     1
 10
1732.122192172
 20
582.65
 11
2487.722192172
 21
582.65
  0
CIRCLE
  8
0
  6
CONTINUOUS
 62
     1
 10
1814.95
 20
632.65
 40
50.0
  0
LINE
  8
0
  6
CONTINUOUS
 62
     1
 10
1831.45
 20
710.25
 11
1862.45
 21
710.25
  0
LINE
  8
0
  6
CONTINUOUS
 62
     1
 10
2300.45
 20
710.25
 11
2331.45
 21
710.25
  0
CIRCLE
  8
0
  6
CONTINUOUS
 62
     1
 10
2347.95
 20
632.65
 40
50.0
  0
LINE
  8
0
  6
CONTINUOUS
 62
     1
 10
1862.45
 20
762.25
 11
2300.45
 21
762.25
  0
LINE
  8
0
  6
CONTINUOUS
 62
     1
 10
1862.45
 20
730.25
 11
2300.45
 21
730.25
  0
ARC
  8
0
  6
CONTINUOUS
 62
     1
 10
2195.95
 20
853.094179642
 40
135.5
 50
0.0
 51
44.999997585
  0
ARC
  8
0
  6
CONTINUOUS
 62
     1
 10
2195.95
 20
853.094179642
 40
104.5
 50
0.0
 51
45.000002958
  0
ARC
  8
0
  6
CONTINUOUS
 62
     1
 10
1966.95
 20
1421.505434611
 40
104.5
 50
135.0
 51
225.000011832
  0
LINE
  8
0
  6
CONTINUOUS
 62
     1
 10
1893.057356625
 20
1347.612760719
 11
2291.762968851
 21
948.907148493
  0
LINE
  8
0
  6
CONTINUOUS
 62
     1
 10
1871.137046408
 20
1517.318418721
 11
2161.050826694
 21
1807.232199007
  0
LINE
  8
0
  6
CONTINUOUS
 62
     1
 10
2182.971136911
 20
1785.311888791
 11
2161.050826694
 21
1807.232199007
  0
LINE
  8
0
  6
CONTINUOUS
 62
     1
 10
1893.057341366
 20
1495.398093245
 11
2182.971136911
 21
1785.311888791
  0
ARC
  8
0
  6
CONTINUOUS
 62
     1
 10
1966.95
 20
1421.505434611
 40
135.5
 50
134.999990875
 51
225.0
  0
LINE
  8
0
  6
CONTINUOUS
 62
     1
 10
1871.137031149
 20
1325.692465761
 11
2269.842651005
 21
926.986845905
  0
LINE
  8
0
  6
CONTINUOUS
 62
     1
 10
1970.528822097
 20
1222.623719551
 11
1972.367299728
 21
1224.462197182
  0
LINE
  8
0
  6
CONTINUOUS
 62
     1
 10
1865.05
 20
1178.932960895
 11
1862.45
 21
1178.932960895
  0
LINE
  8
0
  6
CONTINUOUS
 62
     1
 10
1865.05
 20
1287.172180925
 11
1862.45
 21
1287.172180925
  0
LINE
  8
0
  6
CONTINUOUS
 62
     1
 10
1865.05
 20
1287.172180925
 11
1893.992135624
 21
1299.160406024
  0
LINE
  8
0
  6
CONTINUOUS
 62
     1
 10
1893.992135624
 20
1299.160406024
 11
1895.830613255
 21
1300.998883655
  0
LINE
  8
0
  6
CONTINUOUS
 62
     1
 10
1865.05
 20
1178.932960895
 11
1970.528822097
 21
1222.623719551
  0
LINE
  8
0
  6
CONTINUOUS
 62
     1
 10
1862.45
 20
1310.25
 11
1831.45
 21
1310.25
  0
LINE
  8
0
  6
CONTINUOUS
 62
     1
 10
1831.45
 20
710.25
 11
1831.45
 21
1310.25
  0
LINE
  8
0
  6
CONTINUOUS
 62
     1
 10
1862.45
 20
710.25
 11
1862.45
 21
1310.25
  0
LINE
  8
0
  6
CONTINUOUS
 62
     1
 10
2300.45
 20
710.25
 11
2300.45
 21
853.094185037
  0
LINE
  8
0
  6
CONTINUOUS
 62
     1
 10
2331.45
 20
710.25
 11
2331.45
 21
853.094185037
  0
CIRCLE
  8
0
  6
CONTINUOUS
 62
     1
 10
2250.45
 20
746.25
 40
11.25
  0
LINE
  8
0
  6
CONTINUOUS
 62
     1
 10
1445.75
 20
769.325
 11
1469.1875
 21
769.325
  0
LINE
  8
0
  6
CONTINUOUS
 62
     1
 10
940.1875
 20
710.25
 11
971.1875
 21
710.25
  0
LINE
  8
0
  6
CONTINUOUS
 62
     1
 10
940.1875
 20
1310.25
 11
971.1875
 21
1310.25
  0
CIRCLE
  8
0
  6
CONTINUOUS
 62
     1
 10
987.625
 20
836.375
 40
3.1
  0
CIRCLE
  8
0
  6
CONTINUOUS
 62
     1
 10
987.625
 20
852.275
 40
3.1
  0
CIRCLE
  8
0
  6
CONTINUOUS
 62
     1
 10
987.625
 20
820.475
 40
3.1
  0
CIRCLE
  8
0
  6
CONTINUOUS
 62
     1
 10
987.625
 20
880.825
 40
3.1
  0
CIRCLE
  8
0
  6
CONTINUOUS
 62
     1
 10
987.625
 20
896.725
 40
3.1
  0
CIRCLE
  8
0
  6
CONTINUOUS
 62
     1
 10
987.625
 20
864.925
 40
3.1
  0
CIRCLE
  8
0
  6
CONTINUOUS
 62
     1
 10
987.625
 20
925.275
 40
3.1
  0
CIRCLE
  8
0
  6
CONTINUOUS
 62
     1
 10
987.625
 20
941.175
 40
3.1
  0
CIRCLE
  8
0
  6
CONTINUOUS
 62
     1
 10
987.625
 20
909.375
 40
3.1
  0
CIRCLE
  8
0
  6
CONTINUOUS
 62
     1
 10
987.625
 20
969.725
 40
3.1
  0
CIRCLE
  8
0
  6
CONTINUOUS
 62
     1
 10
987.625
 20
985.625
 40
3.1
  0
CIRCLE
  8
0
  6
CONTINUOUS
 62
     1
 10
987.625
 20
953.825
 40
3.1
  0
CIRCLE
  8
0
  6
CONTINUOUS
 62
     1
 10
987.625
 20
1014.175
 40
3.1
  0
CIRCLE
  8
0
  6
CONTINUOUS
 62
     1
 10
987.625
 20
1030.075
 40
3.1
  0
CIRCLE
  8
0
  6
CONTINUOUS
 62
     1
 10
987.625
 20
998.275
 40
3.1
  0
CIRCLE
  8
0
  6
CONTINUOUS
 62
     1
 10
987.625
 20
1058.625
 40
3.1
  0
CIRCLE
  8
0
  6
CONTINUOUS
 62
     1
 10
987.625
 20
1074.525
 40
3.1
  0
CIRCLE
  8
0
  6
CONTINUOUS
 62
     1
 10
987.625
 20
1042.725
 40
3.1
  0
CIRCLE
  8
0
  6
CONTINUOUS
 62
     1
 10
987.625
 20
1103.075
 40
3.1
  0
CIRCLE
  8
0
  6
CONTINUOUS
 62
     1
 10
987.625
 20
1118.975
 40
3.1
  0
CIRCLE
  8
0
  6
CONTINUOUS
 62
     1
 10
987.625
 20
1087.175
 40
3.1
  0
CIRCLE
  8
0
  6
CONTINUOUS
 62
     1
 10
987.625
 20
1147.525
 40
3.1
  0
CIRCLE
  8
0
  6
CONTINUOUS
 62
     1
 10
987.625
 20
1163.425
 40
3.1
  0
CIRCLE
  8
0
  6
CONTINUOUS
 62
     1
 10
987.625
 20
1131.625
 40
3.1
  0
CIRCLE
  8
0
  6
CONTINUOUS
 62
     1
 10
987.625
 20
1191.975
 40
3.1
  0
CIRCLE
  8
0
  6
CONTINUOUS
 62
     1
 10
987.625
 20
1207.875
 40
3.1
  0
CIRCLE
  8
0
  6
CONTINUOUS
 62
     1
 10
987.625
 20
1176.075
 40
3.1
  0
CIRCLE
  8
0
  6
CONTINUOUS
 62
     1
 10
987.625
 20
1236.425
 40
3.1
  0
CIRCLE
  8
0
  6
CONTINUOUS
 62
     1
 10
987.625
 20
1252.325
 40
3.1
  0
CIRCLE
  8
0
  6
CONTINUOUS
 62
     1
 10
987.625
 20
1220.525
 40
3.1
  0
CIRCLE
  8
0
  6
CONTINUOUS
 62
     1
 10
987.625
 20
791.925
 40
3.1
  0
CIRCLE
  8
0
  6
CONTINUOUS
 62
     1
 10
987.625
 20
807.825
 40
3.1
  0
CIRCLE
  8
0
  6
CONTINUOUS
 62
     1
 10
987.625
 20
776.025
 40
3.1
  0
LINE
  8
0
  6
CONTINUOUS
 62
     1
 10
994.625
 20
769.325
 11
971.1875
 21
769.325
  0
LINE
  8
0
  6
CONTINUOUS
 62
     1
 10
972.1875
 20
769.325
 11
1469.1875
 21
769.325
  0
LINE
  8
0
  6
CONTINUOUS
 62
     1
 10
971.1875
 20
1310.025
 11
1469.1875
 21
1310.025
  0
LINE
  8
0
  6
CONTINUOUS
 62
     1
 10
971.1875
 20
1259.025
 11
1469.1875
 21
1259.025
  0
LINE
  8
0
  6
CONTINUOUS
 62
     1
 10
1445.75
 20
1259.025
 11
1445.75
 21
769.325
  0
LINE
  8
0
  6
CONTINUOUS
 62
     1
 10
994.625
 20
1259.025
 11
994.625
 21
769.325
  0
LINE
  8
0
  6
CONTINUOUS
 62
     1
 10
971.1875
 20
718.325
 11
1469.1875
 21
718.325
  0
LINE
  8
0
  6
CONTINUOUS
 62
     1
 10
1500.1875
 20
1807.232199007
 11
1469.1875
 21
1807.232199007
  0
LINE
  8
0
  6
CONTINUOUS
 62
     1
 10
940.1875
 20
1807.232199007
 11
971.1875
 21
1807.232199007
  0
LINE
  8
0
  6
CONTINUOUS
 62
     1
 10
971.1875
 20
1807.007199007
 11
1469.1875
 21
1807.007199007
  0
LINE
  8
0
  6
CONTINUOUS
 62
     1
 10
1500.1875
 20
1807.232199007
 11
1500.1875
 21
710.25
  0
LINE
  8
0
  6
CONTINUOUS
 62
     1
 10
1469.1875
 20
1807.232199007
 11
1469.1875
 21
710.25
  0
LINE
  8
0
  6
CONTINUOUS
 62
     1
 10
971.1875
 20
1807.232199007
 11
971.1875
 21
710.25
  0
LINE
  8
0
  6
CONTINUOUS
 62
     1
 10
940.1875
 20
1807.232199007
 11
940.1875
 21
710.25
  0
CIRCLE
  8
0
  6
CONTINUOUS
 62
     1
 10
1452.75
 20
1549.282199007
 40
3.1
  0
CIRCLE
  8
0
  6
CONTINUOUS
 62
     1
 10
1452.75
 20
1577.832199007
 40
3.1
  0
CIRCLE
  8
0
  6
CONTINUOUS
 62
     1
 10
1452.75
 20
1593.732199007
 40
3.1
  0
CIRCLE
  8
0
  6
CONTINUOUS
 62
     1
 10
1452.75
 20
1561.932199007
 40
3.1
  0
CIRCLE
  8
0
  6
CONTINUOUS
 62
     1
 10
1452.75
 20
1622.282199007
 40
3.1
  0
CIRCLE
  8
0
  6
CONTINUOUS
 62
     1
 10
1452.75
 20
1638.182199007
 40
3.1
  0
CIRCLE
  8
0
  6
CONTINUOUS
 62
     1
 10
1452.75
 20
1606.382199007
 40
3.1
  0
CIRCLE
  8
0
  6
CONTINUOUS
 62
     1
 10
1452.75
 20
1666.732199007
 40
3.1
  0
CIRCLE
  8
0
  6
CONTINUOUS
 62
     1
 10
1452.75
 20
1682.632199007
 40
3.1
  0
CIRCLE
  8
0
  6
CONTINUOUS
 62
     1
 10
1452.75
 20
1650.832199007
 40
3.1
  0
CIRCLE
  8
0
  6
CONTINUOUS
 62
     1
 10
1452.75
 20
1711.182199007
 40
3.1
  0
CIRCLE
  8
0
  6
CONTINUOUS
 62
     1
 10
1452.75
 20
1727.082199007
 40
3.1
  0
CIRCLE
  8
0
  6
CONTINUOUS
 62
     1
 10
1452.75
 20
1695.282199007
 40
3.1
  0
CIRCLE
  8
0
  6
CONTINUOUS
 62
     1
 10
1452.75
 20
1755.632199007
 40
3.1
  0
CIRCLE
  8
0
  6
CONTINUOUS
 62
     1
 10
1452.75
 20
1771.532199007
 40
3.1
  0
CIRCLE
  8
0
  6
CONTINUOUS
 62
     1
 10
1452.75
 20
1739.732199007
 40
3.1
  0
CIRCLE
  8
0
  6
CONTINUOUS
 62
     1
 10
987.625
 20
1549.282199007
 40
3.1
  0
CIRCLE
  8
0
  6
CONTINUOUS
 62
     1
 10
987.625
 20
1577.832199007
 40
3.1
  0
CIRCLE
  8
0
  6
CONTINUOUS
 62
     1
 10
987.625
 20
1593.732199007
 40
3.1
  0
CIRCLE
  8
0
  6
CONTINUOUS
 62
     1
 10
987.625
 20
1561.932199007
 40
3.1
  0
CIRCLE
  8
0
  6
CONTINUOUS
 62
     1
 10
987.625
 20
1622.282199007
 40
3.1
  0
CIRCLE
  8
0
  6
CONTINUOUS
 62
     1
 10
987.625
 20
1638.182199007
 40
3.1
  0
CIRCLE
  8
0
  6
CONTINUOUS
 62
     1
 10
987.625
 20
1606.382199007
 40
3.1
  0
CIRCLE
  8
0
  6
CONTINUOUS
 62
     1
 10
987.625
 20
1666.732199007
 40
3.1
  0
CIRCLE
  8
0
  6
CONTINUOUS
 62
     1
 10
987.625
 20
1682.632199007
 40
3.1
  0
CIRCLE
  8
0
  6
CONTINUOUS
 62
     1
 10
987.625
 20
1650.832199007
 40
3.1
  0
CIRCLE
  8
0
  6
CONTINUOUS
 62
     1
 10
987.625
 20
1711.182199007
 40
3.1
  0
CIRCLE
  8
0
  6
CONTINUOUS
 62
     1
 10
987.625
 20
1727.082199007
 40
3.1
  0
CIRCLE
  8
0
  6
CONTINUOUS
 62
     1
 10
987.625
 20
1695.282199007
 40
3.1
  0
CIRCLE
  8
0
  6
CONTINUOUS
 62
     1
 10
987.625
 20
1755.632199007
 40
3.1
  0
CIRCLE
  8
0
  6
CONTINUOUS
 62
     1
 10
987.625
 20
1771.532199007
 40
3.1
  0
CIRCLE
  8
0
  6
CONTINUOUS
 62
     1
 10
987.625
 20
1739.732199007
 40
3.1
  0
LINE
  8
0
  6
CONTINUOUS
 62
     1
 10
971.1875
 20
1778.232199007
 11
1469.1875
 21
1778.232199007
  0
LINE
  8
0
  6
CONTINUOUS
 62
     1
 10
971.1875
 20
1546.318418721
 11
1469.1875
 21
1546.318418721
  0
LINE
  8
0
  6
CONTINUOUS
 62
     1
 10
971.1875
 20
1517.543418721
 11
1469.1875
 21
1517.543418721
  0
LINE
  8
0
  6
CONTINUOUS
 62
     1
 10
994.625
 20
1778.232199007
 11
994.625
 21
1546.318418721
  0
LINE
  8
0
  6
CONTINUOUS
 62
     1
 10
1445.75
 20
1778.232199007
 11
1445.75
 21
1546.318418721
  0
LINE
  8
0
  6
CONTINUOUS
 62
     1
 10
1498.1875
 20
682.65
 11
1471.1875
 21
682.65
  0
LINE
  8
0
  6
CONTINUOUS
 62
     1
 10
1498.1875
 20
682.65
 11
1498.1875
 21
582.65
  0
LINE
  8
0
  6
CONTINUOUS
 62
     1
 10
1498.1875
 20
582.65
 11
1471.1875
 21
582.65
  0
LINE
  8
0
  6
CONTINUOUS
 62
     1
 10
1471.1875
 20
682.65
 11
1471.1875
 21
582.65
  0
LINE
  8
0
  6
CONTINUOUS
 62
     1
 10
942.1875
 20
682.65
 11
969.1875
 21
682.65
  0
LINE
  8
0
  6
CONTINUOUS
 62
     1
 10
942.1875
 20
682.65
 11
942.1875
 21
582.65
  0
LINE
  8
0
  6
CONTINUOUS
 62
     1
 10
942.1875
 20
582.65
 11
969.1875
 21
582.65
  0
LINE
  8
0
  6
CONTINUOUS
 62
     1
 10
969.1875
 20
682.65
 11
969.1875
 21
582.65
  0
LINE
  8
6
  6
CONTINUOUS
 62
     1
 10
940.1875
 20
1819.232199007
 11
940.1875
 21
1981.007199007
  0
LINE
  8
6
  6
CONTINUOUS
 62
     1
 10
940.1875
 20
1957.007199007
 11
969.165274789
 21
1949.242627654
  0
LINE
  8
6
  6
CONTINUOUS
 62
     1
 10
940.1875
 20
1957.007199007
 11
969.165274789
 21
1964.771770361
  0
LINE
  8
6
  6
CONTINUOUS
 62
     1
 10
940.1875
 20
1957.007199007
 11
1500.1875
 21
1957.007199007
  0
LINE
  8
6
  6
CONTINUOUS
 62
     1
 10
1500.1875
 20
1957.007199007
 11
1471.209725211
 21
1964.771770361
  0
LINE
  8
6
  6
CONTINUOUS
 62
     1
 10
1500.1875
 20
1957.007199007
 11
1471.209725211
 21
1949.242627654
  0
LINE
  8
6
  6
CONTINUOUS
 62
     1
 10
1500.1875
 20
1819.232199007
 11
1500.1875
 21
1981.007199007
  0
TEXT
  8
6
  6
CONTINUOUS
 62
     1
 10
1184.1875
 20
1969.007199007
 30
3.6
 40
36.0
  1
５６０
 50
0.0
 41
0.6
 51
0.0
  7
KANJI4
  0
LINE
  8
6
  6
CONTINUOUS
 62
     1
 10
959.1875
 20
1778.232199007
 11
766.1875
 21
1778.232199007
  0
LINE
  8
6
  6
CONTINUOUS
 62
     1
 10
790.1875
 20
1778.232199007
 11
782.422928647
 21
1749.254424219
  0
LINE
  8
6
  6
CONTINUOUS
 62
     1
 10
790.1875
 20
1778.232199007
 11
797.952071353
 21
1749.254424219
  0
LINE
  8
6
  6
CONTINUOUS
 62
     1
 10
790.1875
 20
1778.232199007
 11
790.1875
 21
1546.318418721
  0
LINE
  8
6
  6
CONTINUOUS
 62
     1
 10
790.1875
 20
1546.318418721
 11
797.952071353
 21
1575.29619351
  0
LINE
  8
6
  6
CONTINUOUS
 62
     1
 10
790.1875
 20
1546.318418721
 11
782.422928647
 21
1575.29619351
  0
LINE
  8
6
  6
CONTINUOUS
 62
     1
 10
959.1875
 20
1546.318418721
 11
766.1875
 21
1546.318418721
  0
TEXT
  8
6
  6
CONTINUOUS
 62
     1
 10
778.1875
 20
1638.875308864
 30
3.6
 40
36.0
  1
８Ｕ
 50
90.0
 41
0.6
 51
0.0
  7
KANJI4
  0
LINE
  8
6
  6
CONTINUOUS
 62
     1
 10
959.1875
 20
1259.025
 11
766.1875
 21
1259.025
  0
LINE
  8
6
  6
CONTINUOUS
 62
     1
 10
790.1875
 20
1259.025
 11
782.422928647
 21
1230.047225211
  0
LINE
  8
6
  6
CONTINUOUS
 62
     1
 10
790.1875
 20
1259.025
 11
797.952071353
 21
1230.047225211
  0
LINE
  8
6
  6
CONTINUOUS
 62
     1
 10
790.1875
 20
1259.025
 11
790.1875
 21
769.325
  0
LINE
  8
6
  6
CONTINUOUS
 62
     1
 10
790.1875
 20
769.325
 11
797.952071353
 21
798.302774789
  0
LINE
  8
6
  6
CONTINUOUS
 62
     1
 10
790.1875
 20
769.325
 11
782.422928647
 21
798.302774789
  0
LINE
  8
6
  6
CONTINUOUS
 62
     1
 10
959.1875
 20
769.325
 11
766.1875
 21
769.325
  0
TEXT
  8
6
  6
CONTINUOUS
 62
     1
 10
778.1875
 20
978.175
 30
3.6
 40
36.0
  1
１１Ｕ
 50
90.0
 41
0.6
 51
0.0
  7
KANJI4
  0
LINE
  8
6
  6
CONTINUOUS
 62
     1
 10
2499.722192172
 20
582.65
 11
2661.722192172
 21
582.65
  0
LINE
  8
6
  6
CONTINUOUS
 62
     1
 10
2637.722192172
 20
582.65
 11
2645.486763525
 21
611.627774789
  0
LINE
  8
6
  6
CONTINUOUS
 62
     1
 10
2637.722192172
 20
582.65
 11
2629.957620819
 21
611.627774789
  0
LINE
  8
6
  6
CONTINUOUS
 62
     1
 10
2637.722192172
 20
582.65
 11
2637.722192172
 21
1807.232199007
  0
LINE
  8
6
  6
CONTINUOUS
 62
     1
 10
2637.722192172
 20
1807.232199007
 11
2629.957620819
 21
1778.254424219
  0
LINE
  8
6
  6
CONTINUOUS
 62
     1
 10
2637.722192172
 20
1807.232199007
 11
2645.486763525
 21
1778.254424219
  0
LINE
  8
6
  6
CONTINUOUS
 62
     1
 10
2173.050826694
 20
1807.232199007
 11
2661.722192172
 21
1807.232199007
  0
TEXT
  8
6
  6
CONTINUOUS
 62
     1
 10
2625.722192172
 20
1146.341099504
 30
3.6
 40
36.0
  1
１２３０
 50
90.0
 41
0.6
 51
0.0
  7
KANJI4
  0
LINE
  8
6
  6
CONTINUOUS
 62
     1
 10
2331.45
 20
865.094179642
 11
2331.45
 21
1981.007199007
  0
LINE
  8
6
  6
CONTINUOUS
 62
     1
 10
2331.45
 20
1957.007199007
 11
2302.472225211
 21
1964.771770361
  0
LINE
  8
6
  6
CONTINUOUS
 62
     1
 10
2331.45
 20
1957.007199007
 11
2302.472225211
 21
1949.242627654
  0
LINE
  8
6
  6
CONTINUOUS
 62
     1
 10
2331.45
 20
1957.007199007
 11
1831.45
 21
1957.007199007
  0
LINE
  8
6
  6
CONTINUOUS
 62
     1
 10
1831.45
 20
1957.007199007
 11
1860.427774789
 21
1949.242627654
  0
LINE
  8
6
  6
CONTINUOUS
 62
     1
 10
1831.45
 20
1957.007199007
 11
1860.427774789
 21
1964.771770361
  0
LINE
  8
6
  6
CONTINUOUS
 62
     1
 10
1831.45
 20
1433.505445401
 11
1831.45
 21
1981.007199007
  0
TEXT
  8
6
  6
CONTINUOUS
 62
     1
 10
2045.45
 20
1969.007199007
 30
3.6
 40
36.0
  1
５００
 50
0.0
 41
0.6
 51
0.0
  7
KANJI4
  0
LINE
  8
6
  6
CONTINUOUS
 62
     1
 10
2109.494163365
 20
1755.675535678
 11
2094.494163365
 21
1781.656297792
  0
LINE
  8
6
  6
CONTINUOUS
 62
     1
 10
2109.494163365
 20
1755.675535678
 11
2083.513401252
 21
1770.675535678
  0
ARC
  8
6
  6
CONTINUOUS
 62
     1
 10
1831.45
 20
1477.631372313
 40
393.21382677
 50
45.0
 51
90.0
  0
LINE
  8
6
  6
CONTINUOUS
 62
     1
 10
1831.45
 20
1870.845199083
 11
1860.427774789
 21
1863.08062773
  0
LINE
  8
6
  6
CONTINUOUS
 62
     1
 10
1831.45
 20
1870.845199083
 11
1860.427774789
 21
1878.609770436
  0
TEXT
  8
6
  6
CONTINUOUS
 62
     1
 10
1953.2589549
 20
1865.776736721
 30
3.6
 40
36.0
  1
４５゜
 50
337.5
 41
0.6
 51
0.0
  7
KANJI4
  0
ENDSEC
  0
EOF
