  0
SECTION
  2
HEADER
  9
$EXTMIN
 10
0.0
 20
0.0
 30
0.0
  9
$EXTMAX
 10
2079.0
 20
1470.0
 30
0.0
  9
$LIMMIN
 10
0.0
 20
0.0
  9
$LIMMAX
 10
2079.0
 20
1470.0
  9
$LTSCALE
 40
1.0
  9
$PDMODE
 70
     0
  0
ENDSEC
  0
SECTION
  2
TABLES
  0
TABLE
  2
LTYPE
 70
     2
  0
LTYPE
  2
CONTINUOUS
 70
    64
  3
Solid line
 72
    65
 73
     0
 40
0.0
  0
LTYPE
  2
LTYPE1
 70
    64
  3
HIDDEN
 72
    65
 73
     2
 40
98.0
 49
58.8
 49
-39.2
  0
ENDTAB
  0
TABLE
  2
LAYER
 70
   128
  0
LAYER
  2
0
 70
     0
 62
     7
  6
CONTINUOUS
  0
LAYER
  2
2
 70
     0
 62
     7
  6
CONTINUOUS
  0
LAYER
  2
3
 70
     0
 62
     7
  6
CONTINUOUS
  0
LAYER
  2
4
 70
     0
 62
     7
  6
CONTINUOUS
  0
LAYER
  2
5
 70
     0
 62
     7
  6
CONTINUOUS
  0
LAYER
  2
6
 70
     0
 62
     7
  6
CONTINUOUS
  0
LAYER
  2
7
 70
     0
 62
     7
  6
CONTINUOUS
  0
LAYER
  2
8
 70
     0
 62
     7
  6
CONTINUOUS
  0
LAYER
  2
9
 70
     0
 62
     7
  6
CONTINUOUS
  0
LAYER
  2
10
 70
     0
 62
     7
  6
CONTINUOUS
  0
LAYER
  2
11
 70
     0
 62
     7
  6
CONTINUOUS
  0
LAYER
  2
12
 70
     0
 62
     7
  6
CONTINUOUS
  0
LAYER
  2
13
 70
     0
 62
     7
  6
CONTINUOUS
  0
LAYER
  2
14
 70
     0
 62
     7
  6
CONTINUOUS
  0
LAYER
  2
15
 70
     0
 62
     7
  6
CONTINUOUS
  0
LAYER
  2
16
 70
     0
 62
     7
  6
CONTINUOUS
  0
LAYER
  2
17
 70
     0
 62
     7
  6
CONTINUOUS
  0
LAYER
  2
18
 70
     0
 62
     7
  6
CONTINUOUS
  0
LAYER
  2
19
 70
     0
 62
     7
  6
CONTINUOUS
  0
LAYER
  2
20
 70
     0
 62
     7
  6
CONTINUOUS
  0
LAYER
  2
21
 70
     0
 62
     7
  6
CONTINUOUS
  0
LAYER
  2
22
 70
     0
 62
     7
  6
CONTINUOUS
  0
LAYER
  2
23
 70
     0
 62
     7
  6
CONTINUOUS
  0
LAYER
  2
24
 70
     0
 62
     7
  6
CONTINUOUS
  0
LAYER
  2
25
 70
     0
 62
     7
  6
CONTINUOUS
  0
LAYER
  2
26
 70
     0
 62
     7
  6
CONTINUOUS
  0
LAYER
  2
27
 70
     0
 62
     7
  6
CONTINUOUS
  0
LAYER
  2
28
 70
     0
 62
     7
  6
CONTINUOUS
  0
LAYER
  2
29
 70
     0
 62
     7
  6
CONTINUOUS
  0
LAYER
  2
30
 70
     0
 62
     7
  6
CONTINUOUS
  0
LAYER
  2
31
 70
     0
 62
     7
  6
CONTINUOUS
  0
LAYER
  2
32
 70
     0
 62
     7
  6
CONTINUOUS
  0
LAYER
  2
33
 70
     0
 62
     7
  6
CONTINUOUS
  0
LAYER
  2
34
 70
     0
 62
     7
  6
CONTINUOUS
  0
LAYER
  2
35
 70
     0
 62
     7
  6
CONTINUOUS
  0
LAYER
  2
36
 70
     0
 62
     7
  6
CONTINUOUS
  0
LAYER
  2
37
 70
     0
 62
     7
  6
CONTINUOUS
  0
LAYER
  2
38
 70
     0
 62
     7
  6
CONTINUOUS
  0
LAYER
  2
39
 70
     0
 62
     7
  6
CONTINUOUS
  0
LAYER
  2
40
 70
     0
 62
     7
  6
CONTINUOUS
  0
LAYER
  2
41
 70
     0
 62
     7
  6
CONTINUOUS
  0
LAYER
  2
42
 70
     0
 62
     7
  6
CONTINUOUS
  0
LAYER
  2
43
 70
     0
 62
     7
  6
CONTINUOUS
  0
LAYER
  2
44
 70
     0
 62
     7
  6
CONTINUOUS
  0
LAYER
  2
45
 70
     0
 62
     7
  6
CONTINUOUS
  0
LAYER
  2
46
 70
     0
 62
     7
  6
CONTINUOUS
  0
LAYER
  2
47
 70
     0
 62
     7
  6
CONTINUOUS
  0
LAYER
  2
48
 70
     0
 62
     7
  6
CONTINUOUS
  0
LAYER
  2
49
 70
     0
 62
     7
  6
CONTINUOUS
  0
LAYER
  2
50
 70
     0
 62
     7
  6
CONTINUOUS
  0
LAYER
  2
51
 70
     0
 62
     7
  6
CONTINUOUS
  0
LAYER
  2
52
 70
     0
 62
     7
  6
CONTINUOUS
  0
LAYER
  2
53
 70
     0
 62
     7
  6
CONTINUOUS
  0
LAYER
  2
54
 70
     0
 62
     7
  6
CONTINUOUS
  0
LAYER
  2
55
 70
     0
 62
     7
  6
CONTINUOUS
  0
LAYER
  2
56
 70
     0
 62
     7
  6
CONTINUOUS
  0
LAYER
  2
57
 70
     0
 62
     7
  6
CONTINUOUS
  0
LAYER
  2
58
 70
     0
 62
     7
  6
CONTINUOUS
  0
LAYER
  2
59
 70
     0
 62
     7
  6
CONTINUOUS
  0
LAYER
  2
60
 70
     0
 62
     7
  6
CONTINUOUS
  0
LAYER
  2
61
 70
     0
 62
     7
  6
CONTINUOUS
  0
LAYER
  2
62
 70
     0
 62
     7
  6
CONTINUOUS
  0
LAYER
  2
63
 70
     0
 62
     7
  6
CONTINUOUS
  0
LAYER
  2
64
 70
     0
 62
     7
  6
CONTINUOUS
  0
LAYER
  2
65
 70
     0
 62
     7
  6
CONTINUOUS
  0
LAYER
  2
66
 70
     0
 62
     7
  6
CONTINUOUS
  0
LAYER
  2
67
 70
     0
 62
     7
  6
CONTINUOUS
  0
LAYER
  2
68
 70
     0
 62
     7
  6
CONTINUOUS
  0
LAYER
  2
69
 70
     0
 62
     7
  6
CONTINUOUS
  0
LAYER
  2
70
 70
     0
 62
     7
  6
CONTINUOUS
  0
LAYER
  2
71
 70
     0
 62
     7
  6
CONTINUOUS
  0
LAYER
  2
72
 70
     0
 62
     7
  6
CONTINUOUS
  0
LAYER
  2
73
 70
     0
 62
     7
  6
CONTINUOUS
  0
LAYER
  2
74
 70
     0
 62
     7
  6
CONTINUOUS
  0
LAYER
  2
75
 70
     0
 62
     7
  6
CONTINUOUS
  0
LAYER
  2
76
 70
     0
 62
     7
  6
CONTINUOUS
  0
LAYER
  2
77
 70
     0
 62
     7
  6
CONTINUOUS
  0
LAYER
  2
78
 70
     0
 62
     7
  6
CONTINUOUS
  0
LAYER
  2
79
 70
     0
 62
     7
  6
CONTINUOUS
  0
LAYER
  2
80
 70
     0
 62
     7
  6
CONTINUOUS
  0
LAYER
  2
81
 70
     0
 62
     7
  6
CONTINUOUS
  0
LAYER
  2
82
 70
     0
 62
     7
  6
CONTINUOUS
  0
LAYER
  2
83
 70
     0
 62
     7
  6
CONTINUOUS
  0
LAYER
  2
84
 70
     0
 62
     7
  6
CONTINUOUS
  0
LAYER
  2
85
 70
     0
 62
     7
  6
CONTINUOUS
  0
LAYER
  2
86
 70
     0
 62
     7
  6
CONTINUOUS
  0
LAYER
  2
87
 70
     0
 62
     7
  6
CONTINUOUS
  0
LAYER
  2
88
 70
     0
 62
     7
  6
CONTINUOUS
  0
LAYER
  2
89
 70
     0
 62
     7
  6
CONTINUOUS
  0
LAYER
  2
90
 70
     0
 62
     7
  6
CONTINUOUS
  0
LAYER
  2
91
 70
     0
 62
     7
  6
CONTINUOUS
  0
LAYER
  2
92
 70
     0
 62
     7
  6
CONTINUOUS
  0
LAYER
  2
93
 70
     0
 62
     7
  6
CONTINUOUS
  0
LAYER
  2
94
 70
     0
 62
     7
  6
CONTINUOUS
  0
LAYER
  2
95
 70
     0
 62
     7
  6
CONTINUOUS
  0
LAYER
  2
96
 70
     0
 62
     7
  6
CONTINUOUS
  0
LAYER
  2
97
 70
     0
 62
     7
  6
CONTINUOUS
  0
LAYER
  2
98
 70
     0
 62
     7
  6
CONTINUOUS
  0
LAYER
  2
99
 70
     0
 62
     7
  6
CONTINUOUS
  0
LAYER
  2
100
 70
     0
 62
     7
  6
CONTINUOUS
  0
LAYER
  2
101
 70
     0
 62
     7
  6
CONTINUOUS
  0
LAYER
  2
102
 70
     0
 62
     7
  6
CONTINUOUS
  0
LAYER
  2
103
 70
     0
 62
     7
  6
CONTINUOUS
  0
LAYER
  2
104
 70
     0
 62
     7
  6
CONTINUOUS
  0
LAYER
  2
105
 70
     0
 62
     7
  6
CONTINUOUS
  0
LAYER
  2
106
 70
     0
 62
     7
  6
CONTINUOUS
  0
LAYER
  2
107
 70
     0
 62
     7
  6
CONTINUOUS
  0
LAYER
  2
108
 70
     0
 62
     7
  6
CONTINUOUS
  0
LAYER
  2
109
 70
     0
 62
     7
  6
CONTINUOUS
  0
LAYER
  2
110
 70
     0
 62
     7
  6
CONTINUOUS
  0
LAYER
  2
111
 70
     0
 62
     7
  6
CONTINUOUS
  0
LAYER
  2
112
 70
     0
 62
     7
  6
CONTINUOUS
  0
LAYER
  2
113
 70
     0
 62
     7
  6
CONTINUOUS
  0
LAYER
  2
114
 70
     0
 62
     7
  6
CONTINUOUS
  0
LAYER
  2
115
 70
     0
 62
     7
  6
CONTINUOUS
  0
LAYER
  2
116
 70
     0
 62
     7
  6
CONTINUOUS
  0
LAYER
  2
117
 70
     0
 62
     7
  6
CONTINUOUS
  0
LAYER
  2
118
 70
     0
 62
     7
  6
CONTINUOUS
  0
LAYER
  2
119
 70
     0
 62
     7
  6
CONTINUOUS
  0
LAYER
  2
120
 70
     0
 62
     7
  6
CONTINUOUS
  0
LAYER
  2
121
 70
     0
 62
     7
  6
CONTINUOUS
  0
LAYER
  2
122
 70
     0
 62
     7
  6
CONTINUOUS
  0
LAYER
  2
123
 70
     0
 62
     7
  6
CONTINUOUS
  0
LAYER
  2
124
 70
     0
 62
     7
  6
CONTINUOUS
  0
LAYER
  2
125
 70
     0
 62
     7
  6
CONTINUOUS
  0
LAYER
  2
126
 70
     0
 62
     7
  6
CONTINUOUS
  0
LAYER
  2
127
 70
     0
 62
     7
  6
CONTINUOUS
  0
LAYER
  2
128
 70
     0
 62
     7
  6
CONTINUOUS
  0
ENDTAB
  0
TABLE
  2
STYLE
 70
     3
  0
STYLE
  2
STANDARD
 70
     0
 40
0.0
 41
1.0
 50
0.0
 71
     0
 42
0.2
  3
txt
  4

  0
STYLE
  2
KANJI0
 70
     0
 40
21.0
 41
0.6
 50
0.0
 71
     0
 42
21.0
  3

  4
bigfont
  0
STYLE
  2
KANJI1
 70
     0
 40
35.0
 41
0.94
 50
0.0
 71
     0
 42
35.0
  3

  4
bigfont
  0
ENDTAB
  0
TABLE
  2
VIEW
 70
     0
  0
ENDTAB
  0
ENDSEC
  0
SECTION
  2
BLOCKS
  0
ENDSEC
  0
SECTION
  2
ENTITIES
  0
POLYLINE
  8
0
  6
CONTINUOUS
 62
     1
 66
     1
 70
     1
  0
VERTEX
  8
0
  6
CONTINUOUS
 62
     1
 10
216.765
 20
279.05
  0
VERTEX
  8
0
  6
CONTINUOUS
 62
     1
 10
766.765
 20
279.05
  0
VERTEX
  8
0
  6
CONTINUOUS
 62
     1
 10
766.765
 20
254.05
  0
VERTEX
  8
0
  6
CONTINUOUS
 62
     1
 10
216.765
 20
254.05
  0
SEQEND
  0
CIRCLE
  8
2
  6
CONTINUOUS
 62
     1
 10
724.3274
 20
539.85
 40
3.1
  0
CIRCLE
  8
2
  6
CONTINUOUS
 62
     1
 10
724.3274
 20
523.95
 40
3.1
  0
CIRCLE
  8
2
  6
CONTINUOUS
 62
     1
 10
724.3274
 20
508.05
 40
3.1
  0
CIRCLE
  8
2
  6
CONTINUOUS
 62
     1
 10
724.3274
 20
552.5
 40
3.1
  0
CIRCLE
  8
2
  6
CONTINUOUS
 62
     1
 10
724.3274
 20
568.4
 40
3.1
  0
CIRCLE
  8
2
  6
CONTINUOUS
 62
     1
 10
724.3274
 20
584.3
 40
3.1
  0
CIRCLE
  8
2
  6
CONTINUOUS
 62
     1
 10
724.3274
 20
495.4
 40
3.1
  0
CIRCLE
  8
2
  6
CONTINUOUS
 62
     1
 10
724.3274
 20
479.5
 40
3.1
  0
CIRCLE
  8
2
  6
CONTINUOUS
 62
     1
 10
724.3274
 20
463.6
 40
3.1
  0
CIRCLE
  8
2
  6
CONTINUOUS
 62
     1
 10
724.3274
 20
450.95
 40
3.1
  0
CIRCLE
  8
2
  6
CONTINUOUS
 62
     1
 10
724.3274
 20
435.05
 40
3.1
  0
CIRCLE
  8
2
  6
CONTINUOUS
 62
     1
 10
724.3274
 20
419.15
 40
3.1
  0
CIRCLE
  8
2
  6
CONTINUOUS
 62
     1
 10
724.3274
 20
406.5
 40
3.1
  0
CIRCLE
  8
2
  6
CONTINUOUS
 62
     1
 10
724.3274
 20
390.6
 40
3.1
  0
CIRCLE
  8
2
  6
CONTINUOUS
 62
     1
 10
724.3274
 20
374.7
 40
3.1
  0
CIRCLE
  8
2
  6
CONTINUOUS
 62
     1
 10
724.3274
 20
362.05
 40
3.1
  0
CIRCLE
  8
2
  6
CONTINUOUS
 62
     1
 10
724.3274
 20
346.15
 40
3.1
  0
CIRCLE
  8
2
  6
CONTINUOUS
 62
     1
 10
724.3274
 20
330.25
 40
3.1
  0
CIRCLE
  8
2
  6
CONTINUOUS
 62
     1
 10
724.3274
 20
317.6
 40
3.1
  0
CIRCLE
  8
2
  6
CONTINUOUS
 62
     1
 10
724.3274
 20
301.7
 40
3.1
  0
CIRCLE
  8
2
  6
CONTINUOUS
 62
     1
 10
724.3274
 20
285.8
 40
3.1
  0
CIRCLE
  8
2
  6
CONTINUOUS
 62
     1
 10
724.3274
 20
596.95
 40
3.1
  0
CIRCLE
  8
2
  6
CONTINUOUS
 62
     1
 10
724.3274
 20
612.85
 40
3.1
  0
CIRCLE
  8
2
  6
CONTINUOUS
 62
     1
 10
724.3274
 20
628.75
 40
3.1
  0
CIRCLE
  8
2
  6
CONTINUOUS
 62
     1
 10
724.3274
 20
641.4
 40
3.1
  0
CIRCLE
  8
2
  6
CONTINUOUS
 62
     1
 10
724.3274
 20
657.3
 40
3.1
  0
CIRCLE
  8
2
  6
CONTINUOUS
 62
     1
 10
724.3274
 20
673.2
 40
3.1
  0
CIRCLE
  8
2
  6
CONTINUOUS
 62
     1
 10
724.3274
 20
685.85
 40
3.1
  0
CIRCLE
  8
2
  6
CONTINUOUS
 62
     1
 10
724.3274
 20
701.75
 40
3.1
  0
CIRCLE
  8
2
  6
CONTINUOUS
 62
     1
 10
724.3274
 20
717.65
 40
3.1
  0
CIRCLE
  8
2
  6
CONTINUOUS
 62
     1
 10
724.3274
 20
730.3
 40
3.1
  0
CIRCLE
  8
2
  6
CONTINUOUS
 62
     1
 10
724.3274
 20
746.2
 40
3.1
  0
CIRCLE
  8
2
  6
CONTINUOUS
 62
     1
 10
724.3274
 20
762.1
 40
3.1
  0
LINE
  8
2
  6
CONTINUOUS
 62
     1
 10
717.265
 20
325.625
 11
717.265
 21
366.675
  0
LINE
  8
2
  6
CONTINUOUS
 62
     1
 10
717.265
 20
370.075
 11
717.265
 21
411.125
  0
LINE
  8
2
  6
CONTINUOUS
 62
     1
 10
717.265
 20
414.525
 11
717.265
 21
455.575
  0
LINE
  8
2
  6
CONTINUOUS
 62
     1
 10
717.265
 20
458.975
 11
717.265
 21
500.025
  0
LINE
  8
2
  6
CONTINUOUS
 62
     1
 10
717.265
 20
503.425
 11
717.265
 21
544.475
  0
LINE
  8
2
  6
CONTINUOUS
 62
     1
 10
717.265
 20
547.875
 11
717.265
 21
588.925
  0
LINE
  8
2
  6
CONTINUOUS
 62
     1
 10
717.265
 20
592.325
 11
717.265
 21
633.375
  0
LINE
  8
2
  6
CONTINUOUS
 62
     1
 10
717.265
 20
636.775
 11
717.265
 21
677.825
  0
LINE
  8
2
  6
CONTINUOUS
 62
     1
 10
717.265
 20
681.225
 11
717.265
 21
722.275
  0
ARC
  8
2
  6
CONTINUOUS
 62
     1
 10
717.265
 20
546.175
 40
1.7
 50
0.0
 51
90.0
  0
ARC
  8
2
  6
CONTINUOUS
 62
     1
 10
717.265
 20
546.175
 40
1.7
 50
270.0
 51
0.0
  0
ARC
  8
2
  6
CONTINUOUS
 62
     1
 10
717.265
 20
501.725
 40
1.7
 50
0.0
 51
90.0
  0
ARC
  8
2
  6
CONTINUOUS
 62
     1
 10
717.265
 20
501.725
 40
1.7
 50
270.0
 51
0.0
  0
ARC
  8
2
  6
CONTINUOUS
 62
     1
 10
717.265
 20
457.275
 40
1.7
 50
0.0
 51
90.0
  0
ARC
  8
2
  6
CONTINUOUS
 62
     1
 10
717.265
 20
457.275
 40
1.7
 50
270.0
 51
0.0
  0
ARC
  8
2
  6
CONTINUOUS
 62
     1
 10
717.265
 20
412.825
 40
1.7
 50
0.0
 51
90.0
  0
ARC
  8
2
  6
CONTINUOUS
 62
     1
 10
717.265
 20
412.825
 40
1.7
 50
270.0
 51
0.0
  0
ARC
  8
2
  6
CONTINUOUS
 62
     1
 10
717.265
 20
368.375
 40
1.7
 50
0.0
 51
90.0
  0
ARC
  8
2
  6
CONTINUOUS
 62
     1
 10
717.265
 20
368.375
 40
1.7
 50
270.0
 51
0.0
  0
ARC
  8
2
  6
CONTINUOUS
 62
     1
 10
717.265
 20
323.925
 40
1.7
 50
0.0
 51
90.0
  0
ARC
  8
2
  6
CONTINUOUS
 62
     1
 10
717.265
 20
323.925
 40
1.7
 50
270.0
 51
0.0
  0
ARC
  8
2
  6
CONTINUOUS
 62
     1
 10
717.265
 20
590.625
 40
1.7
 50
0.0
 51
90.0
  0
ARC
  8
2
  6
CONTINUOUS
 62
     1
 10
717.265
 20
590.625
 40
1.7
 50
270.0
 51
0.0
  0
ARC
  8
2
  6
CONTINUOUS
 62
     1
 10
717.265
 20
635.075
 40
1.7
 50
0.0
 51
90.0
  0
ARC
  8
2
  6
CONTINUOUS
 62
     1
 10
717.265
 20
635.075
 40
1.7
 50
270.0
 51
0.0
  0
ARC
  8
2
  6
CONTINUOUS
 62
     1
 10
717.265
 20
679.525
 40
1.7
 50
0.0
 51
90.0
  0
ARC
  8
2
  6
CONTINUOUS
 62
     1
 10
717.265
 20
679.525
 40
1.7
 50
270.0
 51
0.0
  0
ARC
  8
2
  6
CONTINUOUS
 62
     1
 10
717.265
 20
723.975
 40
1.7
 50
0.0
 51
90.0
  0
ARC
  8
2
  6
CONTINUOUS
 62
     1
 10
717.265
 20
723.975
 40
1.7
 50
270.0
 51
0.0
  0
CIRCLE
  8
2
  6
CONTINUOUS
 62
     1
 10
259.2026
 20
539.85
 40
3.1
  0
CIRCLE
  8
2
  6
CONTINUOUS
 62
     1
 10
259.2026
 20
523.95
 40
3.1
  0
CIRCLE
  8
2
  6
CONTINUOUS
 62
     1
 10
259.2026
 20
508.05
 40
3.1
  0
CIRCLE
  8
2
  6
CONTINUOUS
 62
     1
 10
259.2026
 20
552.5
 40
3.1
  0
CIRCLE
  8
2
  6
CONTINUOUS
 62
     1
 10
259.2026
 20
568.4
 40
3.1
  0
CIRCLE
  8
2
  6
CONTINUOUS
 62
     1
 10
259.2026
 20
584.3
 40
3.1
  0
CIRCLE
  8
2
  6
CONTINUOUS
 62
     1
 10
259.2026
 20
495.4
 40
3.1
  0
CIRCLE
  8
2
  6
CONTINUOUS
 62
     1
 10
259.2026
 20
479.5
 40
3.1
  0
CIRCLE
  8
2
  6
CONTINUOUS
 62
     1
 10
259.2026
 20
463.6
 40
3.1
  0
CIRCLE
  8
2
  6
CONTINUOUS
 62
     1
 10
259.2026
 20
450.95
 40
3.1
  0
CIRCLE
  8
2
  6
CONTINUOUS
 62
     1
 10
259.2026
 20
435.05
 40
3.1
  0
CIRCLE
  8
2
  6
CONTINUOUS
 62
     1
 10
259.2026
 20
419.15
 40
3.1
  0
CIRCLE
  8
2
  6
CONTINUOUS
 62
     1
 10
259.2026
 20
406.5
 40
3.1
  0
CIRCLE
  8
2
  6
CONTINUOUS
 62
     1
 10
259.2026
 20
390.6
 40
3.1
  0
CIRCLE
  8
2
  6
CONTINUOUS
 62
     1
 10
259.2026
 20
374.7
 40
3.1
  0
CIRCLE
  8
2
  6
CONTINUOUS
 62
     1
 10
259.2026
 20
362.05
 40
3.1
  0
CIRCLE
  8
2
  6
CONTINUOUS
 62
     1
 10
259.2026
 20
346.15
 40
3.1
  0
CIRCLE
  8
2
  6
CONTINUOUS
 62
     1
 10
259.2026
 20
330.25
 40
3.1
  0
CIRCLE
  8
2
  6
CONTINUOUS
 62
     1
 10
259.2026
 20
317.6
 40
3.1
  0
CIRCLE
  8
2
  6
CONTINUOUS
 62
     1
 10
259.2026
 20
301.7
 40
3.1
  0
CIRCLE
  8
2
  6
CONTINUOUS
 62
     1
 10
259.2026
 20
285.8
 40
3.1
  0
CIRCLE
  8
2
  6
CONTINUOUS
 62
     1
 10
259.2026
 20
596.95
 40
3.1
  0
CIRCLE
  8
2
  6
CONTINUOUS
 62
     1
 10
259.2026
 20
612.85
 40
3.1
  0
CIRCLE
  8
2
  6
CONTINUOUS
 62
     1
 10
259.2026
 20
628.75
 40
3.1
  0
CIRCLE
  8
2
  6
CONTINUOUS
 62
     1
 10
259.2026
 20
641.4
 40
3.1
  0
CIRCLE
  8
2
  6
CONTINUOUS
 62
     1
 10
259.2026
 20
657.3
 40
3.1
  0
CIRCLE
  8
2
  6
CONTINUOUS
 62
     1
 10
259.2026
 20
673.2
 40
3.1
  0
CIRCLE
  8
2
  6
CONTINUOUS
 62
     1
 10
259.2026
 20
685.85
 40
3.1
  0
CIRCLE
  8
2
  6
CONTINUOUS
 62
     1
 10
259.2026
 20
701.75
 40
3.1
  0
CIRCLE
  8
2
  6
CONTINUOUS
 62
     1
 10
259.2026
 20
717.65
 40
3.1
  0
CIRCLE
  8
2
  6
CONTINUOUS
 62
     1
 10
259.2026
 20
730.3
 40
3.1
  0
CIRCLE
  8
2
  6
CONTINUOUS
 62
     1
 10
259.2026
 20
746.2
 40
3.1
  0
CIRCLE
  8
2
  6
CONTINUOUS
 62
     1
 10
259.2026
 20
762.1
 40
3.1
  0
LINE
  8
2
  6
CONTINUOUS
 62
     1
 10
266.265
 20
325.625
 11
266.265
 21
366.675
  0
LINE
  8
2
  6
CONTINUOUS
 62
     1
 10
266.265
 20
370.075
 11
266.265
 21
411.125
  0
LINE
  8
2
  6
CONTINUOUS
 62
     1
 10
266.265
 20
414.525
 11
266.265
 21
455.575
  0
LINE
  8
2
  6
CONTINUOUS
 62
     1
 10
266.265
 20
458.975
 11
266.265
 21
500.025
  0
LINE
  8
2
  6
CONTINUOUS
 62
     1
 10
266.265
 20
503.425
 11
266.265
 21
544.475
  0
LINE
  8
2
  6
CONTINUOUS
 62
     1
 10
266.265
 20
547.875
 11
266.265
 21
588.925
  0
LINE
  8
2
  6
CONTINUOUS
 62
     1
 10
266.265
 20
592.325
 11
266.265
 21
633.375
  0
LINE
  8
2
  6
CONTINUOUS
 62
     1
 10
266.265
 20
636.775
 11
266.265
 21
677.825
  0
LINE
  8
2
  6
CONTINUOUS
 62
     1
 10
266.265
 20
681.225
 11
266.265
 21
722.275
  0
ARC
  8
2
  6
CONTINUOUS
 62
     1
 10
266.265
 20
546.175
 40
1.7
 50
90.0
 51
180.0
  0
ARC
  8
2
  6
CONTINUOUS
 62
     1
 10
266.265
 20
546.175
 40
1.7
 50
180.0
 51
270.0
  0
ARC
  8
2
  6
CONTINUOUS
 62
     1
 10
266.265
 20
501.725
 40
1.7
 50
90.0
 51
180.0
  0
ARC
  8
2
  6
CONTINUOUS
 62
     1
 10
266.265
 20
501.725
 40
1.7
 50
180.0
 51
270.0
  0
ARC
  8
2
  6
CONTINUOUS
 62
     1
 10
266.265
 20
457.275
 40
1.7
 50
90.0
 51
180.0
  0
ARC
  8
2
  6
CONTINUOUS
 62
     1
 10
266.265
 20
457.275
 40
1.7
 50
180.0
 51
270.0
  0
ARC
  8
2
  6
CONTINUOUS
 62
     1
 10
266.265
 20
412.825
 40
1.7
 50
90.0
 51
180.0
  0
ARC
  8
2
  6
CONTINUOUS
 62
     1
 10
266.265
 20
412.825
 40
1.7
 50
180.0
 51
270.0
  0
ARC
  8
2
  6
CONTINUOUS
 62
     1
 10
266.265
 20
368.375
 40
1.7
 50
90.0
 51
180.0
  0
ARC
  8
2
  6
CONTINUOUS
 62
     1
 10
266.265
 20
368.375
 40
1.7
 50
180.0
 51
270.0
  0
ARC
  8
2
  6
CONTINUOUS
 62
     1
 10
266.265
 20
323.925
 40
1.7
 50
90.0
 51
180.0
  0
ARC
  8
2
  6
CONTINUOUS
 62
     1
 10
266.265
 20
323.925
 40
1.7
 50
180.0
 51
270.0
  0
ARC
  8
2
  6
CONTINUOUS
 62
     1
 10
266.265
 20
590.625
 40
1.7
 50
90.0
 51
180.0
  0
ARC
  8
2
  6
CONTINUOUS
 62
     1
 10
266.265
 20
590.625
 40
1.7
 50
180.0
 51
270.0
  0
ARC
  8
2
  6
CONTINUOUS
 62
     1
 10
266.265
 20
635.075
 40
1.7
 50
90.0
 51
180.0
  0
ARC
  8
2
  6
CONTINUOUS
 62
     1
 10
266.265
 20
635.075
 40
1.7
 50
180.0
 51
270.0
  0
ARC
  8
2
  6
CONTINUOUS
 62
     1
 10
266.265
 20
679.525
 40
1.7
 50
90.0
 51
180.0
  0
ARC
  8
2
  6
CONTINUOUS
 62
     1
 10
266.265
 20
679.525
 40
1.7
 50
180.0
 51
270.0
  0
ARC
  8
2
  6
CONTINUOUS
 62
     1
 10
266.265
 20
723.975
 40
1.7
 50
90.0
 51
180.0
  0
ARC
  8
2
  6
CONTINUOUS
 62
     1
 10
266.265
 20
723.975
 40
1.7
 50
180.0
 51
270.0
  0
LINE
  8
2
  6
CONTINUOUS
 62
     1
 10
717.265
 20
279.05
 11
717.265
 21
322.225
  0
LINE
  8
2
  6
CONTINUOUS
 62
     1
 10
266.265
 20
279.05
 11
266.265
 21
322.225
  0
LINE
  8
0
  6
CONTINUOUS
 62
     1
 10
1029.02
 20
255.65
 11
1029.02
 21
279.05
  0
LINE
  8
0
  6
CONTINUOUS
 62
     1
 10
1027.42
 20
254.05
 11
1027.42
 21
279.05
  0
LINE
  8
0
  6
CONTINUOUS
 62
     1
 10
1027.42
 20
279.05
 11
1029.02
 21
279.05
  0
LINE
  8
0
  6
CONTINUOUS
 62
     1
 10
1487.42
 20
254.05
 11
1487.42
 21
279.05
  0
LINE
  8
0
  6
CONTINUOUS
 62
     1
 10
1027.42
 20
254.05
 11
1487.42
 21
254.05
  0
LINE
  8
0
  6
CONTINUOUS
 62
     1
 10
1485.82
 20
255.65
 11
1485.82
 21
279.05
  0
LINE
  8
0
  6
CONTINUOUS
 62
     1
 10
1485.82
 20
279.05
 11
1487.42
 21
279.05
  0
CIRCLE
  8
0
  6
CONTINUOUS
 62
     1
 10
1107.42
 20
266.55
 40
6.1
  0
CIRCLE
  8
0
  6
CONTINUOUS
 62
     1
 10
1407.42
 20
266.55
 40
6.1
  0
ARC
  8
2
  6
CONTINUOUS
 62
     1
 10
1482.82
 20
258.65
 40
3.0
 50
270.0
 51
0.0
  0
ARC
  8
2
  6
CONTINUOUS
 62
     1
 10
1032.02
 20
258.65
 40
3.0
 50
180.0
 51
270.0
  0
LINE
  8
0
  6
CONTINUOUS
 62
     1
 10
1106.67
 20
263.55
 11
1108.17
 21
263.55
  0
LINE
  8
0
  6
CONTINUOUS
 62
     1
 10
1108.17
 20
269.55
 11
1106.67
 21
269.55
  0
LINE
  8
0
  6
CONTINUOUS
 62
     1
 10
1110.42
 20
265.8
 11
1110.42
 21
267.3
  0
LINE
  8
0
  6
CONTINUOUS
 62
     1
 10
1104.42
 20
267.3
 11
1104.42
 21
265.8
  0
LINE
  8
0
  6
CONTINUOUS
 62
     1
 10
1106.67
 20
269.55
 11
1106.67
 21
267.3
  0
LINE
  8
0
  6
CONTINUOUS
 62
     1
 10
1106.67
 20
265.8
 11
1106.67
 21
263.55
  0
LINE
  8
0
  6
CONTINUOUS
 62
     1
 10
1108.17
 20
263.55
 11
1108.17
 21
265.8
  0
LINE
  8
0
  6
CONTINUOUS
 62
     1
 10
1108.17
 20
267.3
 11
1108.17
 21
269.55
  0
LINE
  8
0
  6
CONTINUOUS
 62
     1
 10
1104.42
 20
265.8
 11
1106.67
 21
265.8
  0
LINE
  8
0
  6
CONTINUOUS
 62
     1
 10
1108.17
 20
265.8
 11
1110.42
 21
265.8
  0
LINE
  8
0
  6
CONTINUOUS
 62
     1
 10
1110.42
 20
267.3
 11
1108.17
 21
267.3
  0
LINE
  8
0
  6
CONTINUOUS
 62
     1
 10
1106.67
 20
267.3
 11
1104.42
 21
267.3
  0
LINE
  8
0
  6
CONTINUOUS
 62
     1
 10
1406.67
 20
263.55
 11
1408.17
 21
263.55
  0
LINE
  8
0
  6
CONTINUOUS
 62
     1
 10
1408.17
 20
269.55
 11
1406.67
 21
269.55
  0
LINE
  8
0
  6
CONTINUOUS
 62
     1
 10
1410.42
 20
265.8
 11
1410.42
 21
267.3
  0
LINE
  8
0
  6
CONTINUOUS
 62
     1
 10
1404.42
 20
267.3
 11
1404.42
 21
265.8
  0
LINE
  8
0
  6
CONTINUOUS
 62
     1
 10
1406.67
 20
269.55
 11
1406.67
 21
267.3
  0
LINE
  8
0
  6
CONTINUOUS
 62
     1
 10
1406.67
 20
265.8
 11
1406.67
 21
263.55
  0
LINE
  8
0
  6
CONTINUOUS
 62
     1
 10
1408.17
 20
263.55
 11
1408.17
 21
265.8
  0
LINE
  8
0
  6
CONTINUOUS
 62
     1
 10
1408.17
 20
267.3
 11
1408.17
 21
269.55
  0
LINE
  8
0
  6
CONTINUOUS
 62
     1
 10
1404.42
 20
265.8
 11
1406.67
 21
265.8
  0
LINE
  8
0
  6
CONTINUOUS
 62
     1
 10
1408.17
 20
265.8
 11
1410.42
 21
265.8
  0
LINE
  8
0
  6
CONTINUOUS
 62
     1
 10
1410.42
 20
267.3
 11
1408.17
 21
267.3
  0
LINE
  8
0
  6
CONTINUOUS
 62
     1
 10
1406.67
 20
267.3
 11
1404.42
 21
267.3
  0
LINE
  8
0
  6
CONTINUOUS
 62
     1
 10
1422.42
 20
255.65
 11
1485.82
 21
255.65
  0
LINE
  8
0
  6
CONTINUOUS
 62
     1
 10
1422.42
 20
254.05
 11
1422.42
 21
255.65
  0
LINE
  8
0
  6
CONTINUOUS
 62
     1
 10
1092.42
 20
254.05
 11
1092.42
 21
255.65
  0
LINE
  8
0
  6
CONTINUOUS
 62
     1
 10
1029.02
 20
255.65
 11
1092.42
 21
255.65
  0
POLYLINE
  8
0
  6
CONTINUOUS
 62
     1
 66
     1
 70
     1
  0
VERTEX
  8
0
  6
CONTINUOUS
 62
     1
 10
216.765
 20
1168.9
  0
VERTEX
  8
0
  6
CONTINUOUS
 62
     1
 10
766.765
 20
1168.9
  0
VERTEX
  8
0
  6
CONTINUOUS
 62
     1
 10
766.765
 20
1193.9
  0
VERTEX
  8
0
  6
CONTINUOUS
 62
     1
 10
216.765
 20
1193.9
  0
SEQEND
  0
CIRCLE
  8
2
  6
CONTINUOUS
 62
     1
 10
724.3274
 20
1130.35
 40
3.1
  0
CIRCLE
  8
2
  6
CONTINUOUS
 62
     1
 10
724.3274
 20
1146.25
 40
3.1
  0
CIRCLE
  8
2
  6
CONTINUOUS
 62
     1
 10
724.3274
 20
1162.15
 40
3.1
  0
ARC
  8
2
  6
CONTINUOUS
 62
     1
 10
717.265
 20
1124.025
 40
1.7
 50
0.0
 51
90.0
  0
ARC
  8
2
  6
CONTINUOUS
 62
     1
 10
717.265
 20
1124.025
 40
1.7
 50
270.0
 51
0.0
  0
CIRCLE
  8
2
  6
CONTINUOUS
 62
     1
 10
259.2026
 20
1130.35
 40
3.1
  0
CIRCLE
  8
2
  6
CONTINUOUS
 62
     1
 10
259.2026
 20
1146.25
 40
3.1
  0
CIRCLE
  8
2
  6
CONTINUOUS
 62
     1
 10
259.2026
 20
1162.15
 40
3.1
  0
ARC
  8
2
  6
CONTINUOUS
 62
     1
 10
266.265
 20
1124.025
 40
1.7
 50
90.0
 51
180.0
  0
ARC
  8
2
  6
CONTINUOUS
 62
     1
 10
266.265
 20
1124.025
 40
1.7
 50
180.0
 51
270.0
  0
LINE
  8
2
  6
CONTINUOUS
 62
     1
 10
717.265
 20
1125.725
 11
717.265
 21
1168.9
  0
LINE
  8
2
  6
CONTINUOUS
 62
     1
 10
741.765
 20
279.05
 11
741.765
 21
1168.9
  0
LINE
  8
2
  6
CONTINUOUS
 62
     1
 10
766.765
 20
279.05
 11
766.765
 21
1168.9
  0
LINE
  8
2
  6
CONTINUOUS
 62
     1
 10
266.265
 20
1125.725
 11
266.265
 21
1168.9
  0
LINE
  8
2
  6
CONTINUOUS
 62
     1
 10
241.765
 20
279.05
 11
241.765
 21
1168.9
  0
LINE
  8
2
  6
CONTINUOUS
 62
     1
 10
216.765
 20
279.05
 11
216.765
 21
1168.9
  0
LINE
  8
0
  6
CONTINUOUS
 62
     1
 10
1029.02
 20
1192.3
 11
1029.02
 21
1168.9
  0
LINE
  8
0
  6
CONTINUOUS
 62
     1
 10
1027.42
 20
1193.9
 11
1027.42
 21
1168.9
  0
LINE
  8
0
  6
CONTINUOUS
 62
     1
 10
1027.42
 20
1168.9
 11
1029.02
 21
1168.9
  0
LINE
  8
0
  6
CONTINUOUS
 62
     1
 10
1487.42
 20
1193.9
 11
1487.42
 21
1168.9
  0
LINE
  8
0
  6
CONTINUOUS
 62
     1
 10
1027.42
 20
1193.9
 11
1487.42
 21
1193.9
  0
LINE
  8
0
  6
CONTINUOUS
 62
     1
 10
1485.82
 20
1192.3
 11
1485.82
 21
1168.9
  0
LINE
  8
0
  6
CONTINUOUS
 62
     1
 10
1485.82
 20
1168.9
 11
1487.42
 21
1168.9
  0
CIRCLE
  8
0
  6
CONTINUOUS
 62
     1
 10
1107.42
 20
1181.4
 40
6.1
  0
CIRCLE
  8
0
  6
CONTINUOUS
 62
     1
 10
1407.42
 20
1181.4
 40
6.1
  0
ARC
  8
2
  6
CONTINUOUS
 62
     1
 10
1482.82
 20
1189.3
 40
3.0
 50
0.0
 51
90.0
  0
LINE
  8
2
  6
CONTINUOUS
 62
     1
 10
1485.82
 20
258.65
 11
1485.82
 21
1189.3
  0
LINE
  8
2
  6
CONTINUOUS
 62
     1
 10
1029.02
 20
258.65
 11
1029.02
 21
1189.3
  0
ARC
  8
2
  6
CONTINUOUS
 62
     1
 10
1032.02
 20
1189.3
 40
3.0
 50
90.0
 51
180.0
  0
LINE
  8
0
  6
CONTINUOUS
 62
     1
 10
1406.67
 20
1178.4
 11
1408.17
 21
1178.4
  0
LINE
  8
0
  6
CONTINUOUS
 62
     1
 10
1408.17
 20
1184.4
 11
1406.67
 21
1184.4
  0
LINE
  8
0
  6
CONTINUOUS
 62
     1
 10
1410.42
 20
1180.65
 11
1410.42
 21
1182.15
  0
LINE
  8
0
  6
CONTINUOUS
 62
     1
 10
1404.42
 20
1182.15
 11
1404.42
 21
1180.65
  0
LINE
  8
0
  6
CONTINUOUS
 62
     1
 10
1406.67
 20
1184.4
 11
1406.67
 21
1182.15
  0
LINE
  8
0
  6
CONTINUOUS
 62
     1
 10
1406.67
 20
1180.65
 11
1406.67
 21
1178.4
  0
LINE
  8
0
  6
CONTINUOUS
 62
     1
 10
1408.17
 20
1178.4
 11
1408.17
 21
1180.65
  0
LINE
  8
0
  6
CONTINUOUS
 62
     1
 10
1408.17
 20
1182.15
 11
1408.17
 21
1184.4
  0
LINE
  8
0
  6
CONTINUOUS
 62
     1
 10
1404.42
 20
1180.65
 11
1406.67
 21
1180.65
  0
LINE
  8
0
  6
CONTINUOUS
 62
     1
 10
1408.17
 20
1180.65
 11
1410.42
 21
1180.65
  0
LINE
  8
0
  6
CONTINUOUS
 62
     1
 10
1410.42
 20
1182.15
 11
1408.17
 21
1182.15
  0
LINE
  8
0
  6
CONTINUOUS
 62
     1
 10
1406.67
 20
1182.15
 11
1404.42
 21
1182.15
  0
LINE
  8
0
  6
CONTINUOUS
 62
     1
 10
1106.67
 20
1178.4
 11
1108.17
 21
1178.4
  0
LINE
  8
0
  6
CONTINUOUS
 62
     1
 10
1108.17
 20
1184.4
 11
1106.67
 21
1184.4
  0
LINE
  8
0
  6
CONTINUOUS
 62
     1
 10
1110.42
 20
1180.65
 11
1110.42
 21
1182.15
  0
LINE
  8
0
  6
CONTINUOUS
 62
     1
 10
1104.42
 20
1182.15
 11
1104.42
 21
1180.65
  0
LINE
  8
0
  6
CONTINUOUS
 62
     1
 10
1106.67
 20
1184.4
 11
1106.67
 21
1182.15
  0
LINE
  8
0
  6
CONTINUOUS
 62
     1
 10
1106.67
 20
1180.65
 11
1106.67
 21
1178.4
  0
LINE
  8
0
  6
CONTINUOUS
 62
     1
 10
1108.17
 20
1178.4
 11
1108.17
 21
1180.65
  0
LINE
  8
0
  6
CONTINUOUS
 62
     1
 10
1108.17
 20
1182.15
 11
1108.17
 21
1184.4
  0
LINE
  8
0
  6
CONTINUOUS
 62
     1
 10
1104.42
 20
1180.65
 11
1106.67
 21
1180.65
  0
LINE
  8
0
  6
CONTINUOUS
 62
     1
 10
1108.17
 20
1180.65
 11
1110.42
 21
1180.65
  0
LINE
  8
0
  6
CONTINUOUS
 62
     1
 10
1110.42
 20
1182.15
 11
1108.17
 21
1182.15
  0
LINE
  8
0
  6
CONTINUOUS
 62
     1
 10
1106.67
 20
1182.15
 11
1104.42
 21
1182.15
  0
LINE
  8
0
  6
CONTINUOUS
 62
     1
 10
1092.42
 20
1193.9
 11
1092.42
 21
1192.3
  0
LINE
  8
0
  6
CONTINUOUS
 62
     1
 10
1029.02
 20
1192.3
 11
1092.42
 21
1192.3
  0
POLYLINE
  8
0
  6
CONTINUOUS
 62
     1
 66
     1
  0
VERTEX
  8
0
  6
CONTINUOUS
 62
     1
 10
1422.42
 20
1193.9
  0
VERTEX
  8
0
  6
CONTINUOUS
 62
     1
 10
1422.42
 20
1192.3
  0
VERTEX
  8
0
  6
CONTINUOUS
 62
     1
 10
1485.82
 20
1192.3
  0
SEQEND
  0
CIRCLE
  8
2
  6
CONTINUOUS
 62
     1
 10
259.2026
 20
774.75
 40
3.1
  0
CIRCLE
  8
2
  6
CONTINUOUS
 62
     1
 10
259.2026
 20
790.65
 40
3.1
  0
CIRCLE
  8
2
  6
CONTINUOUS
 62
     1
 10
259.2026
 20
806.55
 40
3.1
  0
CIRCLE
  8
2
  6
CONTINUOUS
 62
     1
 10
259.2026
 20
819.2
 40
3.1
  0
CIRCLE
  8
2
  6
CONTINUOUS
 62
     1
 10
259.2026
 20
835.1
 40
3.1
  0
CIRCLE
  8
2
  6
CONTINUOUS
 62
     1
 10
259.2026
 20
851.0
 40
3.1
  0
CIRCLE
  8
2
  6
CONTINUOUS
 62
     1
 10
259.2026
 20
863.65
 40
3.1
  0
CIRCLE
  8
2
  6
CONTINUOUS
 62
     1
 10
259.2026
 20
879.55
 40
3.1
  0
CIRCLE
  8
2
  6
CONTINUOUS
 62
     1
 10
259.2026
 20
895.45
 40
3.1
  0
CIRCLE
  8
2
  6
CONTINUOUS
 62
     1
 10
259.2026
 20
908.1
 40
3.1
  0
CIRCLE
  8
2
  6
CONTINUOUS
 62
     1
 10
259.2026
 20
924.0
 40
3.1
  0
CIRCLE
  8
2
  6
CONTINUOUS
 62
     1
 10
259.2026
 20
939.9
 40
3.1
  0
CIRCLE
  8
2
  6
CONTINUOUS
 62
     1
 10
259.2026
 20
952.55
 40
3.1
  0
CIRCLE
  8
2
  6
CONTINUOUS
 62
     1
 10
259.2026
 20
968.45
 40
3.1
  0
CIRCLE
  8
2
  6
CONTINUOUS
 62
     1
 10
259.2026
 20
984.35
 40
3.1
  0
CIRCLE
  8
2
  6
CONTINUOUS
 62
     1
 10
259.2026
 20
997.0
 40
3.1
  0
CIRCLE
  8
2
  6
CONTINUOUS
 62
     1
 10
259.2026
 20
1012.9
 40
3.1
  0
CIRCLE
  8
2
  6
CONTINUOUS
 62
     1
 10
259.2026
 20
1028.8
 40
3.1
  0
CIRCLE
  8
2
  6
CONTINUOUS
 62
     1
 10
259.2026
 20
1041.45
 40
3.1
  0
CIRCLE
  8
2
  6
CONTINUOUS
 62
     1
 10
259.2026
 20
1057.35
 40
3.1
  0
CIRCLE
  8
2
  6
CONTINUOUS
 62
     1
 10
259.2026
 20
1073.25
 40
3.1
  0
CIRCLE
  8
2
  6
CONTINUOUS
 62
     1
 10
259.2026
 20
1085.9
 40
3.1
  0
CIRCLE
  8
2
  6
CONTINUOUS
 62
     1
 10
259.2026
 20
1101.8
 40
3.1
  0
CIRCLE
  8
2
  6
CONTINUOUS
 62
     1
 10
259.2026
 20
1117.7
 40
3.1
  0
CIRCLE
  8
2
  6
CONTINUOUS
 62
     1
 10
724.3274
 20
774.75
 40
3.1
  0
CIRCLE
  8
2
  6
CONTINUOUS
 62
     1
 10
724.3274
 20
790.65
 40
3.1
  0
CIRCLE
  8
2
  6
CONTINUOUS
 62
     1
 10
724.3274
 20
806.55
 40
3.1
  0
ARC
  8
2
  6
CONTINUOUS
 62
     1
 10
717.265
 20
768.425
 40
1.7
 50
0.0
 51
90.0
  0
ARC
  8
2
  6
CONTINUOUS
 62
     1
 10
717.265
 20
768.425
 40
1.7
 50
270.0
 51
0.0
  0
CIRCLE
  8
2
  6
CONTINUOUS
 62
     1
 10
724.3274
 20
819.2
 40
3.1
  0
CIRCLE
  8
2
  6
CONTINUOUS
 62
     1
 10
724.3274
 20
835.1
 40
3.1
  0
CIRCLE
  8
2
  6
CONTINUOUS
 62
     1
 10
724.3274
 20
851.0
 40
3.1
  0
ARC
  8
2
  6
CONTINUOUS
 62
     1
 10
717.265
 20
812.875
 40
1.7
 50
0.0
 51
90.0
  0
ARC
  8
2
  6
CONTINUOUS
 62
     1
 10
717.265
 20
812.875
 40
1.7
 50
270.0
 51
0.0
  0
CIRCLE
  8
2
  6
CONTINUOUS
 62
     1
 10
724.3274
 20
863.65
 40
3.1
  0
CIRCLE
  8
2
  6
CONTINUOUS
 62
     1
 10
724.3274
 20
879.55
 40
3.1
  0
CIRCLE
  8
2
  6
CONTINUOUS
 62
     1
 10
724.3274
 20
895.45
 40
3.1
  0
ARC
  8
2
  6
CONTINUOUS
 62
     1
 10
717.265
 20
857.325
 40
1.7
 50
0.0
 51
90.0
  0
ARC
  8
2
  6
CONTINUOUS
 62
     1
 10
717.265
 20
857.325
 40
1.7
 50
270.0
 51
0.0
  0
CIRCLE
  8
2
  6
CONTINUOUS
 62
     1
 10
724.3274
 20
908.1
 40
3.1
  0
CIRCLE
  8
2
  6
CONTINUOUS
 62
     1
 10
724.3274
 20
924.0
 40
3.1
  0
CIRCLE
  8
2
  6
CONTINUOUS
 62
     1
 10
724.3274
 20
939.9
 40
3.1
  0
ARC
  8
2
  6
CONTINUOUS
 62
     1
 10
717.265
 20
901.775
 40
1.7
 50
0.0
 51
90.0
  0
ARC
  8
2
  6
CONTINUOUS
 62
     1
 10
717.265
 20
901.775
 40
1.7
 50
270.0
 51
0.0
  0
CIRCLE
  8
2
  6
CONTINUOUS
 62
     1
 10
724.3274
 20
952.55
 40
3.1
  0
CIRCLE
  8
2
  6
CONTINUOUS
 62
     1
 10
724.3274
 20
968.45
 40
3.1
  0
CIRCLE
  8
2
  6
CONTINUOUS
 62
     1
 10
724.3274
 20
984.35
 40
3.1
  0
ARC
  8
2
  6
CONTINUOUS
 62
     1
 10
717.265
 20
946.225
 40
1.7
 50
0.0
 51
90.0
  0
ARC
  8
2
  6
CONTINUOUS
 62
     1
 10
717.265
 20
946.225
 40
1.7
 50
270.0
 51
0.0
  0
CIRCLE
  8
2
  6
CONTINUOUS
 62
     1
 10
724.3274
 20
997.0
 40
3.1
  0
CIRCLE
  8
2
  6
CONTINUOUS
 62
     1
 10
724.3274
 20
1012.9
 40
3.1
  0
CIRCLE
  8
2
  6
CONTINUOUS
 62
     1
 10
724.3274
 20
1028.8
 40
3.1
  0
ARC
  8
2
  6
CONTINUOUS
 62
     1
 10
717.265
 20
990.675
 40
1.7
 50
0.0
 51
90.0
  0
ARC
  8
2
  6
CONTINUOUS
 62
     1
 10
717.265
 20
990.675
 40
1.7
 50
270.0
 51
0.0
  0
CIRCLE
  8
2
  6
CONTINUOUS
 62
     1
 10
724.3274
 20
1041.45
 40
3.1
  0
CIRCLE
  8
2
  6
CONTINUOUS
 62
     1
 10
724.3274
 20
1057.35
 40
3.1
  0
CIRCLE
  8
2
  6
CONTINUOUS
 62
     1
 10
724.3274
 20
1073.25
 40
3.1
  0
ARC
  8
2
  6
CONTINUOUS
 62
     1
 10
717.265
 20
1035.125
 40
1.7
 50
0.0
 51
90.0
  0
ARC
  8
2
  6
CONTINUOUS
 62
     1
 10
717.265
 20
1035.125
 40
1.7
 50
270.0
 51
0.0
  0
CIRCLE
  8
2
  6
CONTINUOUS
 62
     1
 10
724.3274
 20
1085.9
 40
3.1
  0
CIRCLE
  8
2
  6
CONTINUOUS
 62
     1
 10
724.3274
 20
1101.8
 40
3.1
  0
CIRCLE
  8
2
  6
CONTINUOUS
 62
     1
 10
724.3274
 20
1117.7
 40
3.1
  0
ARC
  8
2
  6
CONTINUOUS
 62
     1
 10
717.265
 20
1079.575
 40
1.7
 50
0.0
 51
90.0
  0
ARC
  8
2
  6
CONTINUOUS
 62
     1
 10
717.265
 20
1079.575
 40
1.7
 50
270.0
 51
0.0
  0
LINE
  8
2
  6
CONTINUOUS
 62
     1
 10
717.265
 20
725.675
 11
717.265
 21
766.725
  0
LINE
  8
2
  6
CONTINUOUS
 62
     1
 10
717.265
 20
770.125
 11
717.265
 21
811.175
  0
LINE
  8
2
  6
CONTINUOUS
 62
     1
 10
717.265
 20
814.575
 11
717.265
 21
855.625
  0
LINE
  8
2
  6
CONTINUOUS
 62
     1
 10
717.265
 20
859.025
 11
717.265
 21
900.075
  0
LINE
  8
2
  6
CONTINUOUS
 62
     1
 10
717.265
 20
903.475
 11
717.265
 21
944.525
  0
LINE
  8
2
  6
CONTINUOUS
 62
     1
 10
717.265
 20
947.925
 11
717.265
 21
988.975
  0
LINE
  8
2
  6
CONTINUOUS
 62
     1
 10
717.265
 20
992.375
 11
717.265
 21
1033.425
  0
LINE
  8
2
  6
CONTINUOUS
 62
     1
 10
717.265
 20
1081.275
 11
717.265
 21
1122.325
  0
LINE
  8
2
  6
CONTINUOUS
 62
     1
 10
717.265
 20
1036.825
 11
717.265
 21
1077.875
  0
LINE
  8
2
  6
CONTINUOUS
 62
     1
 10
266.265
 20
725.675
 11
266.265
 21
766.725
  0
LINE
  8
2
  6
CONTINUOUS
 62
     1
 10
266.265
 20
770.125
 11
266.265
 21
811.175
  0
LINE
  8
2
  6
CONTINUOUS
 62
     1
 10
266.265
 20
814.575
 11
266.265
 21
855.625
  0
LINE
  8
2
  6
CONTINUOUS
 62
     1
 10
266.265
 20
859.025
 11
266.265
 21
900.075
  0
LINE
  8
2
  6
CONTINUOUS
 62
     1
 10
266.265
 20
903.475
 11
266.265
 21
944.525
  0
LINE
  8
2
  6
CONTINUOUS
 62
     1
 10
266.265
 20
947.925
 11
266.265
 21
988.975
  0
LINE
  8
2
  6
CONTINUOUS
 62
     1
 10
266.265
 20
992.375
 11
266.265
 21
1033.425
  0
LINE
  8
2
  6
CONTINUOUS
 62
     1
 10
266.265
 20
1036.825
 11
266.265
 21
1077.875
  0
LINE
  8
2
  6
CONTINUOUS
 62
     1
 10
266.265
 20
1081.275
 11
266.265
 21
1122.325
  0
ARC
  8
2
  6
CONTINUOUS
 62
     1
 10
266.265
 20
768.425
 40
1.7
 50
90.0
 51
180.0
  0
ARC
  8
2
  6
CONTINUOUS
 62
     1
 10
266.265
 20
768.425
 40
1.7
 50
180.0
 51
270.0
  0
ARC
  8
2
  6
CONTINUOUS
 62
     1
 10
266.265
 20
812.875
 40
1.7
 50
90.0
 51
180.0
  0
ARC
  8
2
  6
CONTINUOUS
 62
     1
 10
266.265
 20
812.875
 40
1.7
 50
180.0
 51
270.0
  0
ARC
  8
2
  6
CONTINUOUS
 62
     1
 10
266.265
 20
857.325
 40
1.7
 50
90.0
 51
180.0
  0
ARC
  8
2
  6
CONTINUOUS
 62
     1
 10
266.265
 20
857.325
 40
1.7
 50
180.0
 51
270.0
  0
ARC
  8
2
  6
CONTINUOUS
 62
     1
 10
266.265
 20
901.775
 40
1.7
 50
90.0
 51
180.0
  0
ARC
  8
2
  6
CONTINUOUS
 62
     1
 10
266.265
 20
901.775
 40
1.7
 50
180.0
 51
270.0
  0
ARC
  8
2
  6
CONTINUOUS
 62
     1
 10
266.265
 20
946.225
 40
1.7
 50
90.0
 51
180.0
  0
ARC
  8
2
  6
CONTINUOUS
 62
     1
 10
266.265
 20
946.225
 40
1.7
 50
180.0
 51
270.0
  0
ARC
  8
2
  6
CONTINUOUS
 62
     1
 10
266.265
 20
990.675
 40
1.7
 50
90.0
 51
180.0
  0
ARC
  8
2
  6
CONTINUOUS
 62
     1
 10
266.265
 20
990.675
 40
1.7
 50
180.0
 51
270.0
  0
ARC
  8
2
  6
CONTINUOUS
 62
     1
 10
266.265
 20
1035.125
 40
1.7
 50
90.0
 51
180.0
  0
ARC
  8
2
  6
CONTINUOUS
 62
     1
 10
266.265
 20
1035.125
 40
1.7
 50
180.0
 51
270.0
  0
ARC
  8
2
  6
CONTINUOUS
 62
     1
 10
266.265
 20
1079.575
 40
1.7
 50
90.0
 51
180.0
  0
ARC
  8
2
  6
CONTINUOUS
 62
     1
 10
266.265
 20
1079.575
 40
1.7
 50
180.0
 51
270.0
  0
LINE
  8
7
  6
CONTINUOUS
 62
     2
 10
773.765
 20
254.05
 11
860.765
 21
254.05
  0
LINE
  8
7
  6
CONTINUOUS
 62
     2
 10
846.765
 20
254.05
 11
842.235666711
 21
237.14629804
  0
LINE
  8
7
  6
CONTINUOUS
 62
     2
 10
846.765
 20
254.05
 11
851.294333289
 21
237.14629804
  0
LINE
  8
7
  6
CONTINUOUS
 62
     2
 10
846.765
 20
254.05
 11
846.765
 21
189.050001
  0
LINE
  8
7
  6
CONTINUOUS
 62
     2
 10
846.765
 20
189.050001
 11
851.294333289
 21
205.95370296
  0
LINE
  8
7
  6
CONTINUOUS
 62
     2
 10
846.765
 20
189.050001
 11
842.235666711
 21
205.95370296
  0
LINE
  8
7
  6
CONTINUOUS
 62
     2
 10
751.164991273
 20
189.050001
 11
860.765
 21
189.050001
  0
TEXT
  8
7
  6
CONTINUOUS
 62
     2
 10
832.765
 20
207.9000005
 30
2.1
 40
21.0
  1
６５
 50
90.0
 41
0.6
 51
0.0
  7
KANJI0
  0
LINE
  8
7
  6
CONTINUOUS
 62
     2
 10
846.765
 20
254.05
 11
851.294333289
 21
270.95370196
  0
LINE
  8
7
  6
CONTINUOUS
 62
     2
 10
846.765
 20
254.05
 11
842.235666711
 21
270.95370196
  0
LINE
  8
7
  6
CONTINUOUS
 62
     2
 10
846.765
 20
254.05
 11
846.765
 21
1193.9
  0
LINE
  8
7
  6
CONTINUOUS
 62
     2
 10
846.765
 20
1193.9
 11
842.235666711
 21
1176.99629804
  0
LINE
  8
7
  6
CONTINUOUS
 62
     2
 10
846.765
 20
1193.9
 11
851.294333289
 21
1176.99629804
  0
LINE
  8
7
  6
CONTINUOUS
 62
     2
 10
773.765
 20
1193.9
 11
860.765
 21
1193.9
  0
TEXT
  8
7
  6
CONTINUOUS
 62
     2
 10
832.765
 20
702.975
 30
2.1
 40
21.0
  1
９４０
 50
90.0
 41
0.6
 51
0.0
  7
KANJI0
  0
LINE
  8
7
  6
CONTINUOUS
 62
     2
 10
853.765
 20
1193.9
 11
920.765
 21
1193.9
  0
LINE
  8
7
  6
CONTINUOUS
 62
     2
 10
906.765
 20
1193.9
 11
902.235666711
 21
1176.99629804
  0
LINE
  8
7
  6
CONTINUOUS
 62
     2
 10
906.765
 20
1193.9
 11
911.294333289
 21
1176.99629804
  0
LINE
  8
7
  6
CONTINUOUS
 62
     2
 10
906.765
 20
1193.9
 11
906.765
 21
189.050001
  0
LINE
  8
7
  6
CONTINUOUS
 62
     2
 10
906.765
 20
189.050001
 11
911.294333289
 21
205.95370296
  0
LINE
  8
7
  6
CONTINUOUS
 62
     2
 10
906.765
 20
189.050001
 11
902.235666711
 21
205.95370296
  0
LINE
  8
7
  6
CONTINUOUS
 62
     2
 10
853.765
 20
189.050001
 11
920.765
 21
189.050001
  0
TEXT
  8
7
  6
CONTINUOUS
 62
     2
 10
892.765
 20
663.1250005
 30
2.1
 40
21.0
  1
１００５
 50
90.0
 41
0.6
 51
0.0
  7
KANJI0
  0
LINE
  8
7
  6
CONTINUOUS
 62
     2
 10
216.765
 20
1200.9
 11
216.765
 21
1267.9
  0
LINE
  8
7
  6
CONTINUOUS
 62
     2
 10
216.765
 20
1253.9
 11
233.66870196
 21
1249.370666711
  0
LINE
  8
7
  6
CONTINUOUS
 62
     2
 10
216.765
 20
1253.9
 11
233.66870196
 21
1258.429333289
  0
LINE
  8
7
  6
CONTINUOUS
 62
     2
 10
216.765
 20
1253.9
 11
766.765
 21
1253.9
  0
LINE
  8
7
  6
CONTINUOUS
 62
     2
 10
766.765
 20
1253.9
 11
749.86129804
 21
1258.429333289
  0
LINE
  8
7
  6
CONTINUOUS
 62
     2
 10
766.765
 20
1253.9
 11
749.86129804
 21
1249.370666711
  0
LINE
  8
7
  6
CONTINUOUS
 62
     2
 10
766.765
 20
1200.9
 11
766.765
 21
1267.9
  0
TEXT
  8
7
  6
CONTINUOUS
 62
     2
 10
470.765
 20
1267.9
 30
2.1
 40
21.0
  1
５５０
 50
0.0
 41
0.6
 51
0.0
  7
KANJI0
  0
LINE
  8
7
  6
CONTINUOUS
 62
     2
 10
1027.42
 20
1200.9
 11
1027.42
 21
1267.9
  0
LINE
  8
7
  6
CONTINUOUS
 62
     2
 10
1027.42
 20
1253.9
 11
1044.32370196
 21
1249.370666711
  0
LINE
  8
7
  6
CONTINUOUS
 62
     2
 10
1027.42
 20
1253.9
 11
1044.32370196
 21
1258.429333289
  0
LINE
  8
7
  6
CONTINUOUS
 62
     2
 10
1027.42
 20
1253.9
 11
1487.42
 21
1253.9
  0
LINE
  8
7
  6
CONTINUOUS
 62
     2
 10
1487.42
 20
1253.9
 11
1470.51629804
 21
1258.429333289
  0
LINE
  8
7
  6
CONTINUOUS
 62
     2
 10
1487.42
 20
1253.9
 11
1470.51629804
 21
1249.370666711
  0
LINE
  8
7
  6
CONTINUOUS
 62
     2
 10
1487.42
 20
1200.9
 11
1487.42
 21
1267.9
  0
TEXT
  8
7
  6
CONTINUOUS
 62
     2
 10
1236.42
 20
1267.9
 30
2.1
 40
21.0
  1
４６０
 50
0.0
 41
0.6
 51
0.0
  7
KANJI0
  0
TEXT
  8
0
  6
CONTINUOUS
 62
     2
 10
321.2
 20
120.0
 30
2.1
 40
35.0
  1
ＡＬ－２０Ｋ－Ｎ
 50
0.0
 41
0.94
 51
0.0
  7
KANJI1
  0
TEXT
  8
0
  6
CONTINUOUS
 62
     2
 10
931.85
 20
52.95
 30
2.1
 40
35.0
  1
Ａ４　１／７
 50
0.0
 41
0.94
 51
0.0
  7
KANJI1
  0
LINE
  8
7
  6
CONTINUOUS
 62
     2
 10
239.365
 20
246.950001
 11
223.564997
 21
246.950001
  0
LINE
  8
7
  6
CONTINUOUS
 62
     2
 10
226.365
 20
231.1334091
 11
226.365
 21
205.05
  0
LINE
  8
7
  6
CONTINUOUS
 62
     2
 10
224.365
 20
243.15
 11
224.365
 21
205.05
  0
LINE
  8
7
  6
CONTINUOUS
 62
     2
 10
224.365
 20
205.05
 11
226.365
 21
205.05
  0
LINE
  8
7
  6
CONTINUOUS
 62
     2
 10
222.865015
 20
210.55
 11
222.865015
 21
217.550002
  0
LINE
  8
7
  6
CONTINUOUS
 62
     2
 10
223.865
 20
209.450013
 11
224.365008
 21
210.800015
  0
LINE
  8
7
  6
CONTINUOUS
 62
     2
 10
226.365
 20
210.8
 11
227.365
 21
210.8
  0
LINE
  8
7
  6
CONTINUOUS
 62
     2
 10
254.364985
 20
209.3
 11
254.664988
 21
209.3
  0
LINE
  8
7
  6
CONTINUOUS
 62
     2
 10
226.365
 20
217.3
 11
227.365
 21
217.3
  0
LINE
  8
7
  6
CONTINUOUS
 62
     2
 10
254.364985
 20
218.8
 11
254.664988
 21
218.8
  0
LINE
  8
7
  6
CONTINUOUS
 62
     2
 10
252.365
 20
205.05
 11
252.365
 21
231.1334091
  0
LINE
  8
7
  6
CONTINUOUS
 62
     2
 10
254.364985
 20
205.05
 11
254.364985
 21
243.15
  0
LINE
  8
7
  6
CONTINUOUS
 62
     2
 10
224.365008
 20
217.300001
 11
223.865008
 21
218.65
  0
LINE
  8
7
  6
CONTINUOUS
 62
     2
 10
223.865015
 20
209.450002
 11
223.865015
 21
218.649997
  0
LINE
  8
7
  6
CONTINUOUS
 62
     2
 10
254.664988
 20
209.3
 11
254.664988
 21
218.8
  0
LINE
  8
7
  6
CONTINUOUS
 62
     2
 10
228.365
 20
203.05
 11
229.365
 21
203.05
  0
LINE
  8
7
  6
CONTINUOUS
 62
     2
 10
227.365
 20
214.05
 11
227.365
 21
204.05
  0
LINE
  8
7
  6
CONTINUOUS
 62
     2
 10
251.365
 20
214.05
 11
251.365
 21
204.05
  0
LINE
  8
7
  6
CONTINUOUS
 62
     2
 10
249.365
 20
203.05
 11
250.365
 21
203.05
  0
LINE
  8
7
  6
CONTINUOUS
 62
     2
 10
229.365
 20
214.05
 11
229.365
 21
191.72136
  0
LINE
  8
7
  6
CONTINUOUS
 62
     2
 10
249.365
 20
214.05
 11
249.365
 21
191.72136
  0
LINE
  8
7
  6
CONTINUOUS
 62
     2
 10
229.365
 20
214.05
 11
229.365
 21
230.3201507
  0
LINE
  8
7
  6
CONTINUOUS
 62
     2
 10
249.365
 20
214.05
 11
249.365
 21
230.3201507
  0
LINE
  8
7
  6
CONTINUOUS
 62
     2
 10
228.365
 20
225.05
 11
229.365
 21
225.05
  0
LINE
  8
7
  6
CONTINUOUS
 62
     2
 10
249.365
 20
225.05
 11
250.365
 21
225.05
  0
LINE
  8
7
  6
CONTINUOUS
 62
     2
 10
227.365
 20
214.05
 11
227.365
 21
224.05
  0
LINE
  8
7
  6
CONTINUOUS
 62
     2
 10
251.365
 20
214.05
 11
251.365
 21
224.05
  0
LINE
  8
7
  6
CONTINUOUS
 62
     2
 10
251.365
 20
217.3
 11
252.365
 21
217.3
  0
LINE
  8
7
  6
CONTINUOUS
 62
     2
 10
251.365
 20
210.8
 11
252.365
 21
210.8
  0
LINE
  8
7
  6
CONTINUOUS
 62
     2
 10
252.365
 20
205.05
 11
254.364985
 21
205.05
  0
LINE
  8
7
  6
CONTINUOUS
 62
     2
 10
239.365
 20
246.950001
 11
255.165003
 21
246.950001
  0
LINE
  8
7
  6
CONTINUOUS
 62
     2
 10
239.365
 20
251.750001
 11
223.865
 21
251.750001
  0
LINE
  8
7
  6
CONTINUOUS
 62
     2
 10
239.365
 20
247.65
 11
223.064997
 21
247.65
  0
LINE
  8
7
  6
CONTINUOUS
 62
     2
 10
223.064997
 20
249.250001
 11
223.064997
 21
247.65
  0
LINE
  8
7
  6
CONTINUOUS
 62
     2
 10
239.365
 20
249.250001
 11
223.064997
 21
249.250001
  0
LINE
  8
7
  6
CONTINUOUS
 62
     2
 10
239.365
 20
251.750001
 11
254.865
 21
251.750001
  0
LINE
  8
7
  6
CONTINUOUS
 62
     2
 10
239.365
 20
247.65
 11
255.664999
 21
247.65
  0
LINE
  8
7
  6
CONTINUOUS
 62
     2
 10
255.664999
 20
249.250001
 11
255.664999
 21
247.65
  0
LINE
  8
7
  6
CONTINUOUS
 62
     2
 10
239.365
 20
249.250001
 11
255.664999
 21
249.250001
  0
LINE
  8
7
  6
CONTINUOUS
 62
     2
 10
223.865
 20
254.05
 11
223.865
 21
251.750001
  0
LINE
  8
7
  6
CONTINUOUS
 62
     2
 10
254.865
 20
254.05
 11
254.865
 21
251.750001
  0
LINE
  8
7
  6
CONTINUOUS
 62
     2
 10
223.865
 20
254.05
 11
254.865
 21
254.05
  0
LINE
  8
7
  6
CONTINUOUS
 62
     2
 10
220.366678
 20
243.853831
 11
219.887102
 21
229.0811637
  0
LINE
  8
7
  6
CONTINUOUS
 62
     2
 10
258.363318
 20
243.853831
 11
258.842901
 21
229.0811637
  0
ARC
  8
7
  6
CONTINUOUS
 62
     2
 10
223.564997
 20
243.750001
 40
3.2
 50
90.000003
 51
178.1406
  0
ARC
  8
7
  6
CONTINUOUS
 62
     2
 10
261.864985
 20
227.7183869
 40
42.0
 50
178.1406
 51
201.7869
  0
ARC
  8
7
  6
CONTINUOUS
 62
     2
 10
225.51562
 20
216.144906
 40
3.0
 50
123.38087
 51
152.07177
  0
ARC
  8
7
  6
CONTINUOUS
 62
     2
 10
251.402476
 20
214.05
 40
5.7625051
 50
304.48304
 51
55.516969
  0
ARC
  8
7
  6
CONTINUOUS
 62
     2
 10
225.51562
 20
211.955098
 40
3.0
 50
207.92826
 51
236.61915
  0
ARC
  8
7
  6
CONTINUOUS
 62
     2
 10
231.365
 20
191.72136
 40
2.0
 50
179.99998
 51
260.40583
  0
ARC
  8
7
  6
CONTINUOUS
 62
     2
 10
247.365
 20
191.72136
 40
2.0
 50
279.59415
 51
0.0
  0
ARC
  8
7
  6
CONTINUOUS
 62
     2
 10
239.365
 20
239.050001
 40
50.0
 50
260.40591
 51
279.59407
  0
ARC
  8
7
  6
CONTINUOUS
 62
     2
 10
250.365
 20
204.05
 40
1.0
 50
270.00002
 51
0.0
  0
ARC
  8
7
  6
CONTINUOUS
 62
     2
 10
228.365
 20
204.05
 40
1.0
 50
179.99998
 51
270.00003
  0
ARC
  8
7
  6
CONTINUOUS
 62
     2
 10
228.365
 20
224.05
 40
1.0
 50
89.999982
 51
180.00002
  0
ARC
  8
7
  6
CONTINUOUS
 62
     2
 10
250.365
 20
224.05
 40
1.0
 50
0.0
 51
89.999982
  0
ARC
  8
7
  6
CONTINUOUS
 62
     2
 10
216.865015
 20
227.7183869
 40
42.0
 50
333.23441
 51
333.98968
  0
ARC
  8
7
  6
CONTINUOUS
 62
     2
 10
255.165003
 20
243.750001
 40
3.2
 50
1.8594063
 51
89.999996
  0
ARC
  8
7
  6
CONTINUOUS
 62
     2
 10
261.864985
 20
227.7183869
 40
42.0
 50
205.46043
 51
206.76555
  0
ARC
  8
7
  6
CONTINUOUS
 62
     2
 10
216.865015
 20
227.7183869
 40
42.0
 50
342.90984
 51
1.8594063
  0
ARC
  8
7
  6
CONTINUOUS
 62
     2
 10
253.864985
 20
232.15000122
 40
0.5
 50
0.0
 51
110.78393
  0
ARC
  8
7
  6
CONTINUOUS
 62
     2
 10
224.865
 20
232.15000122
 40
0.5
 50
69.216065
 51
180.00001
  0
ARC
  8
7
  6
CONTINUOUS
 62
     2
 10
239.365
 20
273.148713
 40
43.980515
 50
252.80735
 51
287.19265
  0
ARC
  8
7
  6
CONTINUOUS
 62
     2
 10
239.364992
 20
270.353761
 40
40.362907
 50
249.21607
 51
290.78394
  0
ARC
  8
7
  6
CONTINUOUS
 62
     2
 10
239.364992
 20
384.97476
 40
141.02475
 50
263.89423
 51
276.10577
  0
ARC
  8
7
  6
CONTINUOUS
 62
     2
 10
239.365
 20
248.034501
 40
1.9845001
 50
191.17178
 51
213.12623
  0
ARC
  8
7
  6
CONTINUOUS
 62
     2
 10
226.865
 20
248.034501
 40
1.9845001
 50
191.17179
 51
213.12623
  0
ARC
  8
7
  6
CONTINUOUS
 62
     2
 10
223.064997
 20
249.55
 40
0.30000001
 50
270.00002
 51
342.99648
  0
ARC
  8
7
  6
CONTINUOUS
 62
     2
 10
226.698893
 20
248.438763
 40
3.5
 50
108.9031
 51
162.99647
  0
ARC
  8
7
  6
CONTINUOUS
 62
     2
 10
235.306254
 20
248.034501
 40
1.9845001
 50
191.17178
 51
213.12623
  0
ARC
  8
7
  6
CONTINUOUS
 62
     2
 10
231.687342
 20
248.034501
 40
1.9845001
 50
191.17179
 51
213.12623
  0
ARC
  8
7
  6
CONTINUOUS
 62
     2
 10
228.900416
 20
248.034501
 40
1.9845001
 50
191.17179
 51
213.12623
  0
ARC
  8
7
  6
CONTINUOUS
 62
     2
 10
227.247492
 20
248.034501
 40
1.9845001
 50
191.17179
 51
213.12623
  0
ARC
  8
7
  6
CONTINUOUS
 62
     2
 10
239.365
 20
248.034501
 40
1.9845001
 50
326.87377
 51
348.8282
  0
ARC
  8
7
  6
CONTINUOUS
 62
     2
 10
251.865
 20
248.034501
 40
1.9845001
 50
326.87377
 51
348.82818
  0
ARC
  8
7
  6
CONTINUOUS
 62
     2
 10
255.664999
 20
249.55
 40
0.30000001
 50
197.00351
 51
269.99996
  0
ARC
  8
7
  6
CONTINUOUS
 62
     2
 10
252.031111
 20
248.438763
 40
3.5
 50
17.003496
 51
71.09686
  0
ARC
  8
7
  6
CONTINUOUS
 62
     2
 10
243.423746
 20
248.034501
 40
1.9845001
 50
191.17178
 51
213.12623
  0
ARC
  8
7
  6
CONTINUOUS
 62
     2
 10
247.042658
 20
248.034501
 40
1.9845001
 50
204.24535
 51
213.12623
  0
ARC
  8
7
  6
CONTINUOUS
 62
     2
 10
249.829581
 20
248.034501
 40
1.9845001
 50
326.87377
 51
348.82819
  0
ARC
  8
7
  6
CONTINUOUS
 62
     2
 10
251.482504
 20
248.034501
 40
1.9845001
 50
326.87377
 51
348.82819
  0
ARC
  8
7
  6
CONTINUOUS
 62
     2
 10
231.687342
 20
248.034501
 40
1.9845001
 50
326.87377
 51
335.75464
  0
ARC
  8
7
  6
CONTINUOUS
 62
     2
 10
235.306254
 20
248.034501
 40
1.9845001
 50
326.87377
 51
348.8282
  0
ARC
  8
7
  6
CONTINUOUS
 62
     2
 10
243.423746
 20
248.034501
 40
1.9845001
 50
326.87377
 51
348.8282
  0
ARC
  8
7
  6
CONTINUOUS
 62
     2
 10
247.042658
 20
248.034501
 40
1.9845001
 50
326.87377
 51
348.82819
  0
LINE
  8
7
  6
CONTINUOUS
 62
     2
 10
744.165
 20
246.950001
 11
728.364997
 21
246.950001
  0
LINE
  8
7
  6
CONTINUOUS
 62
     2
 10
731.165
 20
231.1334091
 11
731.165
 21
205.05
  0
LINE
  8
7
  6
CONTINUOUS
 62
     2
 10
729.165
 20
243.15
 11
729.165
 21
205.05
  0
LINE
  8
7
  6
CONTINUOUS
 62
     2
 10
729.165
 20
205.05
 11
731.165
 21
205.05
  0
LINE
  8
7
  6
CONTINUOUS
 62
     2
 10
727.665015
 20
210.55
 11
727.665015
 21
217.550002
  0
LINE
  8
7
  6
CONTINUOUS
 62
     2
 10
728.665
 20
209.450013
 11
729.165008
 21
210.800015
  0
LINE
  8
7
  6
CONTINUOUS
 62
     2
 10
731.165
 20
210.8
 11
732.165
 21
210.8
  0
LINE
  8
7
  6
CONTINUOUS
 62
     2
 10
759.164985
 20
209.3
 11
759.464988
 21
209.3
  0
LINE
  8
7
  6
CONTINUOUS
 62
     2
 10
731.165
 20
217.3
 11
732.165
 21
217.3
  0
LINE
  8
7
  6
CONTINUOUS
 62
     2
 10
759.164985
 20
218.8
 11
759.464988
 21
218.8
  0
LINE
  8
7
  6
CONTINUOUS
 62
     2
 10
757.165
 20
205.05
 11
757.165
 21
231.1334091
  0
LINE
  8
7
  6
CONTINUOUS
 62
     2
 10
759.164985
 20
205.05
 11
759.164985
 21
243.15
  0
LINE
  8
7
  6
CONTINUOUS
 62
     2
 10
729.165008
 20
217.300001
 11
728.665008
 21
218.65
  0
LINE
  8
7
  6
CONTINUOUS
 62
     2
 10
728.665015
 20
209.450002
 11
728.665015
 21
218.649997
  0
LINE
  8
7
  6
CONTINUOUS
 62
     2
 10
759.464988
 20
209.3
 11
759.464988
 21
218.8
  0
LINE
  8
7
  6
CONTINUOUS
 62
     2
 10
733.165
 20
203.05
 11
734.165
 21
203.05
  0
LINE
  8
7
  6
CONTINUOUS
 62
     2
 10
732.165
 20
214.05
 11
732.165
 21
204.05
  0
LINE
  8
7
  6
CONTINUOUS
 62
     2
 10
756.165
 20
214.05
 11
756.165
 21
204.05
  0
LINE
  8
7
  6
CONTINUOUS
 62
     2
 10
754.165
 20
203.05
 11
755.165
 21
203.05
  0
LINE
  8
7
  6
CONTINUOUS
 62
     2
 10
734.165
 20
214.05
 11
734.165
 21
191.72136
  0
LINE
  8
7
  6
CONTINUOUS
 62
     2
 10
754.165
 20
214.05
 11
754.165
 21
191.72136
  0
LINE
  8
7
  6
CONTINUOUS
 62
     2
 10
734.165
 20
214.05
 11
734.165
 21
230.3201507
  0
LINE
  8
7
  6
CONTINUOUS
 62
     2
 10
754.165
 20
214.05
 11
754.165
 21
230.3201507
  0
LINE
  8
7
  6
CONTINUOUS
 62
     2
 10
733.165
 20
225.05
 11
734.165
 21
225.05
  0
LINE
  8
7
  6
CONTINUOUS
 62
     2
 10
754.165
 20
225.05
 11
755.165
 21
225.05
  0
LINE
  8
7
  6
CONTINUOUS
 62
     2
 10
732.165
 20
214.05
 11
732.165
 21
224.05
  0
LINE
  8
7
  6
CONTINUOUS
 62
     2
 10
756.165
 20
214.05
 11
756.165
 21
224.05
  0
LINE
  8
7
  6
CONTINUOUS
 62
     2
 10
756.165
 20
217.3
 11
757.165
 21
217.3
  0
LINE
  8
7
  6
CONTINUOUS
 62
     2
 10
756.165
 20
210.8
 11
757.165
 21
210.8
  0
LINE
  8
7
  6
CONTINUOUS
 62
     2
 10
757.165
 20
205.05
 11
759.164985
 21
205.05
  0
LINE
  8
7
  6
CONTINUOUS
 62
     2
 10
744.165
 20
246.950001
 11
759.965003
 21
246.950001
  0
LINE
  8
7
  6
CONTINUOUS
 62
     2
 10
744.165
 20
251.750001
 11
728.665
 21
251.750001
  0
LINE
  8
7
  6
CONTINUOUS
 62
     2
 10
744.165
 20
247.65
 11
727.864997
 21
247.65
  0
LINE
  8
7
  6
CONTINUOUS
 62
     2
 10
727.864997
 20
249.250001
 11
727.864997
 21
247.65
  0
LINE
  8
7
  6
CONTINUOUS
 62
     2
 10
744.165
 20
249.250001
 11
727.864997
 21
249.250001
  0
LINE
  8
7
  6
CONTINUOUS
 62
     2
 10
744.165
 20
251.750001
 11
759.665
 21
251.750001
  0
LINE
  8
7
  6
CONTINUOUS
 62
     2
 10
744.165
 20
247.65
 11
760.464999
 21
247.65
  0
LINE
  8
7
  6
CONTINUOUS
 62
     2
 10
760.464999
 20
249.250001
 11
760.464999
 21
247.65
  0
LINE
  8
7
  6
CONTINUOUS
 62
     2
 10
744.165
 20
249.250001
 11
760.464999
 21
249.250001
  0
LINE
  8
7
  6
CONTINUOUS
 62
     2
 10
728.665
 20
254.05
 11
728.665
 21
251.750001
  0
LINE
  8
7
  6
CONTINUOUS
 62
     2
 10
759.665
 20
254.05
 11
759.665
 21
251.750001
  0
LINE
  8
7
  6
CONTINUOUS
 62
     2
 10
728.665
 20
254.05
 11
759.665
 21
254.05
  0
LINE
  8
7
  6
CONTINUOUS
 62
     2
 10
725.166678
 20
243.853831
 11
724.687102
 21
229.0811637
  0
LINE
  8
7
  6
CONTINUOUS
 62
     2
 10
763.163318
 20
243.853831
 11
763.642901
 21
229.0811637
  0
ARC
  8
7
  6
CONTINUOUS
 62
     2
 10
728.364997
 20
243.750001
 40
3.2
 50
90.000003
 51
178.1406
  0
ARC
  8
7
  6
CONTINUOUS
 62
     2
 10
766.664985
 20
227.7183869
 40
42.0
 50
178.1406
 51
201.7869
  0
ARC
  8
7
  6
CONTINUOUS
 62
     2
 10
730.31562
 20
216.144906
 40
3.0
 50
123.38087
 51
152.07177
  0
ARC
  8
7
  6
CONTINUOUS
 62
     2
 10
756.202476
 20
214.05
 40
5.7625051
 50
304.48304
 51
55.516969
  0
ARC
  8
7
  6
CONTINUOUS
 62
     2
 10
730.31562
 20
211.955098
 40
3.0
 50
207.92826
 51
236.61915
  0
ARC
  8
7
  6
CONTINUOUS
 62
     2
 10
736.165
 20
191.72136
 40
2.0
 50
179.99998
 51
260.40583
  0
ARC
  8
7
  6
CONTINUOUS
 62
     2
 10
752.165
 20
191.72136
 40
2.0
 50
279.59415
 51
0.0
  0
ARC
  8
7
  6
CONTINUOUS
 62
     2
 10
744.165
 20
239.050001
 40
50.0
 50
260.40591
 51
279.59407
  0
ARC
  8
7
  6
CONTINUOUS
 62
     2
 10
755.165
 20
204.05
 40
1.0
 50
270.00002
 51
0.0
  0
ARC
  8
7
  6
CONTINUOUS
 62
     2
 10
733.165
 20
204.05
 40
1.0
 50
179.99998
 51
270.00003
  0
ARC
  8
7
  6
CONTINUOUS
 62
     2
 10
733.165
 20
224.05
 40
1.0
 50
89.999982
 51
180.00002
  0
ARC
  8
7
  6
CONTINUOUS
 62
     2
 10
755.165
 20
224.05
 40
1.0
 50
0.0
 51
89.999982
  0
ARC
  8
7
  6
CONTINUOUS
 62
     2
 10
721.665015
 20
227.7183869
 40
42.0
 50
333.23441
 51
333.98968
  0
ARC
  8
7
  6
CONTINUOUS
 62
     2
 10
759.965003
 20
243.750001
 40
3.2
 50
1.8594063
 51
89.999996
  0
ARC
  8
7
  6
CONTINUOUS
 62
     2
 10
766.664985
 20
227.7183869
 40
42.0
 50
205.46043
 51
206.76555
  0
ARC
  8
7
  6
CONTINUOUS
 62
     2
 10
721.665015
 20
227.7183869
 40
42.0
 50
342.90984
 51
1.8594063
  0
ARC
  8
7
  6
CONTINUOUS
 62
     2
 10
758.664985
 20
232.15000122
 40
0.5
 50
0.0
 51
110.78393
  0
ARC
  8
7
  6
CONTINUOUS
 62
     2
 10
729.665
 20
232.15000122
 40
0.5
 50
69.216065
 51
180.00001
  0
ARC
  8
7
  6
CONTINUOUS
 62
     2
 10
744.165
 20
273.148713
 40
43.980515
 50
252.80735
 51
287.19265
  0
ARC
  8
7
  6
CONTINUOUS
 62
     2
 10
744.164992
 20
270.353761
 40
40.362907
 50
249.21607
 51
290.78394
  0
ARC
  8
7
  6
CONTINUOUS
 62
     2
 10
744.164992
 20
384.97476
 40
141.02475
 50
263.89423
 51
276.10577
  0
ARC
  8
7
  6
CONTINUOUS
 62
     2
 10
744.165
 20
248.034501
 40
1.9845001
 50
191.17178
 51
213.12623
  0
ARC
  8
7
  6
CONTINUOUS
 62
     2
 10
731.665
 20
248.034501
 40
1.9845001
 50
191.17179
 51
213.12623
  0
ARC
  8
7
  6
CONTINUOUS
 62
     2
 10
727.864997
 20
249.55
 40
0.30000001
 50
270.00002
 51
342.99648
  0
ARC
  8
7
  6
CONTINUOUS
 62
     2
 10
731.498893
 20
248.438763
 40
3.5
 50
108.9031
 51
162.99647
  0
ARC
  8
7
  6
CONTINUOUS
 62
     2
 10
740.106254
 20
248.034501
 40
1.9845001
 50
191.17178
 51
213.12623
  0
ARC
  8
7
  6
CONTINUOUS
 62
     2
 10
736.487342
 20
248.034501
 40
1.9845001
 50
191.17179
 51
213.12623
  0
ARC
  8
7
  6
CONTINUOUS
 62
     2
 10
733.700416
 20
248.034501
 40
1.9845001
 50
191.17179
 51
213.12623
  0
ARC
  8
7
  6
CONTINUOUS
 62
     2
 10
732.047492
 20
248.034501
 40
1.9845001
 50
191.17179
 51
213.12623
  0
ARC
  8
7
  6
CONTINUOUS
 62
     2
 10
744.165
 20
248.034501
 40
1.9845001
 50
326.87377
 51
348.8282
  0
ARC
  8
7
  6
CONTINUOUS
 62
     2
 10
756.665
 20
248.034501
 40
1.9845001
 50
326.87377
 51
348.82818
  0
ARC
  8
7
  6
CONTINUOUS
 62
     2
 10
760.464999
 20
249.55
 40
0.30000001
 50
197.00351
 51
269.99996
  0
ARC
  8
7
  6
CONTINUOUS
 62
     2
 10
756.831111
 20
248.438763
 40
3.5
 50
17.003496
 51
71.09686
  0
ARC
  8
7
  6
CONTINUOUS
 62
     2
 10
748.223746
 20
248.034501
 40
1.9845001
 50
191.17178
 51
213.12623
  0
ARC
  8
7
  6
CONTINUOUS
 62
     2
 10
751.842658
 20
248.034501
 40
1.9845001
 50
204.24535
 51
213.12623
  0
ARC
  8
7
  6
CONTINUOUS
 62
     2
 10
754.629581
 20
248.034501
 40
1.9845001
 50
326.87377
 51
348.82819
  0
ARC
  8
7
  6
CONTINUOUS
 62
     2
 10
756.282504
 20
248.034501
 40
1.9845001
 50
326.87377
 51
348.82819
  0
ARC
  8
7
  6
CONTINUOUS
 62
     2
 10
736.487342
 20
248.034501
 40
1.9845001
 50
326.87377
 51
335.75464
  0
ARC
  8
7
  6
CONTINUOUS
 62
     2
 10
740.106254
 20
248.034501
 40
1.9845001
 50
326.87377
 51
348.8282
  0
ARC
  8
7
  6
CONTINUOUS
 62
     2
 10
748.223746
 20
248.034501
 40
1.9845001
 50
326.87377
 51
348.8282
  0
ARC
  8
7
  6
CONTINUOUS
 62
     2
 10
751.842658
 20
248.034501
 40
1.9845001
 50
326.87377
 51
348.82819
  0
LINE
  8
7
  6
CONTINUOUS
 62
     2
 10
1079.42
 20
243.750001
 11
1079.42
 21
238.9500006
  0
LINE
  8
7
  6
CONTINUOUS
 62
     2
 10
1060.42
 20
246.950001
 11
1076.22
 21
246.950001
  0
LINE
  8
7
  6
CONTINUOUS
 62
     2
 10
1060.42
 20
246.950001
 11
1044.619997
 21
246.950001
  0
LINE
  8
7
  6
CONTINUOUS
 62
     2
 10
1040.42
 20
243.95
 11
1042.286158
 21
245.939335
  0
LINE
  8
7
  6
CONTINUOUS
 62
     2
 10
1048.758097
 20
243.15
 11
1048.758097
 21
211.662434
  0
LINE
  8
7
  6
CONTINUOUS
 62
     2
 10
1071.42
 20
237.7499998
 11
1079.42
 21
238.9500001
  0
LINE
  8
7
  6
CONTINUOUS
 62
     2
 10
1040.42
 20
243.950001
 11
1044.019998
 21
244.750001
  0
LINE
  8
7
  6
CONTINUOUS
 62
     2
 10
1016.120001
 20
231.6500016
 11
1014.92
 21
228.9908555
  0
LINE
  8
7
  6
CONTINUOUS
 62
     2
 10
1017.62982
 20
230.1334091
 11
1016.742971
 21
228.168197
  0
LINE
  8
7
  6
CONTINUOUS
 62
     2
 10
1016.742971
 20
228.168197
 11
1014.92
 21
228.9908555
  0
LINE
  8
7
  6
CONTINUOUS
 62
     2
 10
1060.42
 20
251.750001
 11
1034.92
 21
251.750001
  0
LINE
  8
7
  6
CONTINUOUS
 62
     2
 10
1060.42
 20
247.65
 11
1044.119997
 21
247.65
  0
LINE
  8
7
  6
CONTINUOUS
 62
     2
 10
1044.119997
 20
249.250001
 11
1044.119997
 21
247.65
  0
LINE
  8
7
  6
CONTINUOUS
 62
     2
 10
1060.42
 20
249.250001
 11
1044.119997
 21
249.250001
  0
LINE
  8
7
  6
CONTINUOUS
 62
     2
 10
1060.42
 20
251.750001
 11
1085.92
 21
251.750001
  0
LINE
  8
7
  6
CONTINUOUS
 62
     2
 10
1060.42
 20
247.65
 11
1076.72
 21
247.65
  0
LINE
  8
7
  6
CONTINUOUS
 62
     2
 10
1076.72
 20
249.250001
 11
1076.72
 21
247.65
  0
LINE
  8
7
  6
CONTINUOUS
 62
     2
 10
1060.42
 20
249.250001
 11
1076.72
 21
249.250001
  0
LINE
  8
7
  6
CONTINUOUS
 62
     2
 10
1034.92
 20
254.05
 11
1034.92
 21
251.750001
  0
LINE
  8
7
  6
CONTINUOUS
 62
     2
 10
1034.92
 20
254.05
 11
1085.92
 21
254.05
  0
LINE
  8
7
  6
CONTINUOUS
 62
     2
 10
1085.92
 20
254.05
 11
1085.92
 21
251.750001
  0
LINE
  8
7
  6
CONTINUOUS
 62
     2
 10
1064.494448
 20
233.27260313
 11
1048.988062
 21
209.179227
  0
ARC
  8
7
  6
CONTINUOUS
 62
     2
 10
1076.22
 20
243.750001
 40
3.2
 50
0.0
 51
90.000003
  0
ARC
  8
7
  6
CONTINUOUS
 62
     2
 10
1044.619997
 20
243.750001
 40
3.2
 50
90.000003
 51
136.82986
  0
ARC
  8
7
  6
CONTINUOUS
 62
     2
 10
1041.42
 20
214.05
 40
25.0
 50
147.63156
 51
36.134661
  0
ARC
  8
7
  6
CONTINUOUS
 62
     2
 10
1041.42
 20
214.05
 40
9.0
 50
210.25629
 51
327.23486
  0
ARC
  8
7
  6
CONTINUOUS
 62
     2
 10
1072.903406
 20
227.860637
 40
10.0
 50
98.530765
 51
147.23486
  0
ARC
  8
7
  6
CONTINUOUS
 62
     2
 10
1040.342173
 20
213.950103
 40
30.0
 50
89.851357
 51
143.84322
  0
CIRCLE
  8
7
  6
CONTINUOUS
 62
     2
 10
1041.42
 20
214.05
 40
4.75
  0
ARC
  8
7
  6
CONTINUOUS
 62
     2
 10
1060.42
 20
248.034501
 40
1.9845001
 50
191.17178
 51
213.12623
  0
ARC
  8
7
  6
CONTINUOUS
 62
     2
 10
1047.92
 20
248.034501
 40
1.9845001
 50
191.17179
 51
213.12623
  0
ARC
  8
7
  6
CONTINUOUS
 62
     2
 10
1044.119997
 20
249.55
 40
0.30000001
 50
270.00002
 51
342.99648
  0
ARC
  8
7
  6
CONTINUOUS
 62
     2
 10
1047.753893
 20
248.438763
 40
3.5
 50
108.9031
 51
162.99647
  0
ARC
  8
7
  6
CONTINUOUS
 62
     2
 10
1056.361254
 20
248.034501
 40
1.9845001
 50
191.17178
 51
213.12623
  0
ARC
  8
7
  6
CONTINUOUS
 62
     2
 10
1052.742342
 20
248.034501
 40
1.9845001
 50
191.17179
 51
213.12623
  0
ARC
  8
7
  6
CONTINUOUS
 62
     2
 10
1049.955416
 20
248.034501
 40
1.9845001
 50
191.17179
 51
213.12623
  0
ARC
  8
7
  6
CONTINUOUS
 62
     2
 10
1048.302492
 20
248.034501
 40
1.9845001
 50
191.17179
 51
213.12623
  0
ARC
  8
7
  6
CONTINUOUS
 62
     2
 10
1060.42
 20
248.034501
 40
1.9845001
 50
326.87377
 51
348.8282
  0
ARC
  8
7
  6
CONTINUOUS
 62
     2
 10
1072.92
 20
248.034501
 40
1.9845001
 50
326.87377
 51
348.82818
  0
ARC
  8
7
  6
CONTINUOUS
 62
     2
 10
1076.72
 20
249.55
 40
0.30000001
 50
197.00351
 51
269.99996
  0
ARC
  8
7
  6
CONTINUOUS
 62
     2
 10
1073.086107
 20
248.438763
 40
3.5
 50
17.003496
 51
71.09686
  0
ARC
  8
7
  6
CONTINUOUS
 62
     2
 10
1064.478746
 20
248.034501
 40
1.9845001
 50
191.17178
 51
213.12623
  0
ARC
  8
7
  6
CONTINUOUS
 62
     2
 10
1068.097658
 20
248.034501
 40
1.9845001
 50
204.24535
 51
213.12623
  0
ARC
  8
7
  6
CONTINUOUS
 62
     2
 10
1070.884584
 20
248.034501
 40
1.9845001
 50
326.87377
 51
348.82819
  0
ARC
  8
7
  6
CONTINUOUS
 62
     2
 10
1072.537508
 20
248.034501
 40
1.9845001
 50
326.87377
 51
348.82819
  0
ARC
  8
7
  6
CONTINUOUS
 62
     2
 10
1052.742342
 20
248.034501
 40
1.9845001
 50
326.87377
 51
335.75464
  0
ARC
  8
7
  6
CONTINUOUS
 62
     2
 10
1056.361254
 20
248.034501
 40
1.9845001
 50
326.87377
 51
348.8282
  0
ARC
  8
7
  6
CONTINUOUS
 62
     2
 10
1064.478746
 20
248.034501
 40
1.9845001
 50
326.87377
 51
348.8282
  0
ARC
  8
7
  6
CONTINUOUS
 62
     2
 10
1068.097658
 20
248.034501
 40
1.9845001
 50
326.87377
 51
348.82819
  0
ARC
  8
7
  6
CONTINUOUS
 62
     2
 10
947.267958
 20
159.1283
 40
100.0
 50
30.25629
 51
46.486899
  0
ARC
  8
7
  6
CONTINUOUS
 62
     2
 10
1041.42
 20
214.05
 40
18.0
 50
154.44543
 51
27.234843
  0
ARC
  8
7
  6
CONTINUOUS
 62
     2
 10
1041.42
 20
214.05
 40
11.0
 50
176.8578
 51
2.3316454
  0
LINE
  8
7
  6
CONTINUOUS
 62
     2
 10
1473.42
 20
243.750001
 11
1473.42
 21
238.9500006
  0
LINE
  8
7
  6
CONTINUOUS
 62
     2
 10
1454.42
 20
246.950001
 11
1470.22
 21
246.950001
  0
LINE
  8
7
  6
CONTINUOUS
 62
     2
 10
1454.42
 20
246.950001
 11
1438.619997
 21
246.950001
  0
LINE
  8
7
  6
CONTINUOUS
 62
     2
 10
1434.42
 20
243.95
 11
1436.286158
 21
245.939335
  0
LINE
  8
7
  6
CONTINUOUS
 62
     2
 10
1442.758097
 20
243.15
 11
1442.758097
 21
211.662434
  0
LINE
  8
7
  6
CONTINUOUS
 62
     2
 10
1465.42
 20
237.7499998
 11
1473.42
 21
238.9500001
  0
LINE
  8
7
  6
CONTINUOUS
 62
     2
 10
1434.42
 20
243.950001
 11
1438.019998
 21
244.750001
  0
LINE
  8
7
  6
CONTINUOUS
 62
     2
 10
1410.120001
 20
231.6500016
 11
1408.92
 21
228.9908555
  0
LINE
  8
7
  6
CONTINUOUS
 62
     2
 10
1411.62982
 20
230.1334091
 11
1410.742971
 21
228.168197
  0
LINE
  8
7
  6
CONTINUOUS
 62
     2
 10
1410.742971
 20
228.168197
 11
1408.92
 21
228.9908555
  0
LINE
  8
7
  6
CONTINUOUS
 62
     2
 10
1454.42
 20
251.750001
 11
1428.92
 21
251.750001
  0
LINE
  8
7
  6
CONTINUOUS
 62
     2
 10
1454.42
 20
247.65
 11
1438.119997
 21
247.65
  0
LINE
  8
7
  6
CONTINUOUS
 62
     2
 10
1438.119997
 20
249.250001
 11
1438.119997
 21
247.65
  0
LINE
  8
7
  6
CONTINUOUS
 62
     2
 10
1454.42
 20
249.250001
 11
1438.119997
 21
249.250001
  0
LINE
  8
7
  6
CONTINUOUS
 62
     2
 10
1454.42
 20
251.750001
 11
1479.92
 21
251.750001
  0
LINE
  8
7
  6
CONTINUOUS
 62
     2
 10
1454.42
 20
247.65
 11
1470.72
 21
247.65
  0
LINE
  8
7
  6
CONTINUOUS
 62
     2
 10
1470.72
 20
249.250001
 11
1470.72
 21
247.65
  0
LINE
  8
7
  6
CONTINUOUS
 62
     2
 10
1454.42
 20
249.250001
 11
1470.72
 21
249.250001
  0
LINE
  8
7
  6
CONTINUOUS
 62
     2
 10
1428.92
 20
254.05
 11
1428.92
 21
251.750001
  0
LINE
  8
7
  6
CONTINUOUS
 62
     2
 10
1428.92
 20
254.05
 11
1479.92
 21
254.05
  0
LINE
  8
7
  6
CONTINUOUS
 62
     2
 10
1479.92
 20
254.05
 11
1479.92
 21
251.750001
  0
LINE
  8
7
  6
CONTINUOUS
 62
     2
 10
1458.494448
 20
233.27260313
 11
1442.988062
 21
209.179227
  0
ARC
  8
7
  6
CONTINUOUS
 62
     2
 10
1470.22
 20
243.750001
 40
3.2
 50
0.0
 51
90.000003
  0
ARC
  8
7
  6
CONTINUOUS
 62
     2
 10
1438.619997
 20
243.750001
 40
3.2
 50
90.000003
 51
136.82986
  0
ARC
  8
7
  6
CONTINUOUS
 62
     2
 10
1435.42
 20
214.05
 40
25.0
 50
147.63156
 51
36.134661
  0
ARC
  8
7
  6
CONTINUOUS
 62
     2
 10
1435.42
 20
214.05
 40
9.0
 50
210.25629
 51
327.23486
  0
ARC
  8
7
  6
CONTINUOUS
 62
     2
 10
1466.903406
 20
227.860637
 40
10.0
 50
98.530765
 51
147.23486
  0
ARC
  8
7
  6
CONTINUOUS
 62
     2
 10
1434.342173
 20
213.950103
 40
30.0
 50
89.851357
 51
143.84322
  0
CIRCLE
  8
7
  6
CONTINUOUS
 62
     2
 10
1435.42
 20
214.05
 40
4.75
  0
ARC
  8
7
  6
CONTINUOUS
 62
     2
 10
1454.42
 20
248.034501
 40
1.9845001
 50
191.17178
 51
213.12623
  0
ARC
  8
7
  6
CONTINUOUS
 62
     2
 10
1441.92
 20
248.034501
 40
1.9845001
 50
191.17179
 51
213.12623
  0
ARC
  8
7
  6
CONTINUOUS
 62
     2
 10
1438.119997
 20
249.55
 40
0.30000001
 50
270.00002
 51
342.99648
  0
ARC
  8
7
  6
CONTINUOUS
 62
     2
 10
1441.753893
 20
248.438763
 40
3.5
 50
108.9031
 51
162.99647
  0
ARC
  8
7
  6
CONTINUOUS
 62
     2
 10
1450.361254
 20
248.034501
 40
1.9845001
 50
191.17178
 51
213.12623
  0
ARC
  8
7
  6
CONTINUOUS
 62
     2
 10
1446.742342
 20
248.034501
 40
1.9845001
 50
191.17179
 51
213.12623
  0
ARC
  8
7
  6
CONTINUOUS
 62
     2
 10
1443.955416
 20
248.034501
 40
1.9845001
 50
191.17179
 51
213.12623
  0
ARC
  8
7
  6
CONTINUOUS
 62
     2
 10
1442.302492
 20
248.034501
 40
1.9845001
 50
191.17179
 51
213.12623
  0
ARC
  8
7
  6
CONTINUOUS
 62
     2
 10
1454.42
 20
248.034501
 40
1.9845001
 50
326.87377
 51
348.8282
  0
ARC
  8
7
  6
CONTINUOUS
 62
     2
 10
1466.92
 20
248.034501
 40
1.9845001
 50
326.87377
 51
348.82818
  0
ARC
  8
7
  6
CONTINUOUS
 62
     2
 10
1470.72
 20
249.55
 40
0.30000001
 50
197.00351
 51
269.99996
  0
ARC
  8
7
  6
CONTINUOUS
 62
     2
 10
1467.086107
 20
248.438763
 40
3.5
 50
17.003496
 51
71.09686
  0
ARC
  8
7
  6
CONTINUOUS
 62
     2
 10
1458.478746
 20
248.034501
 40
1.9845001
 50
191.17178
 51
213.12623
  0
ARC
  8
7
  6
CONTINUOUS
 62
     2
 10
1462.097658
 20
248.034501
 40
1.9845001
 50
204.24535
 51
213.12623
  0
ARC
  8
7
  6
CONTINUOUS
 62
     2
 10
1464.884584
 20
248.034501
 40
1.9845001
 50
326.87377
 51
348.82819
  0
ARC
  8
7
  6
CONTINUOUS
 62
     2
 10
1466.537508
 20
248.034501
 40
1.9845001
 50
326.87377
 51
348.82819
  0
ARC
  8
7
  6
CONTINUOUS
 62
     2
 10
1446.742342
 20
248.034501
 40
1.9845001
 50
326.87377
 51
335.75464
  0
ARC
  8
7
  6
CONTINUOUS
 62
     2
 10
1450.361254
 20
248.034501
 40
1.9845001
 50
326.87377
 51
348.8282
  0
ARC
  8
7
  6
CONTINUOUS
 62
     2
 10
1458.478746
 20
248.034501
 40
1.9845001
 50
326.87377
 51
348.8282
  0
ARC
  8
7
  6
CONTINUOUS
 62
     2
 10
1462.097658
 20
248.034501
 40
1.9845001
 50
326.87377
 51
348.82819
  0
ARC
  8
7
  6
CONTINUOUS
 62
     2
 10
1341.267958
 20
159.1283
 40
100.0
 50
30.25629
 51
46.486899
  0
ARC
  8
7
  6
CONTINUOUS
 62
     2
 10
1435.42
 20
214.05
 40
18.0
 50
154.44543
 51
27.234843
  0
ARC
  8
7
  6
CONTINUOUS
 62
     2
 10
1435.42
 20
214.05
 40
11.0
 50
176.8578
 51
2.3316454
  0
LINE
  8
0
  6
LTYPE1
 62
     2
 10
1057.42
 20
258.65
 11
1057.42
 21
1189.3
  0
LINE
  8
0
  6
LTYPE1
 62
     2
 10
1457.42
 20
258.65
 11
1457.42
 21
1189.3
  0
ENDSEC
  0
EOF
