  0
SECTION
  2
HEADER
  9
$ACADVER
  1
AC1015
  9
$ACADMAINTVER
 70
     6
  9
$DWGCODEPAGE
  3
ANSI_932
  9
$INSBASE
 10
0.0
 20
0.0
 30
0.0
  9
$EXTMIN
 10
0.0
 20
0.0
 30
1.000000E+20
  9
$EXTMAX
 10
594.0
 20
420.0
 30
-1.000000E+20
  9
$LIMMIN
 10
0.0
 20
0.0
  9
$LIMMAX
 10
594.0
 20
420.0
  9
$ORTHOMODE
 70
     0
  9
$REGENMODE
 70
     1
  9
$FILLMODE
 70
     1
  9
$QTEXTMODE
 70
     0
  9
$MIRRTEXT
 70
     1
  9
$LTSCALE
 40
1.0
  9
$ATTMODE
 70
     1
  9
$TEXTSIZE
 40
2.5
  9
$TRACEWID
 40
1.0
  9
$TEXTSTYLE
  7
Standard
  9
$CLAYER
  8
0
  9
$CELTYPE
  6
ByLayer
  9
$CECOLOR
 62
   256
  9
$CELTSCALE
 40
1.0
  9
$DISPSILH
 70
     0
  9
$DIMSCALE
 40
1.0
  9
$DIMASZ
 40
2.5
  9
$DIMEXO
 40
0.625
  9
$DIMDLI
 40
3.75
  9
$DIMRND
 40
0.0
  9
$DIMDLE
 40
0.0
  9
$DIMEXE
 40
1.25
  9
$DIMTP
 40
0.0
  9
$DIMTM
 40
0.0
  9
$DIMTXT
 40
2.5
  9
$DIMCEN
 40
2.5
  9
$DIMTSZ
 40
0.0
  9
$DIMTOL
 70
     0
  9
$DIMLIM
 70
     0
  9
$DIMTIH
 70
     0
  9
$DIMTOH
 70
     0
  9
$DIMSE1
 70
     0
  9
$DIMSE2
 70
     0
  9
$DIMTAD
 70
     1
  9
$DIMZIN
 70
     8
  9
$DIMBLK
  1

  9
$DIMASO
 70
     1
  9
$DIMSHO
 70
     1
  9
$DIMPOST
  1

  9
$DIMAPOST
  1

  9
$DIMALT
 70
     0
  9
$DIMALTD
 70
     3
  9
$DIMALTF
 40
0.03937007874016
  9
$DIMLFAC
 40
1.0
  9
$DIMTOFL
 70
     1
  9
$DIMTVP
 40
0.0
  9
$DIMTIX
 70
     0
  9
$DIMSOXD
 70
     0
  9
$DIMSAH
 70
     0
  9
$DIMBLK1
  1

  9
$DIMBLK2
  1

  9
$DIMSTYLE
  2
ISO-25
  9
$DIMCLRD
 70
     0
  9
$DIMCLRE
 70
     0
  9
$DIMCLRT
 70
     0
  9
$DIMTFAC
 40
1.0
  9
$DIMGAP
 40
0.625
  9
$DIMJUST
 70
     0
  9
$DIMSD1
 70
     0
  9
$DIMSD2
 70
     0
  9
$DIMTOLJ
 70
     0
  9
$DIMTZIN
 70
     8
  9
$DIMALTZ
 70
     0
  9
$DIMALTTZ
 70
     0
  9
$DIMUPT
 70
     0
  9
$DIMDEC
 70
     2
  9
$DIMTDEC
 70
     2
  9
$DIMALTU
 70
     2
  9
$DIMALTTD
 70
     3
  9
$DIMTXSTY
  7
Standard
  9
$DIMAUNIT
 70
     0
  9
$DIMADEC
 70
     0
  9
$DIMALTRND
 40
0.0
  9
$DIMAZIN
 70
     0
  9
$DIMDSEP
 70
    46
  9
$DIMATFIT
 70
     3
  9
$DIMFRAC
 70
     0
  9
$DIMLDRBLK
  1

  9
$DIMLUNIT
 70
     2
  9
$DIMLWD
 70
    -2
  9
$DIMLWE
 70
    -2
  9
$DIMTMOVE
 70
     0
  9
$LUNITS
 70
     2
  9
$LUPREC
 70
     4
  9
$SKETCHINC
 40
1.0
  9
$FILLETRAD
 40
10.0
  9
$AUNITS
 70
     0
  9
$AUPREC
 70
     0
  9
$MENU
  1
.
  9
$ELEVATION
 40
0.0
  9
$PELEVATION
 40
0.0
  9
$THICKNESS
 40
0.0
  9
$LIMCHECK
 70
     0
  9
$CHAMFERA
 40
10.0
  9
$CHAMFERB
 40
10.0
  9
$CHAMFERC
 40
20.0
  9
$CHAMFERD
 40
0.0
  9
$SKPOLY
 70
     0
  9
$TDCREATE
 40
2455215.000000
  9
$TDUCREATE
 40
0.000000000
  9
$TDUPDATE
 40
2455215.000000
  9
$TDUUPDATE
 40
2455215.000000
  9
$TDINDWG
 40
0.0
  9
$TDUSRTIMER
 40
0.0
  9
$USRTIMER
 70
     1
  9
$ANGBASE
 50
0.0
  9
$ANGDIR
 70
     0
  9
$PDMODE
 70
     0
  9
$PDSIZE
 40
0.0
  9
$PLINEWID
 40
0.0
  9
$SPLFRAME
 70
     0
  9
$SPLINETYPE
 70
     6
  9
$SPLINESEGS
 70
     8
  9
$HANDSEED
  5
03FB
  9
$SURFTAB1
 70
     6
  9
$SURFTAB2
 70
     6
  9
$SURFTYPE
 70
     6
  9
$SURFU
 70
     6
  9
$SURFV
 70
     6
  9
$UCSBASE
  2

  9
$UCSNAME
  2

  9
$UCSORG
 10
0.0
 20
0.0
 30
0.0
  9
$UCSXDIR
 10
1.0
 20
0.0
 30
0.0
  9
$UCSYDIR
 10
0.0
 20
1.0
 30
0.0
  9
$UCSORTHOREF
  2

  9
$UCSORTHOVIEW
 70
     0
  9
$UCSORGTOP
 10
0.0
 20
0.0
 30
0.0
  9
$UCSORGBOTTOM
 10
0.0
 20
0.0
 30
0.0
  9
$UCSORGLEFT
 10
0.0
 20
0.0
 30
0.0
  9
$UCSORGRIGHT
 10
0.0
 20
0.0
 30
0.0
  9
$UCSORGFRONT
 10
0.0
 20
0.0
 30
0.0
  9
$UCSORGBACK
 10
0.0
 20
0.0
 30
0.0
  9
$PUCSBASE
  2

  9
$PUCSNAME
  2

  9
$PUCSORG
 10
0.0
 20
0.0
 30
0.0
  9
$PUCSXDIR
 10
1.0
 20
0.0
 30
0.0
  9
$PUCSYDIR
 10
0.0
 20
1.0
 30
0.0
  9
$PUCSORTHOREF
  2

  9
$PUCSORTHOVIEW
 70
     0
  9
$PUCSORGTOP
 10
0.0
 20
0.0
 30
0.0
  9
$PUCSORGBOTTOM
 10
0.0
 20
0.0
 30
0.0
  9
$PUCSORGLEFT
 10
0.0
 20
0.0
 30
0.0
  9
$PUCSORGRIGHT
 10
0.0
 20
0.0
 30
0.0
  9
$PUCSORGFRONT
 10
0.0
 20
0.0
 30
0.0
  9
$PUCSORGBACK
 10
0.0
 20
0.0
 30
0.0
  9
$USERI1
 70
     0
  9
$USERI2
 70
     0
  9
$USERI3
 70
     0
  9
$USERI4
 70
     0
  9
$USERI5
 70
     0
  9
$USERR1
 40
0.0
  9
$USERR2
 40
0.0
  9
$USERR3
 40
0.0
  9
$USERR4
 40
0.0
  9
$USERR5
 40
0.0
  9
$WORLDVIEW
 70
     1
  9
$SHADEDGE
 70
     3
  9
$SHADEDIF
 70
    70
  9
$TILEMODE
 70
     1
  9
$MAXACTVP
 70
    64
  9
$PINSBASE
 10
0.0
 20
0.0
 30
0.0
  9
$PLIMCHECK
 70
     0
  9
$PEXTMIN
 10
1.000000E+20
 20
1.000000E+20
 30
1.000000E+20
  9
$PEXTMAX
 10
-1.000000E+20
 20
-1.000000E+20
 30
-1.000000E+20
  9
$PLIMMIN
 10
0.0
 20
0.0
  9
$PLIMMAX
 10
0.0
 20
0.0
  9
$UNITMODE
 70
     0
  9
$VISRETAIN
 70
     0
  9
$PLINEGEN
 70
     0
  9
$PSLTSCALE
 70
     1
  9
$TREEDEPTH
 70
  3020
  9
$CMLSTYLE
  2
STANDARD
  9
$CMLJUST
 70
     0
  9
$CMLSCALE
 40
20.0
  9
$PROXYGRAPHICS
 70
     1
  9
$MEASUREMENT
 70
     1
  9
$CELWEIGHT
370
    -1
  9
$ENDCAPS
280
     0
  9
$JOINSTYLE
280
     0
  9
$LWDISPLAY
290
     0
  9
$INSUNITS
 70
     4
  9
$HYPERLINKBASE
  1

  9
$STYLESHEET
  1

  9
$XEDIT
290
     1
  9
$CEPSNTYPE
380
     0
  9
$PSTYLEMODE
290
     1
  9
$FINGERPRINTGUID
  2
{4838EF68-93FE-E9DA-5D7C-1985E97A7B88}
  9
$VERSIONGUID
  2
{4A69E459-FB04-47D7-D0D6-2293F0B601BC}
  9
$EXTNAMES
290
     1
  9
$PSVPSCALE
 40
0.0
  0
ENDSEC
  0
SECTION
  2
CLASSES
  0
ENDSEC
  0
SECTION
  2
TABLES
  0
TABLE
  2
VPORT
  5
8
330
0
100
AcDbSymbolTable
 70
     3
  0
VPORT
  5
29
330
8
100
AcDbSymbolTableRecord
100
AcDbViewportTableRecord
  2
*Active
 70
     0
 10
0.0
 20
0.0
 11
1.0
 21
1.0
 12
297.0
 22
210.0
 13
0.0
 23
0.0
 14
10.0
 24
10.0
 15
0.0
 25
0.0
 16
0.0
 26
0.0
 36
1.0
 17
0.0
 27
0.0
 37
0.0
 40
420.0
 41
1.414285714
 42
50.0
 43
0.0
 44
0.0
 50
0.0
 51
0.0
 71
     0
 72
     0
 73
     0
 74
     0
 75
     0
 76
     0
 77
     0
 78
     0
281
     0
 65
     0
110
0.0
120
0.0
130
0.0
111
1.0
121
0.0
131
0.0
112
0.0
122
1.0
132
0.0
 79
     0
146
0.0
  0
ENDTAB
  0
TABLE
  2
LTYPE
  5
5
330
0
100
AcDbSymbolTable
 70
     6
  0
LTYPE
  5
14
330
5
100
AcDbSymbolTableRecord
100
AcDbLinetypeTableRecord
  2
ByBlock
 70
     0
  3

 72
    65
 73
     0
 40
0.0
  0
LTYPE
  5
15
330
5
100
AcDbSymbolTableRecord
100
AcDbLinetypeTableRecord
  2
ByLayer
 70
     0
  3

 72
    65
 73
     0
 40
0.0
  0
LTYPE
  5
16
330
5
100
AcDbSymbolTableRecord
100
AcDbLinetypeTableRecord
  2
Continuous
 70
     0
  3
Solid line
 72
    65
 73
     0
 40
0.0
  0
LTYPE
  5
ED
330
5
100
AcDbSymbolTableRecord
100
AcDbLinetypeTableRecord
  2
LTYPE1
 70
     0
  3
HIDDEN
 72
    65
 73
     2
 40
4.0
 49
2.4
 74
     0
 49
-1.6
 74
     0
  0
LTYPE
  5
1BE
330
5
100
AcDbSymbolTableRecord
100
AcDbLinetypeTableRecord
  2
LTYPE2
 70
     0
  3
HIDDEN
 72
    65
 73
     2
 40
8.0
 49
4.8
 74
     0
 49
-3.2
 74
     0
  0
LTYPE
  5
1E0
330
5
100
AcDbSymbolTableRecord
100
AcDbLinetypeTableRecord
  2
LTYPE3
 70
     0
  3
HIDDEN
 72
    65
 73
     2
 40
6.0
 49
3.6
 74
     0
 49
-2.4
 74
     0
  0
ENDTAB
  0
TABLE
  2
LAYER
  5
2
330
0
100
AcDbSymbolTable
 70
   128
  0
LAYER
  5
10
330
2
100
AcDbSymbolTableRecord
100
AcDbLayerTableRecord
  2
0
 70
     0
 62
     7
  6
Continuous
290
     1
370
    -3
390
F
  0
LAYER
  5
2A
330
2
100
AcDbSymbolTableRecord
100
AcDbLayerTableRecord
  2
2
 70
     0
 62
     7
  6
Continuous
290
     1
370
    -3
390
F
  0
LAYER
  5
2B
330
2
100
AcDbSymbolTableRecord
100
AcDbLayerTableRecord
  2
3
 70
     0
 62
     7
  6
Continuous
290
     1
370
    -3
390
F
  0
LAYER
  5
2C
330
2
100
AcDbSymbolTableRecord
100
AcDbLayerTableRecord
  2
4
 70
     0
 62
     7
  6
Continuous
290
     1
370
    -3
390
F
  0
LAYER
  5
2D
330
2
100
AcDbSymbolTableRecord
100
AcDbLayerTableRecord
  2
5
 70
     0
 62
     7
  6
Continuous
290
     1
370
    -3
390
F
  0
LAYER
  5
2E
330
2
100
AcDbSymbolTableRecord
100
AcDbLayerTableRecord
  2
6
 70
     0
 62
     7
  6
Continuous
290
     1
370
    -3
390
F
  0
LAYER
  5
2F
330
2
100
AcDbSymbolTableRecord
100
AcDbLayerTableRecord
  2
7
 70
     0
 62
     7
  6
Continuous
290
     1
370
    -3
390
F
  0
LAYER
  5
30
330
2
100
AcDbSymbolTableRecord
100
AcDbLayerTableRecord
  2
8
 70
     0
 62
     7
  6
Continuous
290
     1
370
    -3
390
F
  0
LAYER
  5
31
330
2
100
AcDbSymbolTableRecord
100
AcDbLayerTableRecord
  2
9
 70
     0
 62
     7
  6
Continuous
290
     1
370
    -3
390
F
  0
LAYER
  5
32
330
2
100
AcDbSymbolTableRecord
100
AcDbLayerTableRecord
  2
10
 70
     0
 62
     7
  6
Continuous
290
     1
370
    -3
390
F
  0
LAYER
  5
33
330
2
100
AcDbSymbolTableRecord
100
AcDbLayerTableRecord
  2
11
 70
     0
 62
     7
  6
Continuous
290
     1
370
    -3
390
F
  0
LAYER
  5
34
330
2
100
AcDbSymbolTableRecord
100
AcDbLayerTableRecord
  2
12
 70
     0
 62
     7
  6
Continuous
290
     1
370
    -3
390
F
  0
LAYER
  5
35
330
2
100
AcDbSymbolTableRecord
100
AcDbLayerTableRecord
  2
13
 70
     0
 62
     7
  6
Continuous
290
     1
370
    -3
390
F
  0
LAYER
  5
36
330
2
100
AcDbSymbolTableRecord
100
AcDbLayerTableRecord
  2
14
 70
     0
 62
     7
  6
Continuous
290
     1
370
    -3
390
F
  0
LAYER
  5
37
330
2
100
AcDbSymbolTableRecord
100
AcDbLayerTableRecord
  2
15
 70
     0
 62
     7
  6
Continuous
290
     1
370
    -3
390
F
  0
LAYER
  5
38
330
2
100
AcDbSymbolTableRecord
100
AcDbLayerTableRecord
  2
16
 70
     0
 62
     7
  6
Continuous
290
     1
370
    -3
390
F
  0
LAYER
  5
39
330
2
100
AcDbSymbolTableRecord
100
AcDbLayerTableRecord
  2
17
 70
     0
 62
     7
  6
Continuous
290
     1
370
    -3
390
F
  0
LAYER
  5
3A
330
2
100
AcDbSymbolTableRecord
100
AcDbLayerTableRecord
  2
18
 70
     0
 62
     7
  6
Continuous
290
     1
370
    -3
390
F
  0
LAYER
  5
3B
330
2
100
AcDbSymbolTableRecord
100
AcDbLayerTableRecord
  2
19
 70
     0
 62
     7
  6
Continuous
290
     1
370
    -3
390
F
  0
LAYER
  5
3C
330
2
100
AcDbSymbolTableRecord
100
AcDbLayerTableRecord
  2
20
 70
     0
 62
     7
  6
Continuous
290
     1
370
    -3
390
F
  0
LAYER
  5
3D
330
2
100
AcDbSymbolTableRecord
100
AcDbLayerTableRecord
  2
21
 70
     0
 62
     7
  6
Continuous
290
     1
370
    -3
390
F
  0
LAYER
  5
3E
330
2
100
AcDbSymbolTableRecord
100
AcDbLayerTableRecord
  2
22
 70
     0
 62
     7
  6
Continuous
290
     1
370
    -3
390
F
  0
LAYER
  5
3F
330
2
100
AcDbSymbolTableRecord
100
AcDbLayerTableRecord
  2
23
 70
     0
 62
     7
  6
Continuous
290
     1
370
    -3
390
F
  0
LAYER
  5
40
330
2
100
AcDbSymbolTableRecord
100
AcDbLayerTableRecord
  2
24
 70
     0
 62
     7
  6
Continuous
290
     1
370
    -3
390
F
  0
LAYER
  5
41
330
2
100
AcDbSymbolTableRecord
100
AcDbLayerTableRecord
  2
25
 70
     0
 62
     7
  6
Continuous
290
     1
370
    -3
390
F
  0
LAYER
  5
42
330
2
100
AcDbSymbolTableRecord
100
AcDbLayerTableRecord
  2
26
 70
     0
 62
     7
  6
Continuous
290
     1
370
    -3
390
F
  0
LAYER
  5
43
330
2
100
AcDbSymbolTableRecord
100
AcDbLayerTableRecord
  2
27
 70
     0
 62
     7
  6
Continuous
290
     1
370
    -3
390
F
  0
LAYER
  5
44
330
2
100
AcDbSymbolTableRecord
100
AcDbLayerTableRecord
  2
28
 70
     0
 62
     7
  6
Continuous
290
     1
370
    -3
390
F
  0
LAYER
  5
45
330
2
100
AcDbSymbolTableRecord
100
AcDbLayerTableRecord
  2
29
 70
     0
 62
     7
  6
Continuous
290
     1
370
    -3
390
F
  0
LAYER
  5
46
330
2
100
AcDbSymbolTableRecord
100
AcDbLayerTableRecord
  2
30
 70
     0
 62
     7
  6
Continuous
290
     1
370
    -3
390
F
  0
LAYER
  5
47
330
2
100
AcDbSymbolTableRecord
100
AcDbLayerTableRecord
  2
31
 70
     0
 62
     7
  6
Continuous
290
     1
370
    -3
390
F
  0
LAYER
  5
48
330
2
100
AcDbSymbolTableRecord
100
AcDbLayerTableRecord
  2
32
 70
     0
 62
     7
  6
Continuous
290
     1
370
    -3
390
F
  0
LAYER
  5
49
330
2
100
AcDbSymbolTableRecord
100
AcDbLayerTableRecord
  2
33
 70
     0
 62
     7
  6
Continuous
290
     1
370
    -3
390
F
  0
LAYER
  5
4A
330
2
100
AcDbSymbolTableRecord
100
AcDbLayerTableRecord
  2
34
 70
     0
 62
     7
  6
Continuous
290
     1
370
    -3
390
F
  0
LAYER
  5
4B
330
2
100
AcDbSymbolTableRecord
100
AcDbLayerTableRecord
  2
35
 70
     0
 62
     7
  6
Continuous
290
     1
370
    -3
390
F
  0
LAYER
  5
4C
330
2
100
AcDbSymbolTableRecord
100
AcDbLayerTableRecord
  2
36
 70
     0
 62
     7
  6
Continuous
290
     1
370
    -3
390
F
  0
LAYER
  5
4D
330
2
100
AcDbSymbolTableRecord
100
AcDbLayerTableRecord
  2
37
 70
     0
 62
     7
  6
Continuous
290
     1
370
    -3
390
F
  0
LAYER
  5
4E
330
2
100
AcDbSymbolTableRecord
100
AcDbLayerTableRecord
  2
38
 70
     0
 62
     7
  6
Continuous
290
     1
370
    -3
390
F
  0
LAYER
  5
4F
330
2
100
AcDbSymbolTableRecord
100
AcDbLayerTableRecord
  2
39
 70
     0
 62
     7
  6
Continuous
290
     1
370
    -3
390
F
  0
LAYER
  5
50
330
2
100
AcDbSymbolTableRecord
100
AcDbLayerTableRecord
  2
40
 70
     0
 62
     7
  6
Continuous
290
     1
370
    -3
390
F
  0
LAYER
  5
51
330
2
100
AcDbSymbolTableRecord
100
AcDbLayerTableRecord
  2
41
 70
     0
 62
     7
  6
Continuous
290
     1
370
    -3
390
F
  0
LAYER
  5
52
330
2
100
AcDbSymbolTableRecord
100
AcDbLayerTableRecord
  2
42
 70
     0
 62
     7
  6
Continuous
290
     1
370
    -3
390
F
  0
LAYER
  5
53
330
2
100
AcDbSymbolTableRecord
100
AcDbLayerTableRecord
  2
43
 70
     0
 62
     7
  6
Continuous
290
     1
370
    -3
390
F
  0
LAYER
  5
54
330
2
100
AcDbSymbolTableRecord
100
AcDbLayerTableRecord
  2
44
 70
     0
 62
     7
  6
Continuous
290
     1
370
    -3
390
F
  0
LAYER
  5
55
330
2
100
AcDbSymbolTableRecord
100
AcDbLayerTableRecord
  2
45
 70
     0
 62
     7
  6
Continuous
290
     1
370
    -3
390
F
  0
LAYER
  5
56
330
2
100
AcDbSymbolTableRecord
100
AcDbLayerTableRecord
  2
46
 70
     0
 62
     7
  6
Continuous
290
     1
370
    -3
390
F
  0
LAYER
  5
57
330
2
100
AcDbSymbolTableRecord
100
AcDbLayerTableRecord
  2
47
 70
     0
 62
     7
  6
Continuous
290
     1
370
    -3
390
F
  0
LAYER
  5
58
330
2
100
AcDbSymbolTableRecord
100
AcDbLayerTableRecord
  2
48
 70
     0
 62
     7
  6
Continuous
290
     1
370
    -3
390
F
  0
LAYER
  5
59
330
2
100
AcDbSymbolTableRecord
100
AcDbLayerTableRecord
  2
49
 70
     0
 62
     7
  6
Continuous
290
     1
370
    -3
390
F
  0
LAYER
  5
5A
330
2
100
AcDbSymbolTableRecord
100
AcDbLayerTableRecord
  2
50
 70
     0
 62
     7
  6
Continuous
290
     1
370
    -3
390
F
  0
LAYER
  5
5B
330
2
100
AcDbSymbolTableRecord
100
AcDbLayerTableRecord
  2
51
 70
     0
 62
     7
  6
Continuous
290
     1
370
    -3
390
F
  0
LAYER
  5
5C
330
2
100
AcDbSymbolTableRecord
100
AcDbLayerTableRecord
  2
52
 70
     0
 62
     7
  6
Continuous
290
     1
370
    -3
390
F
  0
LAYER
  5
5D
330
2
100
AcDbSymbolTableRecord
100
AcDbLayerTableRecord
  2
53
 70
     0
 62
     7
  6
Continuous
290
     1
370
    -3
390
F
  0
LAYER
  5
5E
330
2
100
AcDbSymbolTableRecord
100
AcDbLayerTableRecord
  2
54
 70
     0
 62
     7
  6
Continuous
290
     1
370
    -3
390
F
  0
LAYER
  5
5F
330
2
100
AcDbSymbolTableRecord
100
AcDbLayerTableRecord
  2
55
 70
     0
 62
     7
  6
Continuous
290
     1
370
    -3
390
F
  0
LAYER
  5
60
330
2
100
AcDbSymbolTableRecord
100
AcDbLayerTableRecord
  2
56
 70
     0
 62
     7
  6
Continuous
290
     1
370
    -3
390
F
  0
LAYER
  5
61
330
2
100
AcDbSymbolTableRecord
100
AcDbLayerTableRecord
  2
57
 70
     0
 62
     7
  6
Continuous
290
     1
370
    -3
390
F
  0
LAYER
  5
62
330
2
100
AcDbSymbolTableRecord
100
AcDbLayerTableRecord
  2
58
 70
     0
 62
     7
  6
Continuous
290
     1
370
    -3
390
F
  0
LAYER
  5
63
330
2
100
AcDbSymbolTableRecord
100
AcDbLayerTableRecord
  2
59
 70
     0
 62
     7
  6
Continuous
290
     1
370
    -3
390
F
  0
LAYER
  5
64
330
2
100
AcDbSymbolTableRecord
100
AcDbLayerTableRecord
  2
60
 70
     0
 62
     7
  6
Continuous
290
     1
370
    -3
390
F
  0
LAYER
  5
65
330
2
100
AcDbSymbolTableRecord
100
AcDbLayerTableRecord
  2
61
 70
     0
 62
     7
  6
Continuous
290
     1
370
    -3
390
F
  0
LAYER
  5
66
330
2
100
AcDbSymbolTableRecord
100
AcDbLayerTableRecord
  2
62
 70
     0
 62
     7
  6
Continuous
290
     1
370
    -3
390
F
  0
LAYER
  5
67
330
2
100
AcDbSymbolTableRecord
100
AcDbLayerTableRecord
  2
63
 70
     0
 62
     7
  6
Continuous
290
     1
370
    -3
390
F
  0
LAYER
  5
68
330
2
100
AcDbSymbolTableRecord
100
AcDbLayerTableRecord
  2
64
 70
     0
 62
     7
  6
Continuous
290
     1
370
    -3
390
F
  0
LAYER
  5
69
330
2
100
AcDbSymbolTableRecord
100
AcDbLayerTableRecord
  2
65
 70
     0
 62
     7
  6
Continuous
290
     1
370
    -3
390
F
  0
LAYER
  5
6A
330
2
100
AcDbSymbolTableRecord
100
AcDbLayerTableRecord
  2
66
 70
     0
 62
     7
  6
Continuous
290
     1
370
    -3
390
F
  0
LAYER
  5
6B
330
2
100
AcDbSymbolTableRecord
100
AcDbLayerTableRecord
  2
67
 70
     0
 62
     7
  6
Continuous
290
     1
370
    -3
390
F
  0
LAYER
  5
6C
330
2
100
AcDbSymbolTableRecord
100
AcDbLayerTableRecord
  2
68
 70
     0
 62
     7
  6
Continuous
290
     1
370
    -3
390
F
  0
LAYER
  5
6D
330
2
100
AcDbSymbolTableRecord
100
AcDbLayerTableRecord
  2
69
 70
     0
 62
     7
  6
Continuous
290
     1
370
    -3
390
F
  0
LAYER
  5
6E
330
2
100
AcDbSymbolTableRecord
100
AcDbLayerTableRecord
  2
70
 70
     0
 62
     7
  6
Continuous
290
     1
370
    -3
390
F
  0
LAYER
  5
6F
330
2
100
AcDbSymbolTableRecord
100
AcDbLayerTableRecord
  2
71
 70
     0
 62
     7
  6
Continuous
290
     1
370
    -3
390
F
  0
LAYER
  5
70
330
2
100
AcDbSymbolTableRecord
100
AcDbLayerTableRecord
  2
72
 70
     0
 62
     7
  6
Continuous
290
     1
370
    -3
390
F
  0
LAYER
  5
71
330
2
100
AcDbSymbolTableRecord
100
AcDbLayerTableRecord
  2
73
 70
     0
 62
     7
  6
Continuous
290
     1
370
    -3
390
F
  0
LAYER
  5
72
330
2
100
AcDbSymbolTableRecord
100
AcDbLayerTableRecord
  2
74
 70
     0
 62
     7
  6
Continuous
290
     1
370
    -3
390
F
  0
LAYER
  5
73
330
2
100
AcDbSymbolTableRecord
100
AcDbLayerTableRecord
  2
75
 70
     0
 62
     7
  6
Continuous
290
     1
370
    -3
390
F
  0
LAYER
  5
74
330
2
100
AcDbSymbolTableRecord
100
AcDbLayerTableRecord
  2
76
 70
     0
 62
     7
  6
Continuous
290
     1
370
    -3
390
F
  0
LAYER
  5
75
330
2
100
AcDbSymbolTableRecord
100
AcDbLayerTableRecord
  2
77
 70
     0
 62
     7
  6
Continuous
290
     1
370
    -3
390
F
  0
LAYER
  5
76
330
2
100
AcDbSymbolTableRecord
100
AcDbLayerTableRecord
  2
78
 70
     0
 62
     7
  6
Continuous
290
     1
370
    -3
390
F
  0
LAYER
  5
77
330
2
100
AcDbSymbolTableRecord
100
AcDbLayerTableRecord
  2
79
 70
     0
 62
     7
  6
Continuous
290
     1
370
    -3
390
F
  0
LAYER
  5
78
330
2
100
AcDbSymbolTableRecord
100
AcDbLayerTableRecord
  2
80
 70
     0
 62
     7
  6
Continuous
290
     1
370
    -3
390
F
  0
LAYER
  5
79
330
2
100
AcDbSymbolTableRecord
100
AcDbLayerTableRecord
  2
81
 70
     0
 62
     7
  6
Continuous
290
     1
370
    -3
390
F
  0
LAYER
  5
7A
330
2
100
AcDbSymbolTableRecord
100
AcDbLayerTableRecord
  2
82
 70
     0
 62
     7
  6
Continuous
290
     1
370
    -3
390
F
  0
LAYER
  5
7B
330
2
100
AcDbSymbolTableRecord
100
AcDbLayerTableRecord
  2
83
 70
     0
 62
     7
  6
Continuous
290
     1
370
    -3
390
F
  0
LAYER
  5
7C
330
2
100
AcDbSymbolTableRecord
100
AcDbLayerTableRecord
  2
84
 70
     0
 62
     7
  6
Continuous
290
     1
370
    -3
390
F
  0
LAYER
  5
7D
330
2
100
AcDbSymbolTableRecord
100
AcDbLayerTableRecord
  2
85
 70
     0
 62
     7
  6
Continuous
290
     1
370
    -3
390
F
  0
LAYER
  5
7E
330
2
100
AcDbSymbolTableRecord
100
AcDbLayerTableRecord
  2
86
 70
     0
 62
     7
  6
Continuous
290
     1
370
    -3
390
F
  0
LAYER
  5
7F
330
2
100
AcDbSymbolTableRecord
100
AcDbLayerTableRecord
  2
87
 70
     0
 62
     7
  6
Continuous
290
     1
370
    -3
390
F
  0
LAYER
  5
80
330
2
100
AcDbSymbolTableRecord
100
AcDbLayerTableRecord
  2
88
 70
     0
 62
     7
  6
Continuous
290
     1
370
    -3
390
F
  0
LAYER
  5
81
330
2
100
AcDbSymbolTableRecord
100
AcDbLayerTableRecord
  2
89
 70
     0
 62
     7
  6
Continuous
290
     1
370
    -3
390
F
  0
LAYER
  5
82
330
2
100
AcDbSymbolTableRecord
100
AcDbLayerTableRecord
  2
90
 70
     0
 62
     7
  6
Continuous
290
     1
370
    -3
390
F
  0
LAYER
  5
83
330
2
100
AcDbSymbolTableRecord
100
AcDbLayerTableRecord
  2
91
 70
     0
 62
     7
  6
Continuous
290
     1
370
    -3
390
F
  0
LAYER
  5
84
330
2
100
AcDbSymbolTableRecord
100
AcDbLayerTableRecord
  2
92
 70
     0
 62
     7
  6
Continuous
290
     1
370
    -3
390
F
  0
LAYER
  5
85
330
2
100
AcDbSymbolTableRecord
100
AcDbLayerTableRecord
  2
93
 70
     0
 62
     7
  6
Continuous
290
     1
370
    -3
390
F
  0
LAYER
  5
86
330
2
100
AcDbSymbolTableRecord
100
AcDbLayerTableRecord
  2
94
 70
     0
 62
     7
  6
Continuous
290
     1
370
    -3
390
F
  0
LAYER
  5
87
330
2
100
AcDbSymbolTableRecord
100
AcDbLayerTableRecord
  2
95
 70
     0
 62
     7
  6
Continuous
290
     1
370
    -3
390
F
  0
LAYER
  5
88
330
2
100
AcDbSymbolTableRecord
100
AcDbLayerTableRecord
  2
96
 70
     0
 62
     7
  6
Continuous
290
     1
370
    -3
390
F
  0
LAYER
  5
89
330
2
100
AcDbSymbolTableRecord
100
AcDbLayerTableRecord
  2
97
 70
     0
 62
     7
  6
Continuous
290
     1
370
    -3
390
F
  0
LAYER
  5
8A
330
2
100
AcDbSymbolTableRecord
100
AcDbLayerTableRecord
  2
98
 70
     0
 62
     7
  6
Continuous
290
     1
370
    -3
390
F
  0
LAYER
  5
8B
330
2
100
AcDbSymbolTableRecord
100
AcDbLayerTableRecord
  2
99
 70
     0
 62
     7
  6
Continuous
290
     1
370
    -3
390
F
  0
LAYER
  5
8C
330
2
100
AcDbSymbolTableRecord
100
AcDbLayerTableRecord
  2
100
 70
     0
 62
     7
  6
Continuous
290
     1
370
    -3
390
F
  0
LAYER
  5
8D
330
2
100
AcDbSymbolTableRecord
100
AcDbLayerTableRecord
  2
101
 70
     0
 62
     7
  6
Continuous
290
     1
370
    -3
390
F
  0
LAYER
  5
8E
330
2
100
AcDbSymbolTableRecord
100
AcDbLayerTableRecord
  2
102
 70
     0
 62
     7
  6
Continuous
290
     1
370
    -3
390
F
  0
LAYER
  5
8F
330
2
100
AcDbSymbolTableRecord
100
AcDbLayerTableRecord
  2
103
 70
     0
 62
     7
  6
Continuous
290
     1
370
    -3
390
F
  0
LAYER
  5
90
330
2
100
AcDbSymbolTableRecord
100
AcDbLayerTableRecord
  2
104
 70
     0
 62
     7
  6
Continuous
290
     1
370
    -3
390
F
  0
LAYER
  5
91
330
2
100
AcDbSymbolTableRecord
100
AcDbLayerTableRecord
  2
105
 70
     0
 62
     7
  6
Continuous
290
     1
370
    -3
390
F
  0
LAYER
  5
92
330
2
100
AcDbSymbolTableRecord
100
AcDbLayerTableRecord
  2
106
 70
     0
 62
     7
  6
Continuous
290
     1
370
    -3
390
F
  0
LAYER
  5
93
330
2
100
AcDbSymbolTableRecord
100
AcDbLayerTableRecord
  2
107
 70
     0
 62
     7
  6
Continuous
290
     1
370
    -3
390
F
  0
LAYER
  5
94
330
2
100
AcDbSymbolTableRecord
100
AcDbLayerTableRecord
  2
108
 70
     0
 62
     7
  6
Continuous
290
     1
370
    -3
390
F
  0
LAYER
  5
95
330
2
100
AcDbSymbolTableRecord
100
AcDbLayerTableRecord
  2
109
 70
     0
 62
     7
  6
Continuous
290
     1
370
    -3
390
F
  0
LAYER
  5
96
330
2
100
AcDbSymbolTableRecord
100
AcDbLayerTableRecord
  2
110
 70
     0
 62
     7
  6
Continuous
290
     1
370
    -3
390
F
  0
LAYER
  5
97
330
2
100
AcDbSymbolTableRecord
100
AcDbLayerTableRecord
  2
111
 70
     0
 62
     7
  6
Continuous
290
     1
370
    -3
390
F
  0
LAYER
  5
98
330
2
100
AcDbSymbolTableRecord
100
AcDbLayerTableRecord
  2
112
 70
     0
 62
     7
  6
Continuous
290
     1
370
    -3
390
F
  0
LAYER
  5
99
330
2
100
AcDbSymbolTableRecord
100
AcDbLayerTableRecord
  2
113
 70
     0
 62
     7
  6
Continuous
290
     1
370
    -3
390
F
  0
LAYER
  5
9A
330
2
100
AcDbSymbolTableRecord
100
AcDbLayerTableRecord
  2
114
 70
     0
 62
     7
  6
Continuous
290
     1
370
    -3
390
F
  0
LAYER
  5
9B
330
2
100
AcDbSymbolTableRecord
100
AcDbLayerTableRecord
  2
115
 70
     0
 62
     7
  6
Continuous
290
     1
370
    -3
390
F
  0
LAYER
  5
9C
330
2
100
AcDbSymbolTableRecord
100
AcDbLayerTableRecord
  2
116
 70
     0
 62
     7
  6
Continuous
290
     1
370
    -3
390
F
  0
LAYER
  5
9D
330
2
100
AcDbSymbolTableRecord
100
AcDbLayerTableRecord
  2
117
 70
     0
 62
     7
  6
Continuous
290
     1
370
    -3
390
F
  0
LAYER
  5
9E
330
2
100
AcDbSymbolTableRecord
100
AcDbLayerTableRecord
  2
118
 70
     0
 62
     7
  6
Continuous
290
     1
370
    -3
390
F
  0
LAYER
  5
9F
330
2
100
AcDbSymbolTableRecord
100
AcDbLayerTableRecord
  2
119
 70
     0
 62
     7
  6
Continuous
290
     1
370
    -3
390
F
  0
LAYER
  5
A0
330
2
100
AcDbSymbolTableRecord
100
AcDbLayerTableRecord
  2
120
 70
     0
 62
     7
  6
Continuous
290
     1
370
    -3
390
F
  0
LAYER
  5
A1
330
2
100
AcDbSymbolTableRecord
100
AcDbLayerTableRecord
  2
121
 70
     0
 62
     7
  6
Continuous
290
     1
370
    -3
390
F
  0
LAYER
  5
A2
330
2
100
AcDbSymbolTableRecord
100
AcDbLayerTableRecord
  2
122
 70
     0
 62
     7
  6
Continuous
290
     1
370
    -3
390
F
  0
LAYER
  5
A3
330
2
100
AcDbSymbolTableRecord
100
AcDbLayerTableRecord
  2
123
 70
     0
 62
     7
  6
Continuous
290
     1
370
    -3
390
F
  0
LAYER
  5
A4
330
2
100
AcDbSymbolTableRecord
100
AcDbLayerTableRecord
  2
124
 70
     0
 62
     7
  6
Continuous
290
     1
370
    -3
390
F
  0
LAYER
  5
A5
330
2
100
AcDbSymbolTableRecord
100
AcDbLayerTableRecord
  2
125
 70
     0
 62
     7
  6
Continuous
290
     1
370
    -3
390
F
  0
LAYER
  5
A6
330
2
100
AcDbSymbolTableRecord
100
AcDbLayerTableRecord
  2
126
 70
     0
 62
     7
  6
Continuous
290
     1
370
    -3
390
F
  0
LAYER
  5
A7
330
2
100
AcDbSymbolTableRecord
100
AcDbLayerTableRecord
  2
127
 70
     0
 62
     7
  6
Continuous
290
     1
370
    -3
390
F
  0
LAYER
  5
A8
330
2
100
AcDbSymbolTableRecord
100
AcDbLayerTableRecord
  2
128
 70
     0
 62
     7
  6
Continuous
290
     1
370
    -3
390
F
  0
ENDTAB
  0
TABLE
  2
STYLE
  5
3
330
0
100
AcDbSymbolTable
 70
     6
  0
STYLE
  5
11
330
3
100
AcDbSymbolTableRecord
100
AcDbTextStyleTableRecord
  2
Standard
 70
     0
 40
0.0
 41
1.0
 50
0.0
 71
     0
 42
2.5
  3
txt
  4
extfont.shx
  0
STYLE
  5
B5
330
3
100
AcDbSymbolTableRecord
100
AcDbTextStyleTableRecord
  2
KANJI0
 70
     0
 40
5.336
 41
0.9
 50
0.0
 71
     0
 42
5.336
  3
txt.shx
  4
extfont.shx
  0
STYLE
  5
C0
330
3
100
AcDbSymbolTableRecord
100
AcDbTextStyleTableRecord
  2
KANJI1
 70
     0
 40
6.0
 41
0.6
 50
0.0
 71
     0
 42
6.0
  3
txt.shx
  4
extfont.shx
  0
STYLE
  5
E5
330
3
100
AcDbSymbolTableRecord
100
AcDbTextStyleTableRecord
  2
KANJI2
 70
     0
 40
6.0
 41
1.0
 50
0.0
 71
     0
 42
6.0
  3
txt.shx
  4
extfont.shx
  0
STYLE
  5
3F6
330
3
100
AcDbSymbolTableRecord
100
AcDbTextStyleTableRecord
  2
KANJI3
 70
     0
 40
6.0
 41
0.6
 50
0.0
 71
     0
 42
6.0
  3
txt.shx
  4
extfont.shx
  0
STYLE
  5
3F8
330
3
100
AcDbSymbolTableRecord
100
AcDbTextStyleTableRecord
  2
KANJI4
 70
     0
 40
7.114666667
 41
0.9
 50
0.0
 71
     0
 42
7.114666667
  3
txt.shx
  4
extfont.shx
  0
ENDTAB
  0
TABLE
  2
VIEW
  5
6
330
0
100
AcDbSymbolTable
 70
     0
  0
ENDTAB
  0
TABLE
  2
UCS
  5
7
330
0
100
AcDbSymbolTable
 70
     0
  0
ENDTAB
  0
TABLE
  2
APPID
  5
9
330
0
100
AcDbSymbolTable
 70
     1
  0
APPID
  5
12
330
9
100
AcDbSymbolTableRecord
100
AcDbRegAppTableRecord
  2
ACAD
 70
     0
  0
ENDTAB
  0
TABLE
  2
DIMSTYLE
  5
A
330
0
100
AcDbSymbolTable
 70
     1
100
AcDbDimStyleTable
 71
     0
  0
DIMSTYLE
105
27
330
A
100
AcDbSymbolTableRecord
100
AcDbDimStyleTableRecord
  2
ISO-25
 70
     0
  3

  4

 40
1.0
 41
2.5
 42
0.625
 43
3.75
 44
1.25
 45
0.0
 46
0.0
 47
0.0
 48
0.0
 71
     0
 72
     0
 73
     0
 74
     0
 75
     0
 76
     0
 77
     1
 78
     8
 79
     0
140
2.5
141
2.5
142
0.0
143
0.039370079
144
1.0
145
0.0
146
1.0
147
0.625
148
0.0
170
     0
171
     3
172
     1
173
     0
174
     0
175
     0
176
     0
177
     0
178
     0
179
     0
270
     2
271
     2
272
     2
273
     2
274
     3
275
     0
276
     0
277
     2
278
    46
279
     0
280
     0
281
     0
282
     0
283
     1
284
     8
285
     0
286
     0
288
     0
289
     0
340
11
341
0
342
0
343
0
344
0
371
    -2
372
    -2
  0
ENDTAB
  0
TABLE
  2
BLOCK_RECORD
  5
1
330
0
100
AcDbSymbolTable
 70
     3
  0
BLOCK_RECORD
  5
1F
330
1
100
AcDbSymbolTableRecord
100
AcDbBlockTableRecord
  2
*Model_Space
340
22
  0
BLOCK_RECORD
  5
1B
330
1
100
AcDbSymbolTableRecord
100
AcDbBlockTableRecord
  2
*Paper_Space
340
1E
  0
BLOCK_RECORD
  5
23
330
1
100
AcDbSymbolTableRecord
100
AcDbBlockTableRecord
  2
*Paper_Space0
340
26
  0
ENDTAB
  0
ENDSEC
  0
SECTION
  2
BLOCKS
  0
BLOCK
  5
1C
330
1B
100
AcDbEntity
 67
     1
  8
0
100
AcDbBlockBegin
  2
*Paper_Space
 70
     0
 10
0.0
 20
0.0
 30
0.0
  3
*Paper_Space
  1

  0
ENDBLK
  5
1D
330
1B
100
AcDbEntity
  8
0
100
AcDbBlockEnd
  0
BLOCK
  5
20
330
1F
100
AcDbEntity
  8
0
100
AcDbBlockBegin
  2
*Model_Space
 70
     0
 10
0.0
 20
0.0
 30
0.0
  3
*Model_Space
  1

  0
ENDBLK
  5
21
330
1F
100
AcDbEntity
  8
0
100
AcDbBlockEnd
  0
BLOCK
  5
24
330
23
100
AcDbEntity
 67
     1
  8
0
100
AcDbBlockBegin
  2
*Paper_Space0
 70
     0
 10
0.0
 20
0.0
 30
0.0
  3
*Paper_Space0
  1

  0
ENDBLK
  5
25
330
23
100
AcDbEntity
  8
0
100
AcDbBlockEnd
  0
ENDSEC
  0
SECTION
  2
ENTITIES
  0
LWPOLYLINE
  5
AA
330
1F
100
AcDbEntity
  8
3
  6
Continuous
 62
     2
100
AcDbPolyline
 90
     3
 70
   128
 43
0.0
 10
575.853333333
 20
404.88
 10
20.0
 20
404.88
 10
20.0
 20
13.333333333
  0
LWPOLYLINE
  5
AC
330
1F
100
AcDbEntity
  8
3
  6
Continuous
 62
     2
100
AcDbPolyline
 90
     3
 70
   128
 43
0.0
 10
20.0
 20
13.333333333
 10
575.853333333
 20
13.333333333
 10
575.853333333
 20
404.88
  0
LINE
  5
AD
330
1F
100
AcDbEntity
  8
3
  6
Continuous
 62
     2
100
AcDbLine
 10
451.346666667
 20
24.005333333
 30
0.0
 11
575.853333333
 21
24.005333333
 31
0.0
  0
LINE
  5
AE
330
1F
100
AcDbEntity
  8
3
  6
Continuous
 62
     2
100
AcDbLine
 10
575.853333333
 20
34.677333333
 30
0.0
 11
451.346666667
 21
34.677333333
 31
0.0
  0
LINE
  5
AF
330
1F
100
AcDbEntity
  8
3
  6
Continuous
 62
     2
100
AcDbLine
 10
451.346666667
 20
45.349333333
 30
0.0
 11
575.853333333
 21
45.349333333
 31
0.0
  0
LINE
  5
B0
330
1F
100
AcDbEntity
  8
3
  6
Continuous
 62
     2
100
AcDbLine
 10
575.853333333
 20
56.021333333
 30
0.0
 11
451.346666667
 21
56.021333333
 31
0.0
  0
LINE
  5
B1
330
1F
100
AcDbEntity
  8
3
  6
Continuous
 62
     2
100
AcDbLine
 10
451.346666667
 20
66.693333333
 30
0.0
 11
575.853333333
 21
66.693333333
 31
0.0
  0
LINE
  5
B2
330
1F
100
AcDbEntity
  8
3
  6
Continuous
 62
     2
100
AcDbLine
 10
575.853333333
 20
77.365333333
 30
0.0
 11
451.346666667
 21
77.365333333
 31
0.0
  0
LINE
  5
B3
330
1F
100
AcDbEntity
  8
3
  6
Continuous
 62
     2
100
AcDbLine
 10
451.346666667
 20
77.365333333
 30
0.0
 11
451.346666667
 21
13.333333333
 31
0.0
  0
TEXT
  5
B4
330
1F
100
AcDbEntity
  8
3
  6
Continuous
 62
     2
100
AcDbText
 10
455.793333333
 20
58.689333333
 30
0.0
 40
5.336
  1
フリーセッテングスピーカホルダー
 41
0.9
  7
KANJI0
100
AcDbText
  0
TEXT
  5
B6
330
1F
100
AcDbEntity
  8
3
  6
Continuous
 62
     2
100
AcDbText
 10
455.793333333
 20
48.017333333
 30
0.0
 40
5.336
  1
黒色塗装　他
 41
0.9
  7
KANJI0
100
AcDbText
  0
TEXT
  5
B7
330
1F
100
AcDbEntity
  8
3
  6
Continuous
 62
     2
100
AcDbText
 10
455.793333333
 20
16.001333333
 30
0.0
 40
5.336
  1
用紙　Ａ４　　　尺度　１／２
 41
0.9
  7
KANJI0
100
AcDbText
  0
LINE
  5
B8
330
1F
100
AcDbEntity
  8
7
  6
Continuous
 62
     2
100
AcDbLine
 10
528.0
 20
203.0
 30
0.0
 11
528.0
 21
176.0
 31
0.0
  0
LINE
  5
B9
330
1F
100
AcDbEntity
  8
7
  6
Continuous
 62
     2
100
AcDbLine
 10
528.0
 20
180.0
 30
0.0
 11
523.170370869
 21
181.294095226
 31
0.0
  0
LINE
  5
BA
330
1F
100
AcDbEntity
  8
7
  6
Continuous
 62
     2
100
AcDbLine
 10
528.0
 20
180.0
 30
0.0
 11
523.170370869
 21
178.705904774
 31
0.0
  0
LINE
  5
BB
330
1F
100
AcDbEntity
  8
7
  6
Continuous
 62
     2
100
AcDbLine
 10
528.0
 20
180.0
 30
0.0
 11
492.0
 21
180.0
 31
0.0
  0
LINE
  5
BC
330
1F
100
AcDbEntity
  8
7
  6
Continuous
 62
     2
100
AcDbLine
 10
492.0
 20
180.0
 30
0.0
 11
496.829629131
 21
178.705904774
 31
0.0
  0
LINE
  5
BD
330
1F
100
AcDbEntity
  8
7
  6
Continuous
 62
     2
100
AcDbLine
 10
492.0
 20
180.0
 30
0.0
 11
496.829629131
 21
181.294095226
 31
0.0
  0
LINE
  5
BE
330
1F
100
AcDbEntity
  8
7
  6
Continuous
 62
     2
100
AcDbLine
 10
492.0
 20
203.0
 30
0.0
 11
492.0
 21
176.0
 31
0.0
  0
TEXT
  5
BF
330
1F
100
AcDbEntity
  8
7
  6
Continuous
 62
     2
100
AcDbText
 10
506.1
 20
182.0
 30
0.0
 40
6.0
  1
３６
 41
0.6
  7
KANJI1
100
AcDbText
  0
LINE
  5
C1
330
1F
100
AcDbEntity
  8
7
  6
Continuous
 62
     2
100
AcDbLine
 10
434.0
 20
198.0
 30
0.0
 11
434.0
 21
176.0
 31
0.0
  0
LINE
  5
C2
330
1F
100
AcDbEntity
  8
7
  6
Continuous
 62
     2
100
AcDbLine
 10
434.0
 20
180.0
 30
0.0
 11
429.170370869
 21
181.294095226
 31
0.0
  0
LINE
  5
C3
330
1F
100
AcDbEntity
  8
7
  6
Continuous
 62
     2
100
AcDbLine
 10
434.0
 20
180.0
 30
0.0
 11
429.170370869
 21
178.705904774
 31
0.0
  0
LINE
  5
C4
330
1F
100
AcDbEntity
  8
7
  6
Continuous
 62
     2
100
AcDbLine
 10
434.0
 20
180.0
 30
0.0
 11
388.0
 21
180.0
 31
0.0
  0
LINE
  5
C5
330
1F
100
AcDbEntity
  8
7
  6
Continuous
 62
     2
100
AcDbLine
 10
388.0
 20
180.0
 30
0.0
 11
392.829629131
 21
178.705904774
 31
0.0
  0
LINE
  5
C6
330
1F
100
AcDbEntity
  8
7
  6
Continuous
 62
     2
100
AcDbLine
 10
388.0
 20
180.0
 30
0.0
 11
392.829629131
 21
181.294095226
 31
0.0
  0
LINE
  5
C7
330
1F
100
AcDbEntity
  8
7
  6
Continuous
 62
     2
100
AcDbLine
 10
388.0
 20
248.0
 30
0.0
 11
388.0
 21
176.0
 31
0.0
  0
TEXT
  5
C8
330
1F
100
AcDbEntity
  8
7
  6
Continuous
 62
     2
100
AcDbText
 10
407.1
 20
182.0
 30
0.0
 40
6.0
  1
４６
 41
0.6
  7
KANJI1
100
AcDbText
  0
LINE
  5
C9
330
1F
100
AcDbEntity
  8
7
  6
Continuous
 62
     2
100
AcDbLine
 10
388.0
 20
180.0
 30
0.0
 11
383.170370869
 21
181.294095226
 31
0.0
  0
LINE
  5
CA
330
1F
100
AcDbEntity
  8
7
  6
Continuous
 62
     2
100
AcDbLine
 10
388.0
 20
180.0
 30
0.0
 11
383.170370869
 21
178.705904774
 31
0.0
  0
LINE
  5
CB
330
1F
100
AcDbEntity
  8
7
  6
Continuous
 62
     2
100
AcDbLine
 10
388.0
 20
180.0
 30
0.0
 11
38.0
 21
180.0
 31
0.0
  0
LINE
  5
CC
330
1F
100
AcDbEntity
  8
7
  6
Continuous
 62
     2
100
AcDbLine
 10
38.0
 20
180.0
 30
0.0
 11
42.829629131
 21
178.705904774
 31
0.0
  0
LINE
  5
CD
330
1F
100
AcDbEntity
  8
7
  6
Continuous
 62
     2
100
AcDbLine
 10
38.0
 20
180.0
 30
0.0
 11
42.829629131
 21
181.294095226
 31
0.0
  0
LINE
  5
CE
330
1F
100
AcDbEntity
  8
7
  6
Continuous
 62
     2
100
AcDbLine
 10
38.0
 20
313.0
 30
0.0
 11
38.0
 21
176.0
 31
0.0
  0
TEXT
  5
CF
330
1F
100
AcDbEntity
  8
7
  6
Continuous
 62
     2
100
AcDbText
 10
207.0
 20
182.0
 30
0.0
 40
6.0
  1
３５０
 41
0.6
  7
KANJI1
100
AcDbText
  0
LINE
  5
D0
330
1F
100
AcDbEntity
  8
7
  6
Continuous
 62
     2
100
AcDbLine
 10
508.0
 20
220.0
 30
0.0
 11
473.0
 21
220.0
 31
0.0
  0
LINE
  5
D1
330
1F
100
AcDbEntity
  8
7
  6
Continuous
 62
     2
100
AcDbLine
 10
477.0
 20
220.0
 30
0.0
 11
478.294095226
 21
224.829629131
 31
0.0
  0
LINE
  5
D2
330
1F
100
AcDbEntity
  8
7
  6
Continuous
 62
     2
100
AcDbLine
 10
477.0
 20
220.0
 30
0.0
 11
475.705904774
 21
224.829629131
 31
0.0
  0
LINE
  5
D3
330
1F
100
AcDbEntity
  8
7
  6
Continuous
 62
     2
100
AcDbLine
 10
477.0
 20
220.0
 30
0.0
 11
477.0
 21
280.0
 31
0.0
  0
LINE
  5
D4
330
1F
100
AcDbEntity
  8
7
  6
Continuous
 62
     2
100
AcDbLine
 10
477.0
 20
280.0
 30
0.0
 11
475.705904774
 21
275.170370869
 31
0.0
  0
LINE
  5
D5
330
1F
100
AcDbEntity
  8
7
  6
Continuous
 62
     2
100
AcDbLine
 10
477.0
 20
280.0
 30
0.0
 11
478.294095226
 21
275.170370869
 31
0.0
  0
LINE
  5
D6
330
1F
100
AcDbEntity
  8
7
  6
Continuous
 62
     2
100
AcDbLine
 10
508.0
 20
280.0
 30
0.0
 11
473.0
 21
280.0
 31
0.0
  0
TEXT
  5
D7
330
1F
100
AcDbEntity
  8
7
  6
Continuous
 62
     2
100
AcDbText
 10
475.0
 20
239.8
 30
0.0
 40
6.0
  1
６０～８０
 50
90.0
 41
0.6
  7
KANJI1
100
AcDbText
  0
LINE
  5
D8
330
1F
100
AcDbEntity
  8
7
  6
Continuous
 62
     2
100
AcDbLine
 10
495.0
 20
300.0
 30
0.0
 11
458.0
 21
300.0
 31
0.0
  0
LINE
  5
D9
330
1F
100
AcDbEntity
  8
7
  6
Continuous
 62
     2
100
AcDbLine
 10
462.0
 20
300.0
 30
0.0
 11
460.705904774
 21
295.170370869
 31
0.0
  0
LINE
  5
DA
330
1F
100
AcDbEntity
  8
7
  6
Continuous
 62
     2
100
AcDbLine
 10
462.0
 20
300.0
 30
0.0
 11
463.294095226
 21
295.170370869
 31
0.0
  0
LINE
  5
DB
330
1F
100
AcDbEntity
  8
7
  6
Continuous
 62
     2
100
AcDbLine
 10
462.0
 20
300.0
 30
0.0
 11
462.0
 21
200.0
 31
0.0
  0
LINE
  5
DC
330
1F
100
AcDbEntity
  8
7
  6
Continuous
 62
     2
100
AcDbLine
 10
462.0
 20
200.0
 30
0.0
 11
463.294095226
 21
204.829629131
 31
0.0
  0
LINE
  5
DD
330
1F
100
AcDbEntity
  8
7
  6
Continuous
 62
     2
100
AcDbLine
 10
462.0
 20
200.0
 30
0.0
 11
460.705904774
 21
204.829629131
 31
0.0
  0
LINE
  5
DE
330
1F
100
AcDbEntity
  8
7
  6
Continuous
 62
     2
100
AcDbLine
 10
495.0
 20
200.0
 30
0.0
 11
458.0
 21
200.0
 31
0.0
  0
TEXT
  5
DF
330
1F
100
AcDbEntity
  8
7
  6
Continuous
 62
     2
100
AcDbText
 10
460.0
 20
244.0
 30
0.0
 40
6.0
  1
１００
 50
90.0
 41
0.6
  7
KANJI1
100
AcDbText
  0
LINE
  5
E0
330
1F
100
AcDbEntity
  8
7
  6
Continuous
 62
     2
100
AcDbLine
 10
422.2
 20
287.4
 30
0.0
 11
421.498437503
 21
292.350536341
 31
0.0
  0
LINE
  5
E1
330
1F
100
AcDbEntity
  8
7
  6
Continuous
 62
     2
100
AcDbLine
 10
422.2
 20
287.4
 30
0.0
 11
419.117160884
 21
291.336508985
 31
0.0
  0
LINE
  5
E2
330
1F
100
AcDbEntity
  8
7
  6
Continuous
 62
     2
100
AcDbLine
 10
422.2
 20
287.4
 30
0.0
 11
400.87
 21
337.49
 31
0.0
  0
LINE
  5
E3
330
1F
100
AcDbEntity
  8
7
  6
Continuous
 62
     2
100
AcDbLine
 10
400.87
 20
337.49
 30
0.0
 11
387.67
 21
337.49
 31
0.0
  0
TEXT
  5
E4
330
1F
100
AcDbEntity
  8
7
  6
Continuous
 62
     2
100
AcDbText
 10
387.67
 20
339.49
 30
0.0
 40
6.0
  1
Ｍ５
 41
1.0
  7
KANJI2
100
AcDbText
  0
LINE
  5
E6
330
1F
100
AcDbEntity
  8
0
  6
Continuous
 62
     1
100
AcDbLine
 10
240.500001913
 20
286.696152423
 30
0.0
 11
243.500001913
 21
281.5
 31
0.0
  0
LINE
  5
E7
330
1F
100
AcDbEntity
  8
0
  6
Continuous
 62
     1
100
AcDbLine
 10
240.500001913
 20
276.303847577
 30
0.0
 11
243.500001913
 21
281.5
 31
0.0
  0
ARC
  5
E8
330
1F
100
AcDbEntity
  8
0
  6
Continuous
 62
     1
100
AcDbCircle
 10
250.500001913
 20
270.0
 30
0.0
 40
10.0
100
AcDbArc
 50
270.0
 51
0.0
  0
LINE
  5
E9
330
1F
100
AcDbEntity
  8
0
  6
Continuous
 62
     1
100
AcDbLine
 10
250.500001913
 20
260.0
 30
0.0
 11
242.500001913
 21
260.0
 31
0.0
  0
ARC
  5
EA
330
1F
100
AcDbEntity
  8
0
  6
Continuous
 62
     1
100
AcDbCircle
 10
242.500001913
 20
262.0
 30
0.0
 40
2.0
100
AcDbArc
 50
180.0
 51
270.0
  0
ARC
  5
EB
330
1F
100
AcDbEntity
  8
0
  6
Continuous
 62
     1
100
AcDbCircle
 10
241.500001913
 20
299.627016654
 30
0.0
 40
1.0
100
AcDbArc
 50
104.477512186
 51
180.0
  0
ARC
  5
EC
330
1F
100
AcDbEntity
  8
0
  6
Continuous
 62
     1
100
AcDbCircle
 10
240.500001913
 20
303.5
 30
0.0
 40
3.0
100
AcDbArc
 50
284.477512186
 51
89.999948483
  0
LINE
  5
EE
330
1F
100
AcDbEntity
  8
0
  6
LTYPE1
 62
     2
100
AcDbLine
 10
171.100001755
 20
288.499999707
 30
0.0
 11
164.100001755
 21
288.499999707
 31
0.0
  0
LINE
  5
EF
330
1F
100
AcDbEntity
  8
0
  6
LTYPE1
 62
     2
100
AcDbLine
 10
171.10000207
 20
274.499999707
 30
0.0
 11
164.10000207
 21
274.499999707
 31
0.0
  0
ARC
  5
F0
330
1F
100
AcDbEntity
  8
0
  6
Continuous
 62
     1
100
AcDbCircle
 10
170.500002127
 20
262.0
 30
0.0
 40
2.0
100
AcDbArc
 50
270.0
 51
0.000001207
  0
ARC
  5
F1
330
1F
100
AcDbEntity
  8
0
  6
Continuous
 62
     1
100
AcDbCircle
 10
171.500001224
 20
299.627016338
 30
0.0
 40
1.0
100
AcDbArc
 50
0.000155836
 51
75.522322642
  0
LINE
  5
F2
330
1F
100
AcDbEntity
  8
0
  6
Continuous
 62
     1
100
AcDbLine
 10
172.500002697
 20
306.5
 30
0.0
 11
240.50000461
 21
306.5
 31
0.0
  0
ARC
  5
F3
330
1F
100
AcDbEntity
  8
0
  6
Continuous
 62
     1
100
AcDbCircle
 10
172.5
 20
303.5
 30
0.0
 40
3.0
100
AcDbArc
 50
89.999948483
 51
255.522567006
  0
LINE
  5
F4
330
1F
100
AcDbEntity
  8
0
  6
Continuous
 62
     1
100
AcDbLine
 10
260.500001913
 20
270.0
 30
0.0
 11
260.500001913
 21
335.0
 31
0.0
  0
LINE
  5
F5
330
1F
100
AcDbEntity
  8
0
  6
Continuous
 62
     1
100
AcDbLine
 10
170.500002127
 20
260.0
 30
0.0
 11
162.5
 21
260.0
 31
0.0
  0
LINE
  5
F6
330
1F
100
AcDbEntity
  8
0
  6
Continuous
 62
     1
100
AcDbLine
 10
152.5
 20
270.0
 30
0.0
 11
152.5
 21
335.0
 31
0.0
  0
ARC
  5
F7
330
1F
100
AcDbEntity
  8
0
  6
Continuous
 62
     1
100
AcDbCircle
 10
162.5
 20
270.0
 30
0.0
 40
10.0
100
AcDbArc
 50
180.0
 51
270.0
  0
ARC
  5
F8
330
1F
100
AcDbEntity
  8
0
  6
LTYPE1
 62
     2
100
AcDbCircle
 10
246.300001393
 20
343.4
 30
0.0
 40
5.8
100
AcDbArc
 50
359.999998521
 51
90.0
  0
ARC
  5
F9
330
1F
100
AcDbEntity
  8
0
  6
LTYPE1
 62
     2
100
AcDbCircle
 10
246.300001393
 20
343.4
 30
0.0
 40
2.6
100
AcDbArc
 50
359.999998793
 51
90.0
  0
CIRCLE
  5
FA
330
1F
100
AcDbEntity
  8
0
  6
Continuous
 62
     1
100
AcDbCircle
 10
177.50000045
 20
330.75
 30
0.0
 40
12.0
  0
CIRCLE
  5
FB
330
1F
100
AcDbEntity
  8
0
  6
Continuous
 62
     1
100
AcDbCircle
 10
235.500001463
 20
330.75
 30
0.0
 40
12.0
  0
ARC
  5
FC
330
1F
100
AcDbEntity
  8
0
  6
Continuous
 62
     1
100
AcDbCircle
 10
240.500001913
 20
335.0
 30
0.0
 40
20.0
100
AcDbArc
 50
0.0
 51
109.948433316
  0
ARC
  5
FD
330
1F
100
AcDbEntity
  8
0
  6
Continuous
 62
     1
100
AcDbCircle
 10
223.441279804
 20
382.0
 30
0.0
 40
30.0
100
AcDbArc
 50
270.0
 51
289.948450437
  0
ARC
  5
FE
330
1F
100
AcDbEntity
  8
0
  6
Continuous
 62
     1
100
AcDbCircle
 10
172.50000045
 20
335.0
 30
0.0
 40
20.0
100
AcDbArc
 50
70.051540169
 51
179.996672441
  0
LWPOLYLINE
  5
100
330
1F
100
AcDbEntity
  8
0
  6
Continuous
 62
     1
100
AcDbPolyline
 90
     3
 70
   128
 43
0.0
 10
179.323494623
 20
353.799998066
 42
0.087261992
 10
189.558728591
 20
352.0
 42
0.0
 10
223.441279804
 20
352.0
 42
0.0
  0
LINE
  5
101
330
1F
100
AcDbEntity
  8
0
  6
Continuous
 62
     1
100
AcDbLine
 10
240.500001913
 20
286.696152423
 30
0.0
 11
240.500001913
 21
299.627016654
 31
0.0
  0
LINE
  5
102
330
1F
100
AcDbEntity
  8
0
  6
Continuous
 62
     1
100
AcDbLine
 10
240.500001913
 20
262.0
 30
0.0
 11
240.500001913
 21
276.303847577
 31
0.0
  0
LINE
  5
103
330
1F
100
AcDbEntity
  8
0
  6
Continuous
 62
     1
100
AcDbLine
 10
190.500001913
 20
286.696152423
 30
0.0
 11
187.500001913
 21
281.5
 31
0.0
  0
LINE
  5
104
330
1F
100
AcDbEntity
  8
0
  6
Continuous
 62
     1
100
AcDbLine
 10
190.500001913
 20
276.303847577
 30
0.0
 11
187.500001913
 21
281.5
 31
0.0
  0
LINE
  5
105
330
1F
100
AcDbEntity
  8
0
  6
Continuous
 62
     1
100
AcDbLine
 10
188.500001913
 20
260.5
 30
0.0
 11
175.500001913
 21
260.5
 31
0.0
  0
ARC
  5
106
330
1F
100
AcDbEntity
  8
0
  6
Continuous
 62
     1
100
AcDbCircle
 10
188.500001913
 20
262.5
 30
0.0
 40
2.0
100
AcDbArc
 50
270.0
 51
0.0
  0
LINE
  5
107
330
1F
100
AcDbEntity
  8
0
  6
LTYPE1
 62
     2
100
AcDbLine
 10
178.700001913
 20
260.5
 30
0.0
 11
178.700001913
 21
302.5
 31
0.0
  0
ARC
  5
108
330
1F
100
AcDbEntity
  8
0
  6
Continuous
 62
     1
100
AcDbCircle
 10
188.500001913
 20
300.5
 30
0.0
 40
2.0
100
AcDbArc
 50
0.0
 51
90.0
  0
LINE
  5
109
330
1F
100
AcDbEntity
  8
0
  6
Continuous
 62
     1
100
AcDbLine
 10
188.500001913
 20
302.5
 30
0.0
 11
175.500001913
 21
302.5
 31
0.0
  0
LINE
  5
10A
330
1F
100
AcDbEntity
  8
0
  6
Continuous
 62
     1
100
AcDbLine
 10
190.500001913
 20
286.696152423
 30
0.0
 11
190.500001913
 21
300.5
 31
0.0
  0
LINE
  5
10B
330
1F
100
AcDbEntity
  8
0
  6
Continuous
 62
     1
100
AcDbLine
 10
190.500001913
 20
262.5
 30
0.0
 11
190.500001913
 21
276.303847577
 31
0.0
  0
LINE
  5
10C
330
1F
100
AcDbEntity
  8
0
  6
Continuous
 62
     1
100
AcDbLine
 10
172.5
 20
286.696152423
 30
0.0
 11
169.5
 21
281.5
 31
0.0
  0
LINE
  5
10D
330
1F
100
AcDbEntity
  8
0
  6
Continuous
 62
     1
100
AcDbLine
 10
172.5
 20
276.303847577
 30
0.0
 11
169.5
 21
281.5
 31
0.0
  0
LINE
  5
10E
330
1F
100
AcDbEntity
  8
0
  6
Continuous
 62
     1
100
AcDbLine
 10
172.500001571
 20
286.696152423
 30
0.0
 11
172.50000128
 21
299.627019058
 31
0.0
  0
LINE
  5
10F
330
1F
100
AcDbEntity
  8
0
  6
Continuous
 62
     1
100
AcDbLine
 10
172.500002127
 20
262.000000045
 30
0.0
 11
172.500001805
 21
276.303847577
 31
0.0
  0
ARC
  5
110
330
1F
100
AcDbEntity
  8
0
  6
Continuous
 62
     1
100
AcDbCircle
 10
206.500000956
 20
320.5
 30
0.0
 40
6.0
100
AcDbArc
 50
180.000051517
 51
359.999948483
  0
LINE
  5
111
330
1F
100
AcDbEntity
  8
0
  6
Continuous
 62
     1
100
AcDbLine
 10
200.500000956
 20
320.499994605
 30
0.0
 11
200.500000956
 21
324.5
 31
0.0
  0
ARC
  5
112
330
1F
100
AcDbEntity
  8
0
  6
Continuous
 62
     1
100
AcDbCircle
 10
201.000000956
 20
324.5
 30
0.0
 40
0.5
100
AcDbArc
 50
90.0
 51
180.0
  0
LINE
  5
113
330
1F
100
AcDbEntity
  8
0
  6
Continuous
 62
     1
100
AcDbLine
 10
212.500000956
 20
320.499994605
 30
0.0
 11
212.500000956
 21
324.5
 31
0.0
  0
LINE
  5
114
330
1F
100
AcDbEntity
  8
0
  6
Continuous
 62
     1
100
AcDbLine
 10
201.000000956
 20
325.0
 30
0.0
 11
212.000000956
 21
325.0
 31
0.0
  0
ARC
  5
115
330
1F
100
AcDbEntity
  8
0
  6
Continuous
 62
     1
100
AcDbCircle
 10
212.000000956
 20
324.5
 30
0.0
 40
0.5
100
AcDbArc
 50
0.0
 51
90.0
  0
LINE
  5
116
330
1F
100
AcDbEntity
  8
0
  6
Continuous
 62
     1
100
AcDbLine
 10
91.000001913
 20
285.0
 30
0.0
 11
90.500001913
 21
284.5
 31
0.0
  0
LINE
  5
117
330
1F
100
AcDbEntity
  8
0
  6
Continuous
 62
     1
100
AcDbLine
 10
90.500001913
 20
284.5
 30
0.0
 11
90.500001913
 21
278.5
 31
0.0
  0
LINE
  5
118
330
1F
100
AcDbEntity
  8
0
  6
Continuous
 62
     1
100
AcDbLine
 10
91.000001913
 20
278.0
 30
0.0
 11
90.500001913
 21
278.5
 31
0.0
  0
LINE
  5
119
330
1F
100
AcDbEntity
  8
0
  6
Continuous
 62
     2
100
AcDbLine
 10
91.000001913
 20
285.0
 30
0.0
 11
91.000001913
 21
278.0
 31
0.0
  0
LINE
  5
11A
330
1F
100
AcDbEntity
  8
0
  6
Continuous
 62
     2
100
AcDbLine
 10
105.500001913
 20
284.899997581
 30
0.0
 11
105.000001913
 21
285.0
 31
0.0
  0
LINE
  5
11B
330
1F
100
AcDbEntity
  8
0
  6
Continuous
 62
     1
100
AcDbLine
 10
105.000001913
 20
285.0
 30
0.0
 11
91.000001913
 21
285.0
 31
0.0
  0
LINE
  5
11C
330
1F
100
AcDbEntity
  8
0
  6
Continuous
 62
     1
100
AcDbLine
 10
105.499999547
 20
285.499997634
 30
0.0
 11
105.000001913
 21
285.0
 31
0.0
  0
LINE
  5
11D
330
1F
100
AcDbEntity
  8
0
  6
Continuous
 62
     2
100
AcDbLine
 10
105.500001913
 20
278.100002419
 30
0.0
 11
105.000001913
 21
278.0
 31
0.0
  0
LWPOLYLINE
  5
11F
330
1F
100
AcDbEntity
  8
0
  6
Continuous
 62
     1
100
AcDbPolyline
 90
     3
 70
   128
 43
0.0
 10
105.500007039
 20
277.499994873
 10
105.000001913
 20
278.0
 10
91.000001913
 20
278.0
  0
LINE
  5
120
330
1F
100
AcDbEntity
  8
0
  6
Continuous
 62
     2
100
AcDbLine
 10
105.500001913
 20
285.499997634
 30
0.0
 11
105.500001913
 21
277.499994873
 31
0.0
  0
CIRCLE
  5
121
330
1F
100
AcDbEntity
  8
0
  6
Continuous
 62
     1
100
AcDbCircle
 10
95.500001913
 20
281.5
 30
0.0
 40
3.5
  0
CIRCLE
  5
122
330
1F
100
AcDbEntity
  8
0
  6
Continuous
 62
     2
100
AcDbCircle
 10
95.500001913
 20
281.5
 30
0.0
 40
2.5
  0
LINE
  5
123
330
1F
100
AcDbEntity
  8
0
  6
Continuous
 62
     1
100
AcDbLine
 10
211.500000956
 20
387.2
 30
0.0
 11
212.500000956
 21
386.2
 31
0.0
  0
LINE
  5
124
330
1F
100
AcDbEntity
  8
0
  6
Continuous
 62
     1
100
AcDbLine
 10
211.500000956
 20
387.2
 30
0.0
 11
201.500000956
 21
387.2
 31
0.0
  0
LINE
  5
125
330
1F
100
AcDbEntity
  8
0
  6
Continuous
 62
     1
100
AcDbLine
 10
200.500000956
 20
386.2
 30
0.0
 11
201.500000956
 21
387.2
 31
0.0
  0
LINE
  5
126
330
1F
100
AcDbEntity
  8
0
  6
Continuous
 62
     2
100
AcDbLine
 10
212.500000956
 20
386.2
 30
0.0
 11
200.500000956
 21
386.2
 31
0.0
  0
LINE
  5
127
330
1F
100
AcDbEntity
  8
0
  6
Continuous
 62
     1
100
AcDbLine
 10
229.500000956
 20
379.7
 30
0.0
 11
228.500000956
 21
378.7
 31
0.0
  0
LINE
  5
128
330
1F
100
AcDbEntity
  8
0
  6
Continuous
 62
     1
100
AcDbLine
 10
229.500000956
 20
379.7
 30
0.0
 11
229.500000956
 21
384.7
 31
0.0
  0
LINE
  5
129
330
1F
100
AcDbEntity
  8
0
  6
Continuous
 62
     1
100
AcDbLine
 10
228.500000956
 20
385.7
 30
0.0
 11
229.500000956
 21
384.7
 31
0.0
  0
LINE
  5
12A
330
1F
100
AcDbEntity
  8
0
  6
Continuous
 62
     2
100
AcDbLine
 10
228.500000956
 20
385.7
 30
0.0
 11
228.500000956
 21
378.7
 31
0.0
  0
LINE
  5
12B
330
1F
100
AcDbEntity
  8
0
  6
Continuous
 62
     1
100
AcDbLine
 10
222.500000956
 20
378.7
 30
0.0
 11
228.500000956
 21
378.7
 31
0.0
  0
LINE
  5
12C
330
1F
100
AcDbEntity
  8
0
  6
Continuous
 62
     1
100
AcDbLine
 10
221.500000956
 20
379.7
 30
0.0
 11
222.500000956
 21
378.7
 31
0.0
  0
LINE
  5
12D
330
1F
100
AcDbEntity
  8
0
  6
Continuous
 62
     1
100
AcDbLine
 10
222.500000956
 20
385.7
 30
0.0
 11
228.500000956
 21
385.7
 31
0.0
  0
LINE
  5
12E
330
1F
100
AcDbEntity
  8
0
  6
Continuous
 62
     1
100
AcDbLine
 10
221.500000956
 20
379.7
 30
0.0
 11
221.500000956
 21
384.7
 31
0.0
  0
LINE
  5
12F
330
1F
100
AcDbEntity
  8
0
  6
Continuous
 62
     1
100
AcDbLine
 10
222.500000956
 20
385.7
 30
0.0
 11
221.500000956
 21
384.7
 31
0.0
  0
LINE
  5
130
330
1F
100
AcDbEntity
  8
0
  6
Continuous
 62
     2
100
AcDbLine
 10
222.500000956
 20
385.7
 30
0.0
 11
222.500000956
 21
378.7
 31
0.0
  0
LINE
  5
131
330
1F
100
AcDbEntity
  8
0
  6
Continuous
 62
     2
100
AcDbLine
 10
228.500000956
 20
385.4
 30
0.0
 11
222.500000956
 21
385.4
 31
0.0
  0
LINE
  5
132
330
1F
100
AcDbEntity
  8
0
  6
Continuous
 62
     2
100
AcDbLine
 10
222.500000956
 20
384.6
 30
0.0
 11
228.500000956
 21
384.6
 31
0.0
  0
LINE
  5
133
330
1F
100
AcDbEntity
  8
0
  6
Continuous
 62
     2
100
AcDbLine
 10
228.500000956
 20
383.8
 30
0.0
 11
222.500000956
 21
383.8
 31
0.0
  0
LINE
  5
134
330
1F
100
AcDbEntity
  8
0
  6
Continuous
 62
     2
100
AcDbLine
 10
222.500000956
 20
383.0
 30
0.0
 11
228.500000956
 21
383.0
 31
0.0
  0
LINE
  5
135
330
1F
100
AcDbEntity
  8
0
  6
Continuous
 62
     2
100
AcDbLine
 10
228.500000956
 20
382.2
 30
0.0
 11
222.500000956
 21
382.2
 31
0.0
  0
LINE
  5
136
330
1F
100
AcDbEntity
  8
0
  6
Continuous
 62
     2
100
AcDbLine
 10
222.500000956
 20
381.4
 30
0.0
 11
228.500000956
 21
381.4
 31
0.0
  0
LINE
  5
137
330
1F
100
AcDbEntity
  8
0
  6
Continuous
 62
     2
100
AcDbLine
 10
228.500000956
 20
380.6
 30
0.0
 11
222.500000956
 21
380.6
 31
0.0
  0
LINE
  5
138
330
1F
100
AcDbEntity
  8
0
  6
Continuous
 62
     2
100
AcDbLine
 10
222.500000956
 20
379.8
 30
0.0
 11
228.500000956
 21
379.8
 31
0.0
  0
LINE
  5
139
330
1F
100
AcDbEntity
  8
0
  6
Continuous
 62
     2
100
AcDbLine
 10
228.500000956
 20
379.0
 30
0.0
 11
222.500000956
 21
379.0
 31
0.0
  0
LINE
  5
13A
330
1F
100
AcDbEntity
  8
0
  6
Continuous
 62
     1
100
AcDbLine
 10
183.500000956
 20
379.7
 30
0.0
 11
184.500000956
 21
378.7
 31
0.0
  0
LINE
  5
13B
330
1F
100
AcDbEntity
  8
0
  6
Continuous
 62
     1
100
AcDbLine
 10
183.500000956
 20
379.7
 30
0.0
 11
183.500000956
 21
384.7
 31
0.0
  0
LINE
  5
13C
330
1F
100
AcDbEntity
  8
0
  6
Continuous
 62
     1
100
AcDbLine
 10
184.500000956
 20
385.7
 30
0.0
 11
183.500000956
 21
384.7
 31
0.0
  0
LINE
  5
13D
330
1F
100
AcDbEntity
  8
0
  6
Continuous
 62
     2
100
AcDbLine
 10
184.500000956
 20
385.7
 30
0.0
 11
184.500000956
 21
378.7
 31
0.0
  0
LINE
  5
13E
330
1F
100
AcDbEntity
  8
0
  6
Continuous
 62
     1
100
AcDbLine
 10
190.500000956
 20
378.7
 30
0.0
 11
184.500000956
 21
378.7
 31
0.0
  0
LINE
  5
13F
330
1F
100
AcDbEntity
  8
0
  6
Continuous
 62
     1
100
AcDbLine
 10
191.500000956
 20
379.7
 30
0.0
 11
190.500000956
 21
378.7
 31
0.0
  0
LINE
  5
140
330
1F
100
AcDbEntity
  8
0
  6
Continuous
 62
     1
100
AcDbLine
 10
190.500000956
 20
385.7
 30
0.0
 11
184.500000956
 21
385.7
 31
0.0
  0
LINE
  5
141
330
1F
100
AcDbEntity
  8
0
  6
Continuous
 62
     1
100
AcDbLine
 10
191.500000956
 20
379.7
 30
0.0
 11
191.500000956
 21
384.7
 31
0.0
  0
LINE
  5
142
330
1F
100
AcDbEntity
  8
0
  6
Continuous
 62
     1
100
AcDbLine
 10
190.500000956
 20
385.7
 30
0.0
 11
191.500000956
 21
384.7
 31
0.0
  0
LINE
  5
143
330
1F
100
AcDbEntity
  8
0
  6
Continuous
 62
     2
100
AcDbLine
 10
190.500000956
 20
385.7
 30
0.0
 11
190.500000956
 21
378.7
 31
0.0
  0
LINE
  5
144
330
1F
100
AcDbEntity
  8
0
  6
Continuous
 62
     2
100
AcDbLine
 10
184.500000956
 20
385.4
 30
0.0
 11
190.500000956
 21
385.4
 31
0.0
  0
LINE
  5
145
330
1F
100
AcDbEntity
  8
0
  6
Continuous
 62
     2
100
AcDbLine
 10
190.500000956
 20
384.6
 30
0.0
 11
184.500000956
 21
384.6
 31
0.0
  0
LINE
  5
146
330
1F
100
AcDbEntity
  8
0
  6
Continuous
 62
     2
100
AcDbLine
 10
184.500000956
 20
383.8
 30
0.0
 11
190.500000956
 21
383.8
 31
0.0
  0
LINE
  5
147
330
1F
100
AcDbEntity
  8
0
  6
Continuous
 62
     2
100
AcDbLine
 10
190.500000956
 20
383.0
 30
0.0
 11
184.500000956
 21
383.0
 31
0.0
  0
LINE
  5
148
330
1F
100
AcDbEntity
  8
0
  6
Continuous
 62
     2
100
AcDbLine
 10
184.500000956
 20
382.2
 30
0.0
 11
190.500000956
 21
382.2
 31
0.0
  0
LINE
  5
149
330
1F
100
AcDbEntity
  8
0
  6
Continuous
 62
     2
100
AcDbLine
 10
190.500000956
 20
381.4
 30
0.0
 11
184.500000956
 21
381.4
 31
0.0
  0
LINE
  5
14A
330
1F
100
AcDbEntity
  8
0
  6
Continuous
 62
     2
100
AcDbLine
 10
184.500000956
 20
380.6
 30
0.0
 11
190.500000956
 21
380.6
 31
0.0
  0
LINE
  5
14B
330
1F
100
AcDbEntity
  8
0
  6
Continuous
 62
     2
100
AcDbLine
 10
190.500000956
 20
379.8
 30
0.0
 11
184.500000956
 21
379.8
 31
0.0
  0
LINE
  5
14C
330
1F
100
AcDbEntity
  8
0
  6
Continuous
 62
     2
100
AcDbLine
 10
184.500000956
 20
379.0
 30
0.0
 11
190.500000956
 21
379.0
 31
0.0
  0
LINE
  5
14D
330
1F
100
AcDbEntity
  8
0
  6
Continuous
 62
     1
100
AcDbLine
 10
200.500000956
 20
384.2
 30
0.0
 11
191.500000956
 21
384.2
 31
0.0
  0
LINE
  5
14E
330
1F
100
AcDbEntity
  8
0
  6
Continuous
 62
     1
100
AcDbLine
 10
200.500000956
 20
380.2
 30
0.0
 11
191.500000956
 21
380.2
 31
0.0
  0
LINE
  5
14F
330
1F
100
AcDbEntity
  8
0
  6
Continuous
 62
     1
100
AcDbLine
 10
212.500000956
 20
384.2
 30
0.0
 11
221.500000956
 21
384.2
 31
0.0
  0
LINE
  5
150
330
1F
100
AcDbEntity
  8
0
  6
Continuous
 62
     1
100
AcDbLine
 10
212.500000956
 20
380.2
 30
0.0
 11
221.500000956
 21
380.2
 31
0.0
  0
LINE
  5
151
330
1F
100
AcDbEntity
  8
0
  6
LTYPE1
 62
     2
100
AcDbLine
 10
200.500000956
 20
380.2
 30
0.0
 11
212.500000956
 21
380.2
 31
0.0
  0
LINE
  5
152
330
1F
100
AcDbEntity
  8
0
  6
LTYPE1
 62
     2
100
AcDbLine
 10
200.500000956
 20
384.2
 30
0.0
 11
212.500000956
 21
384.2
 31
0.0
  0
LINE
  5
153
330
1F
100
AcDbEntity
  8
0
  6
LTYPE1
 62
     2
100
AcDbLine
 10
160.90000225
 20
266.500599725
 30
0.0
 11
160.90000052
 21
343.399999869
 31
0.0
  0
LINE
  5
154
330
1F
100
AcDbEntity
  8
0
  6
LTYPE1
 62
     2
100
AcDbLine
 10
164.10000225
 20
266.50000244
 30
0.0
 11
164.10000052
 21
343.399999941
 31
0.0
  0
ARC
  5
155
330
1F
100
AcDbEntity
  8
0
  6
LTYPE1
 62
     2
100
AcDbCircle
 10
162.500002138
 20
266.499999707
 30
0.0
 40
1.6
100
AcDbArc
 50
179.978513423
 51
0.000097883
  0
ARC
  5
156
330
1F
100
AcDbEntity
  8
0
  6
LTYPE1
 62
     2
100
AcDbCircle
 10
250.499999775
 20
266.499999707
 30
0.0
 40
1.6
100
AcDbArc
 50
179.999902117
 51
0.000095306
  0
LINE
  5
157
330
1F
100
AcDbEntity
  8
0
  6
LTYPE1
 62
     2
100
AcDbLine
 10
248.899999662
 20
266.50000244
 30
0.0
 11
248.900001393
 21
343.399999941
 31
0.0
  0
LINE
  5
158
330
1F
100
AcDbEntity
  8
0
  6
LTYPE1
 62
     2
100
AcDbLine
 10
252.099999662
 20
266.500002368
 30
0.0
 11
252.100001393
 21
343.399999869
 31
0.0
  0
LINE
  5
159
330
1F
100
AcDbEntity
  8
0
  6
LTYPE1
 62
     2
100
AcDbLine
 10
199.500000956
 20
337.8
 30
0.0
 11
199.500000956
 21
330.8
 31
0.0
  0
LINE
  5
15A
330
1F
100
AcDbEntity
  8
0
  6
LTYPE1
 62
     2
100
AcDbLine
 10
213.500000956
 20
330.8
 30
0.0
 11
199.500000956
 21
330.8
 31
0.0
  0
LINE
  5
15B
330
1F
100
AcDbEntity
  8
0
  6
LTYPE1
 62
     2
100
AcDbLine
 10
213.500000956
 20
337.8
 30
0.0
 11
213.500000956
 21
330.8
 31
0.0
  0
LINE
  5
15C
330
1F
100
AcDbEntity
  8
0
  6
LTYPE1
 62
     2
100
AcDbLine
 10
191.500000956
 20
311.0
 30
0.0
 11
221.500000956
 21
311.0
 31
0.0
  0
LINE
  5
15D
330
1F
100
AcDbEntity
  8
0
  6
LTYPE1
 62
     2
100
AcDbLine
 10
197.300000956
 20
341.0
 30
0.0
 11
197.300000956
 21
337.8
 31
0.0
  0
LINE
  5
15E
330
1F
100
AcDbEntity
  8
0
  6
LTYPE1
 62
     2
100
AcDbLine
 10
191.500000956
 20
335.2
 30
0.0
 11
191.500000956
 21
311.0
 31
0.0
  0
LWPOLYLINE
  5
160
330
1F
100
AcDbEntity
  8
0
  6
LTYPE1
 62
     2
100
AcDbPolyline
 90
     3
 70
   128
 43
0.0
 10
191.500000956
 20
335.2
 10
194.700000956
 20
335.2
 10
194.700000956
 20
311.0
  0
ARC
  5
161
330
1F
100
AcDbEntity
  8
0
  6
LTYPE1
 62
     2
100
AcDbCircle
 10
194.700000956
 20
337.8
 30
0.0
 40
2.6
100
AcDbArc
 50
270.0
 51
0.0
  0
ARC
  5
162
330
1F
100
AcDbEntity
  8
0
  6
LTYPE1
 62
     2
100
AcDbCircle
 10
197.300000956
 20
335.2
 30
0.0
 40
5.8
100
AcDbArc
 50
90.0
 51
180.0
  0
ARC
  5
163
330
1F
100
AcDbEntity
  8
0
  6
LTYPE1
 62
     2
100
AcDbCircle
 10
197.300000956
 20
335.2
 30
0.0
 40
2.6
100
AcDbArc
 50
90.000097775
 51
180.0
  0
LINE
  5
164
330
1F
100
AcDbEntity
  8
0
  6
LTYPE1
 62
     2
100
AcDbLine
 10
215.700000956
 20
341.0
 30
0.0
 11
215.700000956
 21
337.8
 31
0.0
  0
LINE
  5
165
330
1F
100
AcDbEntity
  8
0
  6
LTYPE1
 62
     2
100
AcDbLine
 10
221.500000956
 20
335.2
 30
0.0
 11
218.300000956
 21
335.2
 31
0.0
  0
ARC
  5
166
330
1F
100
AcDbEntity
  8
0
  6
LTYPE1
 62
     2
100
AcDbCircle
 10
218.300000956
 20
337.8
 30
0.0
 40
2.6
100
AcDbArc
 50
180.0
 51
270.0
  0
ARC
  5
167
330
1F
100
AcDbEntity
  8
0
  6
LTYPE1
 62
     2
100
AcDbCircle
 10
215.700000956
 20
335.2
 30
0.0
 40
5.8
100
AcDbArc
 50
0.0
 51
90.0
  0
ARC
  5
168
330
1F
100
AcDbEntity
  8
0
  6
LTYPE1
 62
     2
100
AcDbCircle
 10
215.700000956
 20
335.2
 30
0.0
 40
2.6
100
AcDbArc
 50
0.0
 51
89.999902225
  0
LINE
  5
169
330
1F
100
AcDbEntity
  8
0
  6
LTYPE1
 62
     2
100
AcDbLine
 10
215.700000956
 20
337.8
 30
0.0
 11
197.300000956
 21
337.8
 31
0.0
  0
LINE
  5
16A
330
1F
100
AcDbEntity
  8
0
  6
LTYPE1
 62
     2
100
AcDbLine
 10
215.700000956
 20
341.0
 30
0.0
 11
197.300000956
 21
341.0
 31
0.0
  0
LINE
  5
16B
330
1F
100
AcDbEntity
  8
0
  6
LTYPE1
 62
     2
100
AcDbLine
 10
218.300000956
 20
311.0
 30
0.0
 11
218.300000956
 21
335.2
 31
0.0
  0
LINE
  5
16C
330
1F
100
AcDbEntity
  8
0
  6
LTYPE1
 62
     2
100
AcDbLine
 10
221.500000956
 20
311.0
 30
0.0
 11
221.500000956
 21
335.2
 31
0.0
  0
LINE
  5
16D
330
1F
100
AcDbEntity
  8
0
  6
LTYPE1
 62
     2
100
AcDbLine
 10
200.500000956
 20
320.500005395
 30
0.0
 11
200.500000956
 21
316.5
 31
0.0
  0
ARC
  5
16E
330
1F
100
AcDbEntity
  8
0
  6
LTYPE1
 62
     2
100
AcDbCircle
 10
201.000000956
 20
316.5
 30
0.0
 40
0.5
100
AcDbArc
 50
180.0
 51
270.0
  0
LWPOLYLINE
  5
171
330
1F
100
AcDbEntity
  8
0
  6
LTYPE1
 62
     2
100
AcDbPolyline
 90
     3
 70
   128
 43
0.0
 10
212.500000956
 20
320.500005395
 42
0.0
 10
212.500000956
 20
316.5
 42
-0.414213562
 10
212.000000956
 20
316.0
 42
0.0
  0
LWPOLYLINE
  5
174
330
1F
100
AcDbEntity
  8
0
  6
LTYPE1
 62
     2
100
AcDbPolyline
 90
     3
 70
   128
 43
0.0
 10
246.300001393
 20
349.2
 42
0.0
 10
166.700004335
 20
349.2
 42
0.414213759
 10
160.90000052
 20
343.399999914
 42
0.0
  0
ARC
  5
175
330
1F
100
AcDbEntity
  8
0
  6
LTYPE1
 62
     2
100
AcDbCircle
 10
166.70000052
 20
343.4
 30
0.0
 40
2.6
100
AcDbArc
 50
89.999915936
 51
180.000001479
  0
LINE
  5
176
330
1F
100
AcDbEntity
  8
0
  6
LTYPE1
 62
     2
100
AcDbLine
 10
246.300001393
 20
346.0
 30
0.0
 11
166.700004335
 21
346.0
 31
0.0
  0
LINE
  5
177
330
1F
100
AcDbEntity
  8
0
  6
LTYPE1
 62
     2
100
AcDbLine
 10
171.10000185
 20
284.271284497
 30
0.0
 11
171.100001755
 21
288.499999707
 31
0.0
  0
LINE
  5
178
330
1F
100
AcDbEntity
  8
0
  6
LTYPE1
 62
     2
100
AcDbLine
 10
171.10000207
 20
274.499999707
 30
0.0
 11
171.100001975
 21
278.728715287
 31
0.0
  0
LINE
  5
179
330
1F
100
AcDbEntity
  8
0
  6
Continuous
 62
     2
100
AcDbLine
 10
171.100001975
 20
278.728715287
 30
0.0
 11
171.10000185
 21
284.271284497
 31
0.0
  0
LINE
  5
17A
330
1F
100
AcDbEntity
  8
0
  6
Continuous
 62
     2
100
AcDbLine
 10
152.5
 20
284.899999291
 30
0.0
 11
105.500001913
 21
284.899997581
 31
0.0
  0
LINE
  5
17B
330
1F
100
AcDbEntity
  8
0
  6
Continuous
 62
     2
100
AcDbLine
 10
175.500001913
 20
284.900000128
 30
0.0
 11
171.462990905
 21
284.899999982
 31
0.0
  0
LINE
  5
17C
330
1F
100
AcDbEntity
  8
0
  6
Continuous
 62
     2
100
AcDbLine
 10
152.5
 20
278.099996531
 30
0.0
 11
105.500001913
 21
278.09999482
 31
0.0
  0
LINE
  5
17D
330
1F
100
AcDbEntity
  8
0
  6
Continuous
 62
     2
100
AcDbLine
 10
175.500001913
 20
278.099997368
 30
0.0
 11
171.46299252
 21
278.099997221
 31
0.0
  0
LINE
  5
17E
330
1F
100
AcDbEntity
  8
0
  6
Continuous
 62
     1
100
AcDbLine
 10
152.5
 20
277.499996392
 30
0.0
 11
105.500001913
 21
277.499994873
 31
0.0
  0
LINE
  5
17F
330
1F
100
AcDbEntity
  8
0
  6
Continuous
 62
     1
100
AcDbLine
 10
152.5
 20
285.499999153
 30
0.0
 11
105.500001913
 21
285.499997634
 31
0.0
  0
LINE
  5
180
330
1F
100
AcDbEntity
  8
0
  6
Continuous
 62
     1
100
AcDbLine
 10
175.500001913
 20
285.499999897
 30
0.0
 11
171.809400948
 21
285.499999777
 31
0.0
  0
LINE
  5
181
330
1F
100
AcDbEntity
  8
0
  6
Continuous
 62
     1
100
AcDbLine
 10
175.500001913
 20
277.499997136
 30
0.0
 11
171.809402799
 21
277.499997017
 31
0.0
  0
LINE
  5
182
330
1F
100
AcDbEntity
  8
0
  6
LTYPE1
 62
     2
100
AcDbLine
 10
171.809400948
 20
285.499999777
 30
0.0
 11
152.5
 21
285.499999153
 31
0.0
  0
LINE
  5
183
330
1F
100
AcDbEntity
  8
0
  6
LTYPE1
 62
     2
100
AcDbLine
 10
171.809402799
 20
277.499997017
 30
0.0
 11
152.5
 21
277.499996392
 31
0.0
  0
LINE
  5
184
330
1F
100
AcDbEntity
  8
0
  6
Continuous
 62
     1
100
AcDbLine
 10
200.500000956
 20
386.2
 30
0.0
 11
200.500000956
 21
352.0
 31
0.0
  0
LINE
  5
185
330
1F
100
AcDbEntity
  8
0
  6
Continuous
 62
     1
100
AcDbLine
 10
212.500000956
 20
386.2
 30
0.0
 11
212.500000956
 21
352.0
 31
0.0
  0
LINE
  5
186
330
1F
100
AcDbEntity
  8
0
  6
LTYPE1
 62
     2
100
AcDbLine
 10
212.500000956
 20
352.0
 30
0.0
 11
212.500000956
 21
349.70000018
 31
0.0
  0
LINE
  5
187
330
1F
100
AcDbEntity
  8
0
  6
LTYPE1
 62
     2
100
AcDbLine
 10
200.500000956
 20
352.0
 30
0.0
 11
200.500000956
 21
349.70000018
 31
0.0
  0
LINE
  5
188
330
1F
100
AcDbEntity
  8
0
  6
LTYPE1
 62
     2
100
AcDbLine
 10
202.499999477
 20
329.799999904
 30
0.0
 11
202.499998846
 21
349.19999991
 31
0.0
  0
LINE
  5
189
330
1F
100
AcDbEntity
  8
0
  6
LTYPE1
 62
     2
100
AcDbLine
 10
210.499999477
 20
329.800000096
 30
0.0
 11
210.499998846
 21
349.20000009
 31
0.0
  0
LINE
  5
18A
330
1F
100
AcDbEntity
  8
0
  6
LTYPE1
 62
     2
100
AcDbLine
 10
203.099999491
 20
329.199999923
 30
0.0
 11
209.899999491
 21
329.200000077
 31
0.0
  0
LINE
  5
18B
330
1F
100
AcDbEntity
  8
0
  6
LTYPE1
 62
     2
100
AcDbLine
 10
202.499999477
 20
329.799999904
 30
0.0
 11
203.099999491
 21
329.199999923
 31
0.0
  0
LINE
  5
18C
330
1F
100
AcDbEntity
  8
0
  6
LTYPE1
 62
     2
100
AcDbLine
 10
210.499999477
 20
329.800000096
 30
0.0
 11
209.899999491
 21
329.200000077
 31
0.0
  0
LINE
  5
18D
330
1F
100
AcDbEntity
  8
0
  6
LTYPE1
 62
     2
100
AcDbLine
 10
203.100003375
 20
344.20000018
 30
0.0
 11
202.500003342
 21
344.800000213
 31
0.0
  0
LINE
  5
18E
330
1F
100
AcDbEntity
  8
0
  6
LTYPE1
 62
     2
100
AcDbLine
 10
209.899998538
 20
344.20000018
 30
0.0
 11
210.499998571
 21
344.800000213
 31
0.0
  0
LINE
  5
18F
330
1F
100
AcDbEntity
  8
0
  6
LTYPE1
 62
     2
100
AcDbLine
 10
210.500000956
 20
344.20000018
 30
0.0
 11
202.500000956
 21
344.20000018
 31
0.0
  0
LINE
  5
190
330
1F
100
AcDbEntity
  8
0
  6
LTYPE1
 62
     2
100
AcDbLine
 10
200.500000956
 20
349.70000018
 30
0.0
 11
201.000000956
 21
349.20000018
 31
0.0
  0
LINE
  5
191
330
1F
100
AcDbEntity
  8
0
  6
LTYPE1
 62
     2
100
AcDbLine
 10
212.500000956
 20
349.70000018
 30
0.0
 11
212.000000956
 21
349.20000018
 31
0.0
  0
LINE
  5
192
330
1F
100
AcDbEntity
  8
0
  6
Continuous
 62
     1
100
AcDbLine
 10
383.0
 20
265.0
 30
0.0
 11
383.0
 21
306.0
 31
0.0
  0
ARC
  5
193
330
1F
100
AcDbEntity
  8
0
  6
Continuous
 62
     1
100
AcDbCircle
 10
373.0
 20
306.0
 30
0.0
 40
10.0
100
AcDbArc
 50
0.0
 51
90.0
  0
LINE
  5
194
330
1F
100
AcDbEntity
  8
0
  6
Continuous
 62
     1
100
AcDbLine
 10
383.0
 20
274.0
 30
0.0
 11
392.0
 21
274.0
 31
0.0
  0
LWPOLYLINE
  5
197
330
1F
100
AcDbEntity
  8
0
  6
Continuous
 62
     1
100
AcDbPolyline
 90
     3
 70
   128
 43
0.0
 10
392.0
 20
266.0
 42
0.0
 10
392.0
 20
306.0
 42
0.414213562
 10
373.0
 20
325.0
 42
0.0
  0
LINE
  5
198
330
1F
100
AcDbEntity
  8
0
  6
Continuous
 62
     1
100
AcDbLine
 10
431.9
 20
202.0
 30
0.0
 11
431.9
 21
228.0
 31
0.0
  0
LINE
  5
199
330
1F
100
AcDbEntity
  8
0
  6
Continuous
 62
     1
100
AcDbLine
 10
428.5
 20
202.0
 30
0.0
 11
428.5
 21
232.0
 31
0.0
  0
LINE
  5
19A
330
1F
100
AcDbEntity
  8
0
  6
Continuous
 62
     1
100
AcDbLine
 10
433.5
 20
302.0
 30
0.0
 11
428.5
 21
302.0
 31
0.0
  0
LINE
  5
19B
330
1F
100
AcDbEntity
  8
0
  6
Continuous
 62
     1
100
AcDbLine
 10
430.1
 20
232.0
 30
0.0
 11
430.1
 21
272.0
 31
0.0
  0
LINE
  5
19C
330
1F
100
AcDbEntity
  8
0
  6
Continuous
 62
     1
100
AcDbLine
 10
430.1
 20
232.0
 30
0.0
 11
433.0
 21
229.4
 31
0.0
  0
ARC
  5
19D
330
1F
100
AcDbEntity
  8
0
  6
Continuous
 62
     1
100
AcDbCircle
 10
432.0
 20
228.3
 30
0.0
 40
1.5
100
AcDbArc
 50
0.0
 51
48.6
  0
LINE
  5
19E
330
1F
100
AcDbEntity
  8
0
  6
Continuous
 62
     1
100
AcDbLine
 10
433.5
 20
228.3
 30
0.0
 11
433.5
 21
202.0
 31
0.0
  0
LINE
  5
19F
330
1F
100
AcDbEntity
  8
0
  6
Continuous
 62
     1
100
AcDbLine
 10
431.9
 20
228.0
 30
0.0
 11
429.0
 21
230.6
 31
0.0
  0
ARC
  5
1A0
330
1F
100
AcDbEntity
  8
0
  6
Continuous
 62
     1
100
AcDbCircle
 10
430.0
 20
231.7
 30
0.0
 40
1.5
100
AcDbArc
 50
180.0
 51
228.6
  0
LINE
  5
1A1
330
1F
100
AcDbEntity
  8
0
  6
Continuous
 62
     1
100
AcDbLine
 10
431.9
 20
276.0
 30
0.0
 11
431.9
 21
302.0
 31
0.0
  0
LINE
  5
1A2
330
1F
100
AcDbEntity
  8
0
  6
Continuous
 62
     1
100
AcDbLine
 10
433.5
 20
302.0
 30
0.0
 11
433.5
 21
275.7
 31
0.0
  0
ARC
  5
1A3
330
1F
100
AcDbEntity
  8
0
  6
Continuous
 62
     1
100
AcDbCircle
 10
432.0
 20
275.7
 30
0.0
 40
1.5
100
AcDbArc
 50
311.4
 51
0.0
  0
LINE
  5
1A4
330
1F
100
AcDbEntity
  8
0
  6
Continuous
 62
     1
100
AcDbLine
 10
433.0
 20
274.6
 30
0.0
 11
430.1
 21
272.0
 31
0.0
  0
LINE
  5
1A5
330
1F
100
AcDbEntity
  8
0
  6
Continuous
 62
     1
100
AcDbLine
 10
428.5
 20
272.0
 30
0.0
 11
428.5
 21
302.0
 31
0.0
  0
LINE
  5
1A6
330
1F
100
AcDbEntity
  8
0
  6
Continuous
 62
     1
100
AcDbLine
 10
428.5
 20
231.7
 30
0.0
 11
428.5
 21
272.3
 31
0.0
  0
ARC
  5
1A7
330
1F
100
AcDbEntity
  8
0
  6
Continuous
 62
     1
100
AcDbCircle
 10
430.0
 20
272.3
 30
0.0
 40
1.5
100
AcDbArc
 50
131.4
 51
180.0
  0
LINE
  5
1A8
330
1F
100
AcDbEntity
  8
0
  6
Continuous
 62
     1
100
AcDbLine
 10
429.0
 20
273.4
 30
0.0
 11
431.9
 21
276.0
 31
0.0
  0
LINE
  5
1A9
330
1F
100
AcDbEntity
  8
0
  6
Continuous
 62
     1
100
AcDbLine
 10
428.5
 20
263.2
 30
0.0
 11
413.5
 21
263.2
 31
0.0
  0
LINE
  5
1AA
330
1F
100
AcDbEntity
  8
0
  6
Continuous
 62
     1
100
AcDbLine
 10
413.5
 20
240.8
 30
0.0
 11
428.5
 21
240.8
 31
0.0
  0
LWPOLYLINE
  5
1AC
330
1F
100
AcDbEntity
  8
0
  6
Continuous
 62
     1
100
AcDbPolyline
 90
     3
 70
   128
 43
0.0
 10
413.5
 20
255.5
 10
413.5
 20
269.5
 10
411.0
 20
272.0
  0
LINE
  5
1AD
330
1F
100
AcDbEntity
  8
0
  6
Continuous
 62
     1
100
AcDbLine
 10
411.0
 20
255.5
 30
0.0
 11
411.0
 21
272.0
 31
0.0
  0
LWPOLYLINE
  5
1AF
330
1F
100
AcDbEntity
  8
0
  6
Continuous
 62
     1
100
AcDbPolyline
 90
     3
 70
   128
 43
0.0
 10
399.0
 20
254.0
 10
399.0
 20
272.0
 10
411.0
 20
272.0
  0
ARC
  5
1B0
330
1F
100
AcDbEntity
  8
0
  6
Continuous
 62
     1
100
AcDbCircle
 10
395.0
 20
272.0
 30
0.0
 40
4.0
100
AcDbArc
 50
270.0
 51
0.0
  0
ARC
  5
1B1
330
1F
100
AcDbEntity
  8
0
  6
Continuous
 62
     1
100
AcDbCircle
 10
395.0
 20
232.0
 30
0.0
 40
4.0
100
AcDbArc
 50
0.0
 51
90.0
  0
LINE
  5
1B2
330
1F
100
AcDbEntity
  8
0
  6
Continuous
 62
     1
100
AcDbLine
 10
399.0
 20
232.0
 30
0.0
 11
399.0
 21
250.0
 31
0.0
  0
LWPOLYLINE
  5
1B4
330
1F
100
AcDbEntity
  8
0
  6
Continuous
 62
     1
100
AcDbPolyline
 90
     3
 70
   128
 43
0.0
 10
399.0
 20
232.0
 10
411.0
 20
232.0
 10
411.0
 20
248.5
  0
LWPOLYLINE
  5
1B6
330
1F
100
AcDbEntity
  8
0
  6
Continuous
 62
     1
100
AcDbPolyline
 90
     3
 70
   128
 43
0.0
 10
411.0
 20
232.0
 10
413.5
 20
234.5
 10
413.5
 20
248.5
  0
ARC
  5
1B7
330
1F
100
AcDbEntity
  8
0
  6
Continuous
 62
     1
100
AcDbCircle
 10
379.5
 20
264.5
 30
0.0
 40
3.0
100
AcDbArc
 50
170.5
 51
180.0
  0
LWPOLYLINE
  5
1B9
330
1F
100
AcDbEntity
  8
0
  6
Continuous
 62
     1
100
AcDbPolyline
 90
     3
 70
   128
 43
0.0
 10
376.5
 20
239.5
 42
0.414213562
 10
379.5
 20
236.5
 42
0.0
 10
395.0
 20
236.0
 42
0.0
  0
LINE
  5
1BA
330
1F
100
AcDbEntity
  8
0
  6
Continuous
 62
     1
100
AcDbLine
 10
376.5
 20
239.5
 30
0.0
 11
376.5
 21
264.5
 31
0.0
  0
LINE
  5
1BB
330
1F
100
AcDbEntity
  8
0
  6
Continuous
 62
     1
100
AcDbLine
 10
376.6
 20
265.0
 30
0.0
 11
389.5
 21
265.0
 31
0.0
  0
LINE
  5
1BC
330
1F
100
AcDbEntity
  8
0
  6
Continuous
 62
     1
100
AcDbLine
 10
394.0
 20
268.0
 30
0.0
 11
395.0
 21
268.0
 31
0.0
  0
ARC
  5
1BD
330
1F
100
AcDbEntity
  8
0
  6
Continuous
 62
     1
100
AcDbCircle
 10
388.3
 20
271.8
 30
0.0
 40
6.9
100
AcDbArc
 50
280.5
 51
326.9
  0
ARC
  5
1BF
330
1F
100
AcDbEntity
  8
0
  6
LTYPE2
 62
     2
100
AcDbCircle
 10
387.5
 20
252.0
 30
0.0
 40
11.1
100
AcDbArc
 50
245.8
 51
349.3
  0
LWPOLYLINE
  5
1C1
330
1F
100
AcDbEntity
  8
0
  6
Continuous
 62
     2
100
AcDbPolyline
 90
     5
 70
   128
 43
0.0
 10
433.5
 20
224.5
 10
441.7
 20
224.5
 10
442.7
 20
223.5
 10
442.7
 20
220.5
 10
441.7
 20
219.5
  0
LINE
  5
1C2
330
1F
100
AcDbEntity
  8
0
  6
Continuous
 62
     2
100
AcDbLine
 10
433.5
 20
219.5
 30
0.0
 11
441.7
 21
219.5
 31
0.0
  0
LWPOLYLINE
  5
1C4
330
1F
100
AcDbEntity
  8
0
  6
Continuous
 62
     2
100
AcDbPolyline
 90
     3
 70
   128
 43
0.0
 10
433.5
 20
220.2
 10
442.3
 20
220.2
 10
442.3
 20
223.8
  0
LINE
  5
1C5
330
1F
100
AcDbEntity
  8
0
  6
Continuous
 62
     2
100
AcDbLine
 10
433.5
 20
223.8
 30
0.0
 11
442.3
 21
223.8
 31
0.0
  0
LWPOLYLINE
  5
1C7
330
1F
100
AcDbEntity
  8
0
  6
Continuous
 62
     2
100
AcDbPolyline
 90
     4
 70
   128
 43
0.0
 10
428.5
 20
228.0
 10
427.7
 20
228.0
 10
427.7
 20
216.0
 10
428.5
 20
216.0
  0
ELLIPSE
  5
1C8
330
1F
100
AcDbEntity
  8
0
  6
Continuous
 62
     2
100
AcDbEllipse
 10
421.7
 20
222.0
 30
0.0
 11
0.0
 21
7.5
 31
0.0
 40
0.813333333
 41
1.228711793
 42
4.370304447
  0
LINE
  5
1C9
330
1F
100
AcDbEntity
  8
0
  6
Continuous
 62
     2
100
AcDbLine
 10
427.7
 20
224.5
 30
0.0
 11
427.4
 21
224.5
 31
0.0
  0
LINE
  5
1CA
330
1F
100
AcDbEntity
  8
0
  6
Continuous
 62
     2
100
AcDbLine
 10
427.4
 20
219.5
 30
0.0
 11
427.7
 21
219.5
 31
0.0
  0
ELLIPSE
  5
1CB
330
1F
100
AcDbEntity
  8
0
  6
Continuous
 62
     2
100
AcDbEllipse
 10
421.7
 20
222.0
 30
0.0
 11
0.0
 21
7.5
 31
0.0
 40
0.813333333
 41
5.054473514
 42
1.228711793
  0
LINE
  5
1CC
330
1F
100
AcDbEntity
  8
0
  6
Continuous
 62
     2
100
AcDbLine
 10
421.7
 20
229.4
 30
0.0
 11
421.7
 21
214.6
 31
0.0
  0
LINE
  5
1CD
330
1F
100
AcDbEntity
  8
0
  6
Continuous
 62
     2
100
AcDbLine
 10
422.4
 20
214.6
 30
0.0
 11
422.4
 21
229.3
 31
0.0
  0
LINE
  5
1CE
330
1F
100
AcDbEntity
  8
0
  6
Continuous
 62
     2
100
AcDbLine
 10
421.0
 20
214.6
 30
0.0
 11
421.0
 21
229.3
 31
0.0
  0
LWPOLYLINE
  5
1D0
330
1F
100
AcDbEntity
  8
0
  6
Continuous
 62
     2
100
AcDbPolyline
 90
     5
 70
   128
 43
0.0
 10
433.5
 20
284.5
 10
441.7
 20
284.5
 10
442.7
 20
283.5
 10
442.7
 20
280.5
 10
441.7
 20
279.5
  0
LINE
  5
1D1
330
1F
100
AcDbEntity
  8
0
  6
Continuous
 62
     2
100
AcDbLine
 10
433.5
 20
279.5
 30
0.0
 11
441.7
 21
279.5
 31
0.0
  0
LWPOLYLINE
  5
1D3
330
1F
100
AcDbEntity
  8
0
  6
Continuous
 62
     2
100
AcDbPolyline
 90
     3
 70
   128
 43
0.0
 10
433.5
 20
280.2
 10
442.3
 20
280.2
 10
442.3
 20
283.8
  0
LINE
  5
1D4
330
1F
100
AcDbEntity
  8
0
  6
Continuous
 62
     2
100
AcDbLine
 10
433.5
 20
283.8
 30
0.0
 11
442.3
 21
283.8
 31
0.0
  0
LWPOLYLINE
  5
1D6
330
1F
100
AcDbEntity
  8
0
  6
Continuous
 62
     2
100
AcDbPolyline
 90
     4
 70
   128
 43
0.0
 10
428.5
 20
288.0
 10
427.7
 20
288.0
 10
427.7
 20
276.0
 10
428.5
 20
276.0
  0
ELLIPSE
  5
1D7
330
1F
100
AcDbEntity
  8
0
  6
Continuous
 62
     2
100
AcDbEllipse
 10
421.7
 20
282.0
 30
0.0
 11
0.0
 21
7.5
 31
0.0
 40
0.813333333
 41
1.228711793
 42
4.370304447
  0
LINE
  5
1D8
330
1F
100
AcDbEntity
  8
0
  6
Continuous
 62
     2
100
AcDbLine
 10
427.7
 20
284.5
 30
0.0
 11
427.4
 21
284.5
 31
0.0
  0
LINE
  5
1D9
330
1F
100
AcDbEntity
  8
0
  6
Continuous
 62
     2
100
AcDbLine
 10
427.4
 20
279.5
 30
0.0
 11
427.7
 21
279.5
 31
0.0
  0
ELLIPSE
  5
1DA
330
1F
100
AcDbEntity
  8
0
  6
Continuous
 62
     2
100
AcDbEllipse
 10
421.7
 20
282.0
 30
0.0
 11
0.0
 21
7.5
 31
0.0
 40
0.813333333
 41
5.054473514
 42
1.228711793
  0
LINE
  5
1DB
330
1F
100
AcDbEntity
  8
0
  6
Continuous
 62
     2
100
AcDbLine
 10
421.7
 20
289.4
 30
0.0
 11
421.7
 21
274.6
 31
0.0
  0
LINE
  5
1DC
330
1F
100
AcDbEntity
  8
0
  6
Continuous
 62
     2
100
AcDbLine
 10
422.4
 20
274.6
 30
0.0
 11
422.4
 21
289.3
 31
0.0
  0
LINE
  5
1DD
330
1F
100
AcDbEntity
  8
0
  6
Continuous
 62
     2
100
AcDbLine
 10
421.0
 20
274.6
 30
0.0
 11
421.0
 21
289.3
 31
0.0
  0
LWPOLYLINE
  5
1DF
330
1F
100
AcDbEntity
  8
0
  6
Continuous
 62
     2
100
AcDbPolyline
 90
     5
 70
   128
 43
0.0
 10
430.1
 20
246.0
 10
431.1
 20
246.0
 10
431.6
 20
252.0
 10
431.1
 20
258.0
 10
430.1
 20
258.0
  0
LINE
  5
1E1
330
1F
100
AcDbEntity
  8
0
  6
LTYPE3
 62
     2
100
AcDbLine
 10
392.0
 20
262.0
 30
0.0
 11
392.0
 21
266.0
 31
0.0
  0
LWPOLYLINE
  5
1E3
330
1F
100
AcDbEntity
  8
0
  6
LTYPE3
 62
     2
100
AcDbPolyline
 90
     3
 70
   128
 43
0.0
 10
383.0
 20
265.0
 10
383.0
 20
262.0
 10
392.0
 20
262.0
  0
ARC
  5
1E4
330
1F
100
AcDbEntity
  8
0
  6
LTYPE2
 62
     2
100
AcDbCircle
 10
387.5
 20
252.0
 30
0.0
 40
11.1
100
AcDbArc
 50
114.2
 51
245.8
  0
ARC
  5
1E5
330
1F
100
AcDbEntity
  8
0
  6
Continuous
 62
     2
100
AcDbCircle
 10
385.3
 20
277.0
 30
0.0
 40
3.0
100
AcDbArc
 50
221.6
 51
318.4
  0
ARC
  5
1E6
330
1F
100
AcDbEntity
  8
0
  6
Continuous
 62
     2
100
AcDbCircle
 10
389.8
 20
277.0
 30
0.0
 40
3.0
100
AcDbArc
 50
221.6
 51
318.4
  0
LWPOLYLINE
  5
1E9
330
1F
100
AcDbEntity
  8
0
  6
Continuous
 62
     2
100
AcDbPolyline
 90
     3
 70
   128
 43
0.0
 10
387.5
 20
275.0
 42
0.0
 10
387.5
 20
306.0
 42
0.414213562
 10
373.0
 20
320.5
 42
0.0
  0
LWPOLYLINE
  5
1EB
330
1F
100
AcDbEntity
  8
0
  6
Continuous
 62
     2
100
AcDbPolyline
 90
     4
 70
   128
 43
0.0
 10
409.0
 20
254.6
 10
411.0
 20
255.5
 10
411.0
 20
248.5
 10
409.0
 20
249.4
  0
LWPOLYLINE
  5
1ED
330
1F
100
AcDbEntity
  8
0
  6
Continuous
 62
     2
100
AcDbPolyline
 90
     6
 70
   128
 43
0.0
 10
411.0
 20
248.5
 10
416.0
 20
248.5
 10
417.0
 20
249.5
 10
417.0
 20
254.5
 10
416.0
 20
255.5
 10
411.0
 20
255.5
  0
LINE
  5
1EE
330
1F
100
AcDbEntity
  8
0
  6
Continuous
 62
     2
100
AcDbLine
 10
416.0
 20
255.5
 30
0.0
 11
416.0
 21
248.5
 31
0.0
  0
LINE
  5
1EF
330
1F
100
AcDbEntity
  8
0
  6
Continuous
 62
     2
100
AcDbLine
 10
416.0
 20
252.0
 30
0.0
 11
411.0
 21
252.0
 31
0.0
  0
LINE
  5
1F0
330
1F
100
AcDbEntity
  8
0
  6
Continuous
 62
     2
100
AcDbLine
 10
411.0
 20
251.0
 30
0.0
 11
416.0
 21
251.0
 31
0.0
  0
LINE
  5
1F1
330
1F
100
AcDbEntity
  8
0
  6
Continuous
 62
     2
100
AcDbLine
 10
416.0
 20
250.0
 30
0.0
 11
411.0
 21
250.0
 31
0.0
  0
LINE
  5
1F2
330
1F
100
AcDbEntity
  8
0
  6
Continuous
 62
     2
100
AcDbLine
 10
411.0
 20
249.3
 30
0.0
 11
416.0
 21
249.3
 31
0.0
  0
LINE
  5
1F3
330
1F
100
AcDbEntity
  8
0
  6
Continuous
 62
     2
100
AcDbLine
 10
416.0
 20
248.8
 30
0.0
 11
411.0
 21
248.8
 31
0.0
  0
LINE
  5
1F4
330
1F
100
AcDbEntity
  8
0
  6
Continuous
 62
     2
100
AcDbLine
 10
416.0
 20
255.2
 30
0.0
 11
411.0
 21
255.2
 31
0.0
  0
LINE
  5
1F5
330
1F
100
AcDbEntity
  8
0
  6
Continuous
 62
     2
100
AcDbLine
 10
411.0
 20
254.7
 30
0.0
 11
416.0
 21
254.7
 31
0.0
  0
LINE
  5
1F6
330
1F
100
AcDbEntity
  8
0
  6
Continuous
 62
     2
100
AcDbLine
 10
416.0
 20
254.0
 30
0.0
 11
411.0
 21
254.0
 31
0.0
  0
LINE
  5
1F7
330
1F
100
AcDbEntity
  8
0
  6
Continuous
 62
     2
100
AcDbLine
 10
411.0
 20
253.0
 30
0.0
 11
416.0
 21
253.0
 31
0.0
  0
LWPOLYLINE
  5
1F9
330
1F
100
AcDbEntity
  8
0
  6
Continuous
 62
     2
100
AcDbPolyline
 90
     4
 70
   128
 43
0.0
 10
390.0
 20
249.4
 10
388.0
 20
248.5
 10
388.0
 20
255.5
 10
390.0
 20
254.6
  0
LWPOLYLINE
  5
1FB
330
1F
100
AcDbEntity
  8
0
  6
Continuous
 62
     2
100
AcDbPolyline
 90
     6
 70
   128
 43
0.0
 10
388.0
 20
255.5
 10
383.0
 20
255.5
 10
382.0
 20
254.5
 10
382.0
 20
249.5
 10
383.0
 20
248.5
 10
388.0
 20
248.5
  0
LINE
  5
1FC
330
1F
100
AcDbEntity
  8
0
  6
Continuous
 62
     2
100
AcDbLine
 10
383.0
 20
248.5
 30
0.0
 11
383.0
 21
255.5
 31
0.0
  0
LINE
  5
1FD
330
1F
100
AcDbEntity
  8
0
  6
Continuous
 62
     2
100
AcDbLine
 10
383.0
 20
252.0
 30
0.0
 11
388.0
 21
252.0
 31
0.0
  0
LINE
  5
1FE
330
1F
100
AcDbEntity
  8
0
  6
Continuous
 62
     2
100
AcDbLine
 10
388.0
 20
253.0
 30
0.0
 11
383.0
 21
253.0
 31
0.0
  0
LINE
  5
1FF
330
1F
100
AcDbEntity
  8
0
  6
Continuous
 62
     2
100
AcDbLine
 10
383.0
 20
254.0
 30
0.0
 11
388.0
 21
254.0
 31
0.0
  0
LINE
  5
200
330
1F
100
AcDbEntity
  8
0
  6
Continuous
 62
     2
100
AcDbLine
 10
388.0
 20
254.7
 30
0.0
 11
383.0
 21
254.7
 31
0.0
  0
LINE
  5
201
330
1F
100
AcDbEntity
  8
0
  6
Continuous
 62
     2
100
AcDbLine
 10
383.0
 20
255.2
 30
0.0
 11
388.0
 21
255.2
 31
0.0
  0
LINE
  5
202
330
1F
100
AcDbEntity
  8
0
  6
Continuous
 62
     2
100
AcDbLine
 10
383.0
 20
248.8
 30
0.0
 11
388.0
 21
248.8
 31
0.0
  0
LINE
  5
203
330
1F
100
AcDbEntity
  8
0
  6
Continuous
 62
     2
100
AcDbLine
 10
388.0
 20
249.3
 30
0.0
 11
383.0
 21
249.3
 31
0.0
  0
LINE
  5
204
330
1F
100
AcDbEntity
  8
0
  6
Continuous
 62
     2
100
AcDbLine
 10
383.0
 20
250.0
 30
0.0
 11
388.0
 21
250.0
 31
0.0
  0
LINE
  5
205
330
1F
100
AcDbEntity
  8
0
  6
Continuous
 62
     2
100
AcDbLine
 10
388.0
 20
251.0
 30
0.0
 11
383.0
 21
251.0
 31
0.0
  0
LINE
  5
206
330
1F
100
AcDbEntity
  8
0
  6
Continuous
 62
     2
100
AcDbLine
 10
390.0
 20
254.6
 30
0.0
 11
390.0
 21
249.4
 31
0.0
  0
LINE
  5
207
330
1F
100
AcDbEntity
  8
0
  6
Continuous
 62
     2
100
AcDbLine
 10
390.0
 20
250.0
 30
0.0
 11
401.5
 21
250.0
 31
0.0
  0
LINE
  5
208
330
1F
100
AcDbEntity
  8
0
  6
Continuous
 62
     2
100
AcDbLine
 10
390.0
 20
254.0
 30
0.0
 11
401.5
 21
254.0
 31
0.0
  0
CIRCLE
  5
209
330
1F
100
AcDbEntity
  8
0
  6
Continuous
 62
     2
100
AcDbCircle
 10
405.0
 20
252.0
 30
0.0
 40
4.0
  0
CIRCLE
  5
20A
330
1F
100
AcDbEntity
  8
0
  6
Continuous
 62
     2
100
AcDbCircle
 10
405.0
 20
252.0
 30
0.0
 40
3.0
  0
LINE
  5
20B
330
1F
100
AcDbEntity
  8
0
  6
Continuous
 62
     2
100
AcDbLine
 10
409.0
 20
249.4
 30
0.0
 11
409.0
 21
254.6
 31
0.0
  0
LINE
  5
20C
330
1F
100
AcDbEntity
  8
0
  6
Continuous
 62
     2
100
AcDbLine
 10
409.0
 20
254.0
 30
0.0
 11
408.5
 21
254.0
 31
0.0
  0
LINE
  5
20D
330
1F
100
AcDbEntity
  8
0
  6
Continuous
 62
     2
100
AcDbLine
 10
408.5
 20
250.0
 30
0.0
 11
409.0
 21
250.0
 31
0.0
  0
ARC
  5
20E
330
1F
100
AcDbEntity
  8
0
  6
LTYPE2
 62
     2
100
AcDbCircle
 10
387.5
 20
252.0
 30
0.0
 40
11.1
100
AcDbArc
 50
10.7
 51
65.8
  0
LINE
  5
20F
330
1F
100
AcDbEntity
  8
0
  6
Continuous
 62
     1
100
AcDbLine
 10
428.5
 20
202.0
 30
0.0
 11
433.5
 21
202.0
 31
0.0
  0
LINE
  5
210
330
1F
100
AcDbEntity
  8
0
  6
Continuous
 62
     1
100
AcDbLine
 10
38.5
 20
316.0
 30
0.0
 11
37.5
 21
317.0
 31
0.0
  0
LWPOLYLINE
  5
212
330
1F
100
AcDbEntity
  8
0
  6
Continuous
 62
     1
100
AcDbPolyline
 90
     3
 70
   128
 43
0.0
 10
37.5
 20
317.0
 10
37.5
 20
324.0
 10
38.5
 20
325.0
  0
ARC
  5
213
330
1F
100
AcDbEntity
  8
0
  6
Continuous
 62
     2
100
AcDbCircle
 10
40.5
 20
322.8
 30
0.0
 40
3.0
100
AcDbArc
 50
131.6
 51
228.4
  0
ARC
  5
214
330
1F
100
AcDbEntity
  8
0
  6
Continuous
 62
     2
100
AcDbCircle
 10
40.5
 20
318.3
 30
0.0
 40
3.0
100
AcDbArc
 50
131.6
 51
228.4
  0
LINE
  5
215
330
1F
100
AcDbEntity
  8
0
  6
LTYPE1
 62
     2
100
AcDbLine
 10
201.000000956
 20
316.0
 30
0.0
 11
202.53137399
 21
316.0
 31
0.0
  0
LINE
  5
216
330
1F
100
AcDbEntity
  8
0
  6
LTYPE1
 62
     2
100
AcDbLine
 10
210.468627923
 20
316.0
 30
0.0
 11
212.000000956
 21
316.0
 31
0.0
  0
ARC
  5
217
330
1F
100
AcDbEntity
  8
0
  6
LTYPE1
 62
     2
100
AcDbCircle
 10
206.500000956
 20
320.5
 30
0.0
 40
6.0
100
AcDbArc
 50
48.590377891
 51
131.409622109
  0
ARC
  5
218
330
1F
100
AcDbEntity
  8
0
  6
Continuous
 62
     1
100
AcDbCircle
 10
206.500000956
 20
320.5
 30
0.0
 40
6.0
100
AcDbArc
 50
131.409622109
 51
179.999948483
  0
ARC
  5
219
330
1F
100
AcDbEntity
  8
0
  6
Continuous
 62
     1
100
AcDbCircle
 10
206.500000956
 20
320.5
 30
0.0
 40
6.0
100
AcDbArc
 50
0.000051517
 51
48.590377891
  0
LINE
  5
21A
330
1F
100
AcDbEntity
  8
0
  6
Continuous
 62
     1
100
AcDbLine
 10
202.53137399
 20
316.0
 30
0.0
 11
210.468627923
 21
316.0
 31
0.0
  0
LINE
  5
21B
330
1F
100
AcDbEntity
  8
0
  6
Continuous
 62
     1
100
AcDbLine
 10
38.5
 20
325.0
 30
0.0
 11
152.5
 21
325.0
 31
0.0
  0
LINE
  5
21C
330
1F
100
AcDbEntity
  8
0
  6
Continuous
 62
     1
100
AcDbLine
 10
38.5
 20
316.0
 30
0.0
 11
152.5
 21
316.0
 31
0.0
  0
LINE
  5
21D
330
1F
100
AcDbEntity
  8
0
  6
Continuous
 62
     2
100
AcDbLine
 10
38.5
 20
320.5
 30
0.0
 11
152.5
 21
320.5
 31
0.0
  0
LINE
  5
21E
330
1F
100
AcDbEntity
  8
0
  6
Continuous
 62
     1
100
AcDbLine
 10
372.5
 20
325.0
 30
0.0
 11
260.500001913
 21
325.0
 31
0.0
  0
LINE
  5
21F
330
1F
100
AcDbEntity
  8
0
  6
Continuous
 62
     1
100
AcDbLine
 10
373.0
 20
316.0
 30
0.0
 11
260.500001913
 21
316.0
 31
0.0
  0
LINE
  5
220
330
1F
100
AcDbEntity
  8
0
  6
Continuous
 62
     2
100
AcDbLine
 10
373.0
 20
320.5
 30
0.0
 11
260.500001913
 21
320.5
 31
0.0
  0
LINE
  5
221
330
1F
100
AcDbEntity
  8
0
  6
LTYPE1
 62
     2
100
AcDbLine
 10
246.032688679
 20
325.0
 30
0.0
 11
260.500001913
 21
325.0
 31
0.0
  0
LINE
  5
222
330
1F
100
AcDbEntity
  8
0
  6
LTYPE1
 62
     2
100
AcDbLine
 10
152.5
 20
325.0
 30
0.0
 11
166.967313234
 21
325.0
 31
0.0
  0
LINE
  5
223
330
1F
100
AcDbEntity
  8
0
  6
Continuous
 62
     1
100
AcDbLine
 10
166.967313234
 20
325.0
 30
0.0
 11
188.032687667
 21
325.0
 31
0.0
  0
LINE
  5
224
330
1F
100
AcDbEntity
  8
0
  6
Continuous
 62
     1
100
AcDbLine
 10
224.152688679
 20
325.0
 30
0.0
 11
246.032688679
 21
325.0
 31
0.0
  0
LINE
  5
225
330
1F
100
AcDbEntity
  8
0
  6
LTYPE1
 62
     2
100
AcDbLine
 10
152.5
 20
316.0
 30
0.0
 11
201.000000956
 21
316.0
 31
0.0
  0
LINE
  5
226
330
1F
100
AcDbEntity
  8
0
  6
LTYPE1
 62
     2
100
AcDbLine
 10
212.000000956
 20
316.0
 30
0.0
 11
260.500001913
 21
316.0
 31
0.0
  0
LINE
  5
227
330
1F
100
AcDbEntity
  8
0
  6
LTYPE1
 62
     2
100
AcDbLine
 10
188.032687667
 20
325.0
 30
0.0
 11
201.000000956
 21
325.0
 31
0.0
  0
LINE
  5
228
330
1F
100
AcDbEntity
  8
0
  6
LTYPE1
 62
     2
100
AcDbLine
 10
212.000000956
 20
325.0
 30
0.0
 11
224.152688679
 21
325.0
 31
0.0
  0
LINE
  5
229
330
1F
100
AcDbEntity
  8
0
  6
Continuous
 62
     2
100
AcDbLine
 10
229.260009476
 20
320.5
 30
0.0
 11
241.73999345
 21
320.5
 31
0.0
  0
LINE
  5
22A
330
1F
100
AcDbEntity
  8
0
  6
Continuous
 62
     2
100
AcDbLine
 10
200.500000956
 20
320.5
 30
0.0
 11
212.500000956
 21
320.5
 31
0.0
  0
LINE
  5
22B
330
1F
100
AcDbEntity
  8
0
  6
Continuous
 62
     2
100
AcDbLine
 10
171.260008463
 20
320.5
 30
0.0
 11
183.739992437
 21
320.5
 31
0.0
  0
LINE
  5
22C
330
1F
100
AcDbEntity
  8
0
  6
Continuous
 62
     1
100
AcDbLine
 10
175.500001913
 20
260.5
 30
0.0
 11
175.500001913
 21
306.5
 31
0.0
  0
LINE
  5
22D
330
1F
100
AcDbEntity
  8
0
  6
Continuous
 62
     1
100
AcDbLine
 10
178.700001913
 20
302.5
 30
0.0
 11
178.700001913
 21
306.5
 31
0.0
  0
LINE
  5
22E
330
1F
100
AcDbEntity
  8
0
  6
LTYPE1
 62
     2
100
AcDbLine
 10
175.500001913
 20
306.5
 30
0.0
 11
175.500001913
 21
311.0
 31
0.0
  0
LINE
  5
22F
330
1F
100
AcDbEntity
  8
0
  6
LTYPE1
 62
     2
100
AcDbLine
 10
175.500001913
 20
311.0
 30
0.0
 11
178.700001913
 21
311.0
 31
0.0
  0
LINE
  5
230
330
1F
100
AcDbEntity
  8
0
  6
LTYPE1
 62
     2
100
AcDbLine
 10
178.700001913
 20
306.5
 30
0.0
 11
178.700001913
 21
311.0
 31
0.0
  0
LINE
  5
231
330
1F
100
AcDbEntity
  8
0
  6
LTYPE1
 62
     2
100
AcDbLine
 10
183.500001913
 20
282.999997309
 30
0.0
 11
183.000001902
 21
283.499997309
 31
0.0
  0
LINE
  5
232
330
1F
100
AcDbEntity
  8
0
  6
LTYPE1
 62
     2
100
AcDbLine
 10
183.500001913
 20
282.999997309
 30
0.0
 11
183.500001913
 21
279.999997309
 31
0.0
  0
LINE
  5
233
330
1F
100
AcDbEntity
  8
0
  6
LTYPE1
 62
     2
100
AcDbLine
 10
183.000001924
 20
279.499997309
 30
0.0
 11
183.500001913
 21
279.999997309
 31
0.0
  0
LINE
  5
234
330
1F
100
AcDbEntity
  8
0
  6
LTYPE1
 62
     2
100
AcDbLine
 10
178.700001913
 20
275.5
 30
0.0
 11
179.000001913
 21
275.5
 31
0.0
  0
LINE
  5
235
330
1F
100
AcDbEntity
  8
0
  6
LTYPE1
 62
     2
100
AcDbLine
 10
179.000001913
 20
287.5
 30
0.0
 11
179.000001913
 21
275.5
 31
0.0
  0
LINE
  5
236
330
1F
100
AcDbEntity
  8
0
  6
LTYPE1
 62
     2
100
AcDbLine
 10
178.700001913
 20
287.5
 30
0.0
 11
179.000001913
 21
287.5
 31
0.0
  0
LINE
  5
237
330
1F
100
AcDbEntity
  8
0
  6
LTYPE1
 62
     2
100
AcDbLine
 10
179.000001913
 20
277.999997236
 30
0.0
 11
180.100001913
 21
279.499997256
 31
0.0
  0
LINE
  5
238
330
1F
100
AcDbEntity
  8
0
  6
LTYPE1
 62
     2
100
AcDbLine
 10
180.100001913
 20
283.500002744
 30
0.0
 11
180.100001913
 21
279.499997256
 31
0.0
  0
LINE
  5
239
330
1F
100
AcDbEntity
  8
0
  6
LTYPE1
 62
     2
100
AcDbLine
 10
179.000001913
 20
285.000002764
 30
0.0
 11
180.100001913
 21
283.500002744
 31
0.0
  0
LINE
  5
23A
330
1F
100
AcDbEntity
  8
0
  6
LTYPE1
 62
     2
100
AcDbLine
 10
183.000001902
 20
283.499997309
 30
0.0
 11
180.100001913
 21
283.499997256
 31
0.0
  0
LINE
  5
23B
330
1F
100
AcDbEntity
  8
0
  6
LTYPE1
 62
     2
100
AcDbLine
 10
183.000001924
 20
279.499997309
 30
0.0
 11
180.100001913
 21
279.499997256
 31
0.0
  0
LWPOLYLINE
  5
23E
330
1F
100
AcDbEntity
  8
0
  6
Continuous
 62
     1
100
AcDbPolyline
 90
     8
 70
   129
 43
0.0
 10
496.5
 20
202.0
 42
0.0
 10
522.5
 20
202.0
 42
0.414213562
 10
527.5
 20
207.0
 42
0.0
 10
527.5
 20
297.0
 42
0.414213562
 10
522.5
 20
302.0
 42
0.0
 10
496.5
 20
302.0
 42
0.414213562
 10
491.5
 20
297.0
 42
0.0
 10
491.5
 20
207.0
 42
0.414213562
  0
CIRCLE
  5
242
330
1F
100
AcDbEntity
  8
0
  6
Continuous
 62
     2
100
AcDbCircle
 10
509.5
 20
252.0
 30
0.0
 40
6.0
  0
CIRCLE
  5
243
330
1F
100
AcDbEntity
  8
0
  6
Continuous
 62
     2
100
AcDbCircle
 10
509.5
 20
222.0
 30
0.0
 40
2.5
  0
CIRCLE
  5
244
330
1F
100
AcDbEntity
  8
0
  6
Continuous
 62
     2
100
AcDbCircle
 10
509.5
 20
222.0
 30
0.0
 40
6.0
  0
LINE
  5
245
330
1F
100
AcDbEntity
  8
0
  6
Continuous
 62
     2
100
AcDbLine
 10
511.3
 20
223.8
 30
0.0
 11
513.7
 21
226.2
 31
0.0
  0
CIRCLE
  5
246
330
1F
100
AcDbEntity
  8
0
  6
Continuous
 62
     2
100
AcDbCircle
 10
509.5
 20
222.0
 30
0.0
 40
1.5
  0
ARC
  5
247
330
1F
100
AcDbEntity
  8
0
  6
Continuous
 62
     2
100
AcDbCircle
 10
509.5
 20
212.0
 30
0.0
 40
3.0
100
AcDbArc
 50
180.0
 51
0.0
  0
LINE
  5
248
330
1F
100
AcDbEntity
  8
0
  6
Continuous
 62
     2
100
AcDbLine
 10
506.5
 20
212.0
 30
0.0
 11
506.5
 21
216.9
 31
0.0
  0
LINE
  5
249
330
1F
100
AcDbEntity
  8
0
  6
Continuous
 62
     2
100
AcDbLine
 10
512.5
 20
216.9
 30
0.0
 11
512.5
 21
212.0
 31
0.0
  0
CIRCLE
  5
24A
330
1F
100
AcDbEntity
  8
0
  6
Continuous
 62
     2
100
AcDbCircle
 10
509.5
 20
282.0
 30
0.0
 40
2.5
  0
CIRCLE
  5
24B
330
1F
100
AcDbEntity
  8
0
  6
Continuous
 62
     2
100
AcDbCircle
 10
509.5
 20
282.0
 30
0.0
 40
6.0
  0
LINE
  5
24C
330
1F
100
AcDbEntity
  8
0
  6
Continuous
 62
     2
100
AcDbLine
 10
511.3
 20
280.2
 30
0.0
 11
513.7
 21
277.8
 31
0.0
  0
CIRCLE
  5
24D
330
1F
100
AcDbEntity
  8
0
  6
Continuous
 62
     2
100
AcDbCircle
 10
509.5
 20
282.0
 30
0.0
 40
1.5
  0
LWPOLYLINE
  5
24F
330
1F
100
AcDbEntity
  8
0
  6
Continuous
 62
     2
100
AcDbPolyline
 90
     3
 70
   128
 43
0.0
 10
512.5
 20
292.0
 42
1.0
 10
506.5
 20
292.0
 42
0.0
 10
506.5
 20
287.1
 42
0.0
  0
LINE
  5
250
330
1F
100
AcDbEntity
  8
0
  6
Continuous
 62
     2
100
AcDbLine
 10
512.5
 20
287.1
 30
0.0
 11
512.5
 21
292.0
 31
0.0
  0
LINE
  5
251
330
1F
100
AcDbEntity
  8
0
  6
Continuous
 62
     2
100
AcDbLine
 10
491.5
 20
229.0
 30
0.0
 11
499.5
 21
229.0
 31
0.0
  0
ARC
  5
252
330
1F
100
AcDbEntity
  8
0
  6
Continuous
 62
     2
100
AcDbCircle
 10
499.5
 20
227.0
 30
0.0
 40
2.0
100
AcDbArc
 50
0.0
 51
90.0
  0
LINE
  5
253
330
1F
100
AcDbEntity
  8
0
  6
Continuous
 62
     2
100
AcDbLine
 10
501.5
 20
227.0
 30
0.0
 11
501.5
 21
202.0
 31
0.0
  0
LINE
  5
254
330
1F
100
AcDbEntity
  8
0
  6
Continuous
 62
     2
100
AcDbLine
 10
491.5
 20
232.0
 30
0.0
 11
501.5
 21
232.0
 31
0.0
  0
ARC
  5
255
330
1F
100
AcDbEntity
  8
0
  6
Continuous
 62
     2
100
AcDbCircle
 10
501.5
 20
229.0
 30
0.0
 40
3.0
100
AcDbArc
 50
0.0
 51
90.0
  0
LINE
  5
256
330
1F
100
AcDbEntity
  8
0
  6
Continuous
 62
     2
100
AcDbLine
 10
504.5
 20
202.0
 30
0.0
 11
504.5
 21
218.5
 31
0.0
  0
LWPOLYLINE
  5
259
330
1F
100
AcDbEntity
  8
0
  6
Continuous
 62
     2
100
AcDbPolyline
 90
     4
 70
   128
 43
0.0
 10
527.5
 20
229.0
 42
0.0
 10
519.5
 20
229.0
 42
0.414213562
 10
517.5
 20
227.0
 42
0.0
 10
517.5
 20
202.0
 42
0.0
  0
LWPOLYLINE
  5
25C
330
1F
100
AcDbEntity
  8
0
  6
Continuous
 62
     2
100
AcDbPolyline
 90
     3
 70
   128
 43
0.0
 10
527.5
 20
232.0
 42
0.0
 10
517.5
 20
232.0
 42
0.414213562
 10
514.5
 20
229.0
 42
0.0
  0
LINE
  5
25D
330
1F
100
AcDbEntity
  8
0
  6
Continuous
 62
     2
100
AcDbLine
 10
514.5
 20
202.0
 30
0.0
 11
514.5
 21
218.5
 31
0.0
  0
LINE
  5
25E
330
1F
100
AcDbEntity
  8
0
  6
Continuous
 62
     2
100
AcDbLine
 10
514.5
 20
275.0
 30
0.0
 11
514.5
 21
278.5
 31
0.0
  0
ARC
  5
25F
330
1F
100
AcDbEntity
  8
0
  6
Continuous
 62
     2
100
AcDbCircle
 10
517.5
 20
275.0
 30
0.0
 40
3.0
100
AcDbArc
 50
180.0
 51
270.0
  0
LINE
  5
260
330
1F
100
AcDbEntity
  8
0
  6
Continuous
 62
     2
100
AcDbLine
 10
527.5
 20
272.0
 30
0.0
 11
517.5
 21
272.0
 31
0.0
  0
LINE
  5
261
330
1F
100
AcDbEntity
  8
0
  6
Continuous
 62
     2
100
AcDbLine
 10
517.5
 20
277.0
 30
0.0
 11
517.5
 21
302.0
 31
0.0
  0
ARC
  5
262
330
1F
100
AcDbEntity
  8
0
  6
Continuous
 62
     2
100
AcDbCircle
 10
519.5
 20
277.0
 30
0.0
 40
2.0
100
AcDbArc
 50
180.0
 51
270.0
  0
LINE
  5
263
330
1F
100
AcDbEntity
  8
0
  6
Continuous
 62
     2
100
AcDbLine
 10
527.5
 20
275.0
 30
0.0
 11
519.5
 21
275.0
 31
0.0
  0
LINE
  5
264
330
1F
100
AcDbEntity
  8
0
  6
Continuous
 62
     2
100
AcDbLine
 10
504.5
 20
275.0
 30
0.0
 11
504.5
 21
278.5
 31
0.0
  0
ARC
  5
265
330
1F
100
AcDbEntity
  8
0
  6
Continuous
 62
     2
100
AcDbCircle
 10
501.5
 20
275.0
 30
0.0
 40
3.0
100
AcDbArc
 50
270.0
 51
0.0
  0
LINE
  5
266
330
1F
100
AcDbEntity
  8
0
  6
Continuous
 62
     2
100
AcDbLine
 10
491.5
 20
272.0
 30
0.0
 11
501.5
 21
272.0
 31
0.0
  0
LINE
  5
267
330
1F
100
AcDbEntity
  8
0
  6
Continuous
 62
     2
100
AcDbLine
 10
501.5
 20
277.0
 30
0.0
 11
501.5
 21
302.0
 31
0.0
  0
ARC
  5
268
330
1F
100
AcDbEntity
  8
0
  6
Continuous
 62
     2
100
AcDbCircle
 10
499.5
 20
277.0
 30
0.0
 40
2.0
100
AcDbArc
 50
270.0
 51
0.0
  0
LINE
  5
269
330
1F
100
AcDbEntity
  8
0
  6
Continuous
 62
     2
100
AcDbLine
 10
491.5
 20
275.0
 30
0.0
 11
499.5
 21
275.0
 31
0.0
  0
LINE
  5
26A
330
1F
100
AcDbEntity
  8
0
  6
Continuous
 62
     2
100
AcDbLine
 10
504.5
 20
229.0
 30
0.0
 11
504.5
 21
225.5
 31
0.0
  0
LINE
  5
26B
330
1F
100
AcDbEntity
  8
0
  6
Continuous
 62
     2
100
AcDbLine
 10
514.5
 20
229.0
 30
0.0
 11
514.5
 21
225.5
 31
0.0
  0
LINE
  5
26C
330
1F
100
AcDbEntity
  8
0
  6
Continuous
 62
     2
100
AcDbLine
 10
514.5
 20
302.0
 30
0.0
 11
514.5
 21
285.5
 31
0.0
  0
LINE
  5
26D
330
1F
100
AcDbEntity
  8
0
  6
Continuous
 62
     2
100
AcDbLine
 10
504.5
 20
302.0
 30
0.0
 11
504.5
 21
285.5
 31
0.0
  0
LINE
  5
26E
330
1F
100
AcDbEntity
  8
0
  6
Continuous
 62
     2
100
AcDbLine
 10
509.5
 20
226.0
 30
0.0
 11
509.5
 21
218.0
 31
0.0
  0
LINE
  5
26F
330
1F
100
AcDbEntity
  8
0
  6
Continuous
 62
     2
100
AcDbLine
 10
509.5
 20
278.0
 30
0.0
 11
509.5
 21
286.0
 31
0.0
  0
LINE
  5
270
330
1F
100
AcDbEntity
  8
0
  6
Continuous
 62
     1
100
AcDbLine
 10
506.901923789
 20
325.0
 30
0.0
 11
504.303847577
 21
320.5
 31
0.0
  0
LINE
  5
271
330
1F
100
AcDbEntity
  8
0
  6
Continuous
 62
     1
100
AcDbLine
 10
514.696152423
 20
320.5
 30
0.0
 11
512.098076211
 21
325.0
 31
0.0
  0
LINE
  5
272
330
1F
100
AcDbEntity
  8
0
  6
Continuous
 62
     1
100
AcDbLine
 10
504.303847577
 20
320.5
 30
0.0
 11
504.303847577
 21
302.0
 31
0.0
  0
LINE
  5
273
330
1F
100
AcDbEntity
  8
0
  6
Continuous
 62
     1
100
AcDbLine
 10
514.696152423
 20
320.5
 30
0.0
 11
514.696152423
 21
302.0
 31
0.0
  0
LINE
  5
274
330
1F
100
AcDbEntity
  8
0
  6
Continuous
 62
     2
100
AcDbLine
 10
506.901923789
 20
325.0
 30
0.0
 11
506.901923789
 21
302.0
 31
0.0
  0
LINE
  5
275
330
1F
100
AcDbEntity
  8
0
  6
Continuous
 62
     2
100
AcDbLine
 10
512.098076211
 20
325.0
 30
0.0
 11
512.098076211
 21
302.0
 31
0.0
  0
LINE
  5
276
330
1F
100
AcDbEntity
  8
0
  6
Continuous
 62
     1
100
AcDbLine
 10
529.0
 20
355.0
 30
0.0
 11
525.8
 21
355.0
 31
0.0
  0
LINE
  5
277
330
1F
100
AcDbEntity
  8
0
  6
Continuous
 62
     1
100
AcDbLine
 10
490.0
 20
355.0
 30
0.0
 11
493.2
 21
355.0
 31
0.0
  0
LINE
  5
278
330
1F
100
AcDbEntity
  8
0
  6
Continuous
 62
     1
100
AcDbLine
 10
493.2
 20
349.199999633
 30
0.0
 11
525.799999933
 21
349.200000367
 31
0.0
  0
LINE
  5
279
330
1F
100
AcDbEntity
  8
0
  6
Continuous
 62
     1
100
AcDbLine
 10
495.8
 20
345.999999692
 30
0.0
 11
495.799999928
 21
349.199999692
 31
0.0
  0
ARC
  5
27A
330
1F
100
AcDbEntity
  8
0
  6
Continuous
 62
     1
100
AcDbCircle
 10
493.2
 20
345.999999633
 30
0.0
 40
2.6
100
AcDbArc
 50
269.999949736
 51
0.0
  0
LINE
  5
27B
330
1F
100
AcDbEntity
  8
0
  6
Continuous
 62
     1
100
AcDbLine
 10
493.2
 20
345.999999633
 30
0.0
 11
495.8
 21
345.999999692
 31
0.0
  0
LINE
  5
27C
330
1F
100
AcDbEntity
  8
0
  6
Continuous
 62
     1
100
AcDbLine
 10
523.2
 20
345.999999692
 30
0.0
 11
523.200000072
 21
349.199999692
 31
0.0
  0
ARC
  5
27D
330
1F
100
AcDbEntity
  8
0
  6
Continuous
 62
     1
100
AcDbCircle
 10
525.8
 20
345.999999633
 30
0.0
 40
2.6
100
AcDbArc
 50
180.0
 51
270.000050264
  0
LINE
  5
27E
330
1F
100
AcDbEntity
  8
0
  6
Continuous
 62
     1
100
AcDbLine
 10
525.8
 20
345.999999633
 30
0.0
 11
523.2
 21
345.999999692
 31
0.0
  0
ARC
  5
27F
330
1F
100
AcDbEntity
  8
0
  6
Continuous
 62
     1
100
AcDbCircle
 10
502.5
 20
306.0
 30
0.0
 40
3.0
100
AcDbArc
 50
90.0
 51
180.0
  0
ARC
  5
280
330
1F
100
AcDbEntity
  8
0
  6
Continuous
 62
     1
100
AcDbCircle
 10
516.5
 20
306.0
 30
0.0
 40
3.0
100
AcDbArc
 50
0.0
 51
90.0
  0
ARC
  5
281
330
1F
100
AcDbEntity
  8
0
  6
Continuous
 62
     1
100
AcDbCircle
 10
509.5
 20
338.5
 30
0.0
 40
6.0
100
AcDbArc
 50
180.0
 51
0.0
  0
LINE
  5
282
330
1F
100
AcDbEntity
  8
0
  6
Continuous
 62
     1
100
AcDbLine
 10
515.5
 20
338.5
 30
0.0
 11
515.5
 21
349.200000135
 31
0.0
  0
LINE
  5
283
330
1F
100
AcDbEntity
  8
0
  6
Continuous
 62
     1
100
AcDbLine
 10
503.5
 20
338.5
 30
0.0
 11
503.5
 21
349.199999865
 31
0.0
  0
LINE
  5
284
330
1F
100
AcDbEntity
  8
0
  6
Continuous
 62
     1
100
AcDbLine
 10
503.5
 20
345.999999865
 30
0.0
 11
515.5
 21
346.000000135
 31
0.0
  0
LINE
  5
285
330
1F
100
AcDbEntity
  8
0
  6
Continuous
 62
     1
100
AcDbLine
 10
503.5
 20
320.499994605
 30
0.0
 11
503.5
 21
324.5
 31
0.0
  0
ARC
  5
286
330
1F
100
AcDbEntity
  8
0
  6
Continuous
 62
     1
100
AcDbCircle
 10
504.0
 20
324.5
 30
0.0
 40
0.5
100
AcDbArc
 50
90.0
 51
180.0
  0
LINE
  5
287
330
1F
100
AcDbEntity
  8
0
  6
Continuous
 62
     1
100
AcDbLine
 10
515.5
 20
320.499994605
 30
0.0
 11
515.5
 21
324.5
 31
0.0
  0
LINE
  5
288
330
1F
100
AcDbEntity
  8
0
  6
Continuous
 62
     1
100
AcDbLine
 10
504.0
 20
325.0
 30
0.0
 11
515.0
 21
325.0
 31
0.0
  0
ARC
  5
289
330
1F
100
AcDbEntity
  8
0
  6
Continuous
 62
     1
100
AcDbCircle
 10
515.0
 20
324.5
 30
0.0
 40
0.5
100
AcDbArc
 50
0.0
 51
90.0
  0
LINE
  5
28A
330
1F
100
AcDbEntity
  8
0
  6
Continuous
 62
     1
100
AcDbLine
 10
503.5
 20
349.70000018
 30
0.0
 11
504.0
 21
349.20000018
 31
0.0
  0
LINE
  5
28B
330
1F
100
AcDbEntity
  8
0
  6
Continuous
 62
     1
100
AcDbLine
 10
515.5
 20
349.70000018
 30
0.0
 11
515.0
 21
349.20000018
 31
0.0
  0
LINE
  5
28C
330
1F
100
AcDbEntity
  8
0
  6
Continuous
 62
     2
100
AcDbLine
 10
503.5
 20
349.70000018
 30
0.0
 11
515.5
 21
349.70000018
 31
0.0
  0
LINE
  5
28D
330
1F
100
AcDbEntity
  8
0
  6
Continuous
 62
     2
100
AcDbLine
 10
513.5
 20
344.20000018
 30
0.0
 11
505.5
 21
344.20000018
 31
0.0
  0
LINE
  5
28E
330
1F
100
AcDbEntity
  8
0
  6
Continuous
 62
     2
100
AcDbLine
 10
512.899997581
 20
344.20000018
 30
0.0
 11
513.499997614
 21
344.800000213
 31
0.0
  0
LINE
  5
28F
330
1F
100
AcDbEntity
  8
0
  6
Continuous
 62
     2
100
AcDbLine
 10
506.100002419
 20
344.20000018
 30
0.0
 11
505.500002386
 21
344.800000213
 31
0.0
  0
LINE
  5
290
330
1F
100
AcDbEntity
  8
0
  6
Continuous
 62
     1
100
AcDbLine
 10
514.5
 20
387.2
 30
0.0
 11
515.5
 21
386.2
 31
0.0
  0
LINE
  5
291
330
1F
100
AcDbEntity
  8
0
  6
Continuous
 62
     1
100
AcDbLine
 10
514.5
 20
387.2
 30
0.0
 11
504.5
 21
387.2
 31
0.0
  0
LINE
  5
292
330
1F
100
AcDbEntity
  8
0
  6
Continuous
 62
     1
100
AcDbLine
 10
503.5
 20
386.2
 30
0.0
 11
504.5
 21
387.2
 31
0.0
  0
LINE
  5
293
330
1F
100
AcDbEntity
  8
0
  6
Continuous
 62
     2
100
AcDbLine
 10
515.5
 20
386.2
 30
0.0
 11
503.5
 21
386.2
 31
0.0
  0
LINE
  5
294
330
1F
100
AcDbEntity
  8
0
  6
Continuous
 62
     1
100
AcDbLine
 10
503.5
 20
386.2
 30
0.0
 11
503.5
 21
349.70000018
 31
0.0
  0
LINE
  5
295
330
1F
100
AcDbEntity
  8
0
  6
Continuous
 62
     1
100
AcDbLine
 10
515.5
 20
386.2
 30
0.0
 11
515.5
 21
349.70000018
 31
0.0
  0
CIRCLE
  5
296
330
1F
100
AcDbEntity
  8
0
  6
Continuous
 62
     1
100
AcDbCircle
 10
509.5
 20
382.2
 30
0.0
 40
3.5
  0
CIRCLE
  5
297
330
1F
100
AcDbEntity
  8
0
  6
Continuous
 62
     2
100
AcDbCircle
 10
509.5
 20
382.2
 30
0.0
 40
2.5
  0
ARC
  5
298
330
1F
100
AcDbEntity
  8
0
  6
Continuous
 62
     1
100
AcDbCircle
 10
509.5
 20
320.5
 30
0.0
 40
6.0
100
AcDbArc
 50
0.000051517
 51
48.590377891
  0
ARC
  5
299
330
1F
100
AcDbEntity
  8
0
  6
Continuous
 62
     1
100
AcDbCircle
 10
509.5
 20
320.5
 30
0.0
 40
6.0
100
AcDbArc
 50
131.409622109
 51
179.999948483
  0
LINE
  5
29A
330
1F
100
AcDbEntity
  8
0
  6
Continuous
 62
     2
100
AcDbLine
 10
506.099998168
 20
341.0
 30
0.0
 11
506.09999805
 21
344.20000018
 31
0.0
  0
LINE
  5
29B
330
1F
100
AcDbEntity
  8
0
  6
Continuous
 62
     2
100
AcDbLine
 10
512.899998168
 20
341.0
 30
0.0
 11
512.89999805
 21
344.20000018
 31
0.0
  0
LINE
  5
29C
330
1F
100
AcDbEntity
  8
0
  6
Continuous
 62
     1
100
AcDbLine
 10
505.499998156
 20
341.0
 30
0.0
 11
505.499997993
 21
345.99999991
 31
0.0
  0
LINE
  5
29D
330
1F
100
AcDbEntity
  8
0
  6
Continuous
 62
     1
100
AcDbLine
 10
513.499998156
 20
341.0
 30
0.0
 11
513.499997993
 21
346.00000009
 31
0.0
  0
LINE
  5
29E
330
1F
100
AcDbEntity
  8
0
  6
Continuous
 62
     1
100
AcDbLine
 10
515.5
 20
341.0
 30
0.0
 11
503.5
 21
341.0
 31
0.0
  0
LINE
  5
29F
330
1F
100
AcDbEntity
  8
0
  6
Continuous
 62
     1
100
AcDbLine
 10
529.0
 20
260.0
 30
0.0
 11
529.0
 21
355.0
 31
0.0
  0
LINE
  5
2A0
330
1F
100
AcDbEntity
  8
0
  6
Continuous
 62
     1
100
AcDbLine
 10
490.0
 20
260.0
 30
0.0
 11
490.0
 21
355.0
 31
0.0
  0
ARC
  5
2A1
330
1F
100
AcDbEntity
  8
0
  6
Continuous
 62
     1
100
AcDbCircle
 10
509.5
 20
320.5
 30
0.0
 40
6.0
100
AcDbArc
 50
180.000051517
 51
210.0
  0
ARC
  5
2A2
330
1F
100
AcDbEntity
  8
0
  6
Continuous
 62
     1
100
AcDbCircle
 10
509.5
 20
320.5
 30
0.0
 40
6.0
100
AcDbArc
 50
330.0
 51
359.999948483
  0
LINE
  5
2A3
330
1F
100
AcDbEntity
  8
0
  6
Continuous
 62
     1
100
AcDbLine
 10
504.303847577
 20
309.0
 30
0.0
 11
502.5
 21
309.0
 31
0.0
  0
LINE
  5
2A4
330
1F
100
AcDbEntity
  8
0
  6
Continuous
 62
     1
100
AcDbLine
 10
516.5
 20
309.0
 30
0.0
 11
514.696152423
 21
309.0
 31
0.0
  0
LINE
  5
2A5
330
1F
100
AcDbEntity
  8
0
  6
Continuous
 62
     1
100
AcDbLine
 10
519.5
 20
302.0
 30
0.0
 11
519.5
 21
306.0
 31
0.0
  0
LINE
  5
2A6
330
1F
100
AcDbEntity
  8
0
  6
Continuous
 62
     1
100
AcDbLine
 10
499.5
 20
306.0
 30
0.0
 11
499.5
 21
302.0
 31
0.0
  0
LINE
  5
2A7
330
1F
100
AcDbEntity
  8
0
  6
Continuous
 62
     1
100
AcDbLine
 10
493.2
 20
300.756327994
 30
0.0
 11
493.2
 21
355.0
 31
0.0
  0
LINE
  5
2A8
330
1F
100
AcDbEntity
  8
0
  6
Continuous
 62
     1
100
AcDbLine
 10
491.5
 20
260.0
 30
0.0
 11
490.0
 21
260.0
 31
0.0
  0
LINE
  5
2A9
330
1F
100
AcDbEntity
  8
0
  6
Continuous
 62
     1
100
AcDbLine
 10
525.8
 20
300.756327994
 30
0.0
 11
525.8
 21
355.0
 31
0.0
  0
LINE
  5
2AA
330
1F
100
AcDbEntity
  8
0
  6
Continuous
 62
     1
100
AcDbLine
 10
529.0
 20
260.0
 30
0.0
 11
527.5
 21
260.0
 31
0.0
  0
LINE
  5
2AB
330
1F
100
AcDbEntity
  8
0
  6
Continuous
 62
     1
100
AcDbLine
 10
260.500001913
 20
143.5
 30
0.0
 11
260.500001913
 21
140.3
 31
0.0
  0
LINE
  5
2AC
330
1F
100
AcDbEntity
  8
0
  6
Continuous
 62
     1
100
AcDbLine
 10
152.5
 20
143.5
 30
0.0
 11
152.5
 21
140.3
 31
0.0
  0
LINE
  5
2AD
330
1F
100
AcDbEntity
  8
0
  6
Continuous
 62
     1
100
AcDbLine
 10
152.5
 20
143.5
 30
0.0
 11
260.500001913
 21
143.5
 31
0.0
  0
LINE
  5
2AE
330
1F
100
AcDbEntity
  8
0
  6
Continuous
 62
     1
100
AcDbLine
 10
152.5
 20
104.5
 30
0.0
 11
260.500001913
 21
104.5
 31
0.0
  0
LINE
  5
2AF
330
1F
100
AcDbEntity
  8
0
  6
Continuous
 62
     1
100
AcDbLine
 10
260.500001913
 20
107.7
 30
0.0
 11
260.500001913
 21
104.5
 31
0.0
  0
LINE
  5
2B0
330
1F
100
AcDbEntity
  8
0
  6
Continuous
 62
     1
100
AcDbLine
 10
152.5
 20
107.7
 30
0.0
 11
152.5
 21
104.5
 31
0.0
  0
LINE
  5
2B1
330
1F
100
AcDbEntity
  8
0
  6
Continuous
 62
     1
100
AcDbLine
 10
252.100000034
 20
140.3
 30
0.0
 11
252.100000034
 21
107.7
 31
0.0
  0
LINE
  5
2B2
330
1F
100
AcDbEntity
  8
0
  6
Continuous
 62
     1
100
AcDbLine
 10
248.900000034
 20
140.3
 30
0.0
 11
248.900000034
 21
107.7
 31
0.0
  0
LINE
  5
2B3
330
1F
100
AcDbEntity
  8
0
  6
Continuous
 62
     1
100
AcDbLine
 10
164.100001879
 20
140.3
 30
0.0
 11
164.100001879
 21
107.7
 31
0.0
  0
LINE
  5
2B4
330
1F
100
AcDbEntity
  8
0
  6
Continuous
 62
     1
100
AcDbLine
 10
160.900001879
 20
140.3
 30
0.0
 11
160.900001879
 21
107.7
 31
0.0
  0
LINE
  5
2B5
330
1F
100
AcDbEntity
  8
0
  6
Continuous
 62
     1
100
AcDbLine
 10
240.500001913
 20
107.7
 30
0.0
 11
240.500001913
 21
104.5
 31
0.0
  0
LINE
  5
2B6
330
1F
100
AcDbEntity
  8
0
  6
Continuous
 62
     1
100
AcDbLine
 10
240.500001913
 20
143.5
 30
0.0
 11
240.500001913
 21
140.3
 31
0.0
  0
LINE
  5
2B7
330
1F
100
AcDbEntity
  8
0
  6
Continuous
 62
     1
100
AcDbLine
 10
172.500002127
 20
107.7
 30
0.0
 11
172.500002127
 21
104.5
 31
0.0
  0
LINE
  5
2B8
330
1F
100
AcDbEntity
  8
0
  6
Continuous
 62
     1
100
AcDbLine
 10
172.500002127
 20
143.5
 30
0.0
 11
172.500002127
 21
140.3
 31
0.0
  0
LINE
  5
2B9
330
1F
100
AcDbEntity
  8
0
  6
Continuous
 62
     1
100
AcDbLine
 10
183.500001913
 20
125.499997309
 30
0.0
 11
183.000001902
 21
125.999997309
 31
0.0
  0
LINE
  5
2BA
330
1F
100
AcDbEntity
  8
0
  6
Continuous
 62
     1
100
AcDbLine
 10
183.500001913
 20
125.499997309
 30
0.0
 11
183.500001913
 21
122.499997309
 31
0.0
  0
LINE
  5
2BB
330
1F
100
AcDbEntity
  8
0
  6
Continuous
 62
     1
100
AcDbLine
 10
183.000001924
 20
121.999997309
 30
0.0
 11
183.500001913
 21
122.499997309
 31
0.0
  0
LINE
  5
2BC
330
1F
100
AcDbEntity
  8
0
  6
Continuous
 62
     2
100
AcDbLine
 10
183.000001902
 20
125.999997309
 30
0.0
 11
183.000001924
 21
121.999997309
 31
0.0
  0
LINE
  5
2BD
330
1F
100
AcDbEntity
  8
0
  6
Continuous
 62
     1
100
AcDbLine
 10
181.300001913
 20
140.3
 30
0.0
 11
260.500001913
 21
140.3
 31
0.0
  0
LINE
  5
2BE
330
1F
100
AcDbEntity
  8
0
  6
Continuous
 62
     1
100
AcDbLine
 10
152.5
 20
140.3
 30
0.0
 11
176.115409354
 21
140.3
 31
0.0
  0
LINE
  5
2BF
330
1F
100
AcDbEntity
  8
0
  6
Continuous
 62
     1
100
AcDbLine
 10
171.100001755
 20
130.999999707
 30
0.0
 11
164.100001755
 21
130.999999707
 31
0.0
  0
LINE
  5
2C0
330
1F
100
AcDbEntity
  8
0
  6
Continuous
 62
     1
100
AcDbLine
 10
171.10000207
 20
116.999999707
 30
0.0
 11
164.10000207
 21
116.999999707
 31
0.0
  0
LINE
  5
2C1
330
1F
100
AcDbEntity
  8
0
  6
Continuous
 62
     1
100
AcDbLine
 10
171.10000207
 20
116.999999707
 30
0.0
 11
171.100001755
 21
130.999999707
 31
0.0
  0
LINE
  5
2C2
330
1F
100
AcDbEntity
  8
0
  6
Continuous
 62
     1
100
AcDbLine
 10
181.300001913
 20
107.7
 30
0.0
 11
260.500001913
 21
107.7
 31
0.0
  0
LINE
  5
2C3
330
1F
100
AcDbEntity
  8
0
  6
Continuous
 62
     1
100
AcDbLine
 10
152.5
 20
107.7
 30
0.0
 11
176.115409354
 21
107.7
 31
0.0
  0
LINE
  5
2C4
330
1F
100
AcDbEntity
  8
0
  6
Continuous
 62
     1
100
AcDbLine
 10
194.700000956
 20
139.0
 30
0.0
 11
194.700000956
 21
109.0
 31
0.0
  0
LINE
  5
2C5
330
1F
100
AcDbEntity
  8
0
  6
Continuous
 62
     1
100
AcDbLine
 10
194.700000956
 20
109.0
 30
0.0
 11
218.300000956
 21
109.0
 31
0.0
  0
LINE
  5
2C6
330
1F
100
AcDbEntity
  8
0
  6
Continuous
 62
     1
100
AcDbLine
 10
218.300000956
 20
139.0
 30
0.0
 11
218.300000956
 21
109.0
 31
0.0
  0
LINE
  5
2C7
330
1F
100
AcDbEntity
  8
0
  6
Continuous
 62
     1
100
AcDbLine
 10
194.700000956
 20
139.0
 30
0.0
 11
218.300000956
 21
139.0
 31
0.0
  0
LINE
  5
2C8
330
1F
100
AcDbEntity
  8
0
  6
Continuous
 62
     1
100
AcDbLine
 10
221.500000956
 20
135.8
 30
0.0
 11
221.500000956
 21
112.2
 31
0.0
  0
LINE
  5
2C9
330
1F
100
AcDbEntity
  8
0
  6
Continuous
 62
     1
100
AcDbLine
 10
191.500000956
 20
112.2
 30
0.0
 11
221.500000956
 21
112.2
 31
0.0
  0
LINE
  5
2CA
330
1F
100
AcDbEntity
  8
0
  6
Continuous
 62
     1
100
AcDbLine
 10
191.500000956
 20
135.8
 30
0.0
 11
191.500000956
 21
112.2
 31
0.0
  0
LINE
  5
2CB
330
1F
100
AcDbEntity
  8
0
  6
Continuous
 62
     1
100
AcDbLine
 10
191.500000956
 20
135.8
 30
0.0
 11
221.500000956
 21
135.8
 31
0.0
  0
ARC
  5
2CC
330
1F
100
AcDbEntity
  8
0
  6
Continuous
 62
     1
100
AcDbCircle
 10
181.300001913
 20
137.7
 30
0.0
 40
5.8
100
AcDbArc
 50
90.0
 51
180.0
  0
ARC
  5
2CD
330
1F
100
AcDbEntity
  8
0
  6
Continuous
 62
     1
100
AcDbCircle
 10
181.300001913
 20
137.7
 30
0.0
 40
2.6
100
AcDbArc
 50
90.0
 51
180.0
  0
ARC
  5
2CE
330
1F
100
AcDbEntity
  8
0
  6
Continuous
 62
     1
100
AcDbCircle
 10
181.300001913
 20
110.3
 30
0.0
 40
5.8
100
AcDbArc
 50
180.0
 51
270.0
  0
ARC
  5
2CF
330
1F
100
AcDbEntity
  8
0
  6
Continuous
 62
     1
100
AcDbCircle
 10
181.300001913
 20
110.3
 30
0.0
 40
2.6
100
AcDbArc
 50
180.0
 51
270.0
  0
LINE
  5
2D0
330
1F
100
AcDbEntity
  8
0
  6
Continuous
 62
     1
100
AcDbLine
 10
178.700001913
 20
137.7
 30
0.0
 11
178.700001913
 21
110.3
 31
0.0
  0
LINE
  5
2D1
330
1F
100
AcDbEntity
  8
0
  6
Continuous
 62
     1
100
AcDbLine
 10
175.500001913
 20
137.7
 30
0.0
 11
175.500001913
 21
110.3
 31
0.0
  0
LINE
  5
2D2
330
1F
100
AcDbEntity
  8
0
  6
Continuous
 62
     1
100
AcDbLine
 10
190.500001913
 20
143.5
 30
0.0
 11
190.500001913
 21
140.3
 31
0.0
  0
LINE
  5
2D3
330
1F
100
AcDbEntity
  8
0
  6
Continuous
 62
     1
100
AcDbLine
 10
181.300001913
 20
143.5
 30
0.0
 11
190.500001913
 21
143.5
 31
0.0
  0
LINE
  5
2D4
330
1F
100
AcDbEntity
  8
0
  6
Continuous
 62
     1
100
AcDbLine
 10
181.300001913
 20
140.3
 30
0.0
 11
190.500001913
 21
140.3
 31
0.0
  0
LINE
  5
2D5
330
1F
100
AcDbEntity
  8
0
  6
Continuous
 62
     1
100
AcDbLine
 10
190.500001913
 20
104.5
 30
0.0
 11
190.500001913
 21
107.7
 31
0.0
  0
LINE
  5
2D6
330
1F
100
AcDbEntity
  8
0
  6
Continuous
 62
     1
100
AcDbLine
 10
181.300001913
 20
107.7
 30
0.0
 11
190.500001913
 21
107.7
 31
0.0
  0
LINE
  5
2D7
330
1F
100
AcDbEntity
  8
0
  6
Continuous
 62
     1
100
AcDbLine
 10
181.300001913
 20
104.5
 30
0.0
 11
190.500001913
 21
104.5
 31
0.0
  0
ARC
  5
2D8
330
1F
100
AcDbEntity
  8
0
  6
Continuous
 62
     1
100
AcDbCircle
 10
194.700000956
 20
135.8
 30
0.0
 40
2.6
100
AcDbArc
 50
270.0
 51
0.0
  0
ARC
  5
2D9
330
1F
100
AcDbEntity
  8
0
  6
Continuous
 62
     1
100
AcDbCircle
 10
194.700000956
 20
112.2
 30
0.0
 40
2.6
100
AcDbArc
 50
0.0
 51
90.0
  0
ARC
  5
2DA
330
1F
100
AcDbEntity
  8
0
  6
Continuous
 62
     1
100
AcDbCircle
 10
218.300000956
 20
135.8
 30
0.0
 40
2.6
100
AcDbArc
 50
180.0
 51
270.0
  0
ARC
  5
2DB
330
1F
100
AcDbEntity
  8
0
  6
Continuous
 62
     1
100
AcDbCircle
 10
218.300000956
 20
112.2
 30
0.0
 40
2.6
100
AcDbArc
 50
90.0
 51
180.0
  0
LINE
  5
2DC
330
1F
100
AcDbEntity
  8
0
  6
Continuous
 62
     2
100
AcDbLine
 10
105.500001913
 20
128.0
 30
0.0
 11
105.500001913
 21
120.0
 31
0.0
  0
LINE
  5
2DD
330
1F
100
AcDbEntity
  8
0
  6
Continuous
 62
     1
100
AcDbLine
 10
91.000001913
 20
127.5
 30
0.0
 11
90.500001913
 21
127.0
 31
0.0
  0
LINE
  5
2DE
330
1F
100
AcDbEntity
  8
0
  6
Continuous
 62
     1
100
AcDbLine
 10
90.500001913
 20
127.0
 30
0.0
 11
90.500001913
 21
121.0
 31
0.0
  0
LINE
  5
2DF
330
1F
100
AcDbEntity
  8
0
  6
Continuous
 62
     1
100
AcDbLine
 10
91.000001913
 20
120.5
 30
0.0
 11
90.500001913
 21
121.0
 31
0.0
  0
LINE
  5
2E0
330
1F
100
AcDbEntity
  8
0
  6
Continuous
 62
     2
100
AcDbLine
 10
91.000001913
 20
127.5
 30
0.0
 11
91.000001913
 21
120.5
 31
0.0
  0
LINE
  5
2E1
330
1F
100
AcDbEntity
  8
0
  6
Continuous
 62
     1
100
AcDbLine
 10
98.000001913
 20
147.0
 30
0.0
 11
99.000001913
 21
146.0
 31
0.0
  0
LINE
  5
2E2
330
1F
100
AcDbEntity
  8
0
  6
Continuous
 62
     1
100
AcDbLine
 10
98.000001913
 20
147.0
 30
0.0
 11
93.000001913
 21
147.0
 31
0.0
  0
LINE
  5
2E3
330
1F
100
AcDbEntity
  8
0
  6
Continuous
 62
     1
100
AcDbLine
 10
92.000001913
 20
146.0
 30
0.0
 11
93.000001913
 21
147.0
 31
0.0
  0
LINE
  5
2E4
330
1F
100
AcDbEntity
  8
0
  6
Continuous
 62
     2
100
AcDbLine
 10
92.000001913
 20
146.0
 30
0.0
 11
99.000001913
 21
146.0
 31
0.0
  0
LINE
  5
2E5
330
1F
100
AcDbEntity
  8
0
  6
Continuous
 62
     1
100
AcDbLine
 10
99.000001913
 20
140.0
 30
0.0
 11
99.000001913
 21
146.0
 31
0.0
  0
LINE
  5
2E6
330
1F
100
AcDbEntity
  8
0
  6
Continuous
 62
     1
100
AcDbLine
 10
98.000001913
 20
139.0
 30
0.0
 11
99.000001913
 21
140.0
 31
0.0
  0
LINE
  5
2E7
330
1F
100
AcDbEntity
  8
0
  6
Continuous
 62
     1
100
AcDbLine
 10
92.000001913
 20
140.0
 30
0.0
 11
92.000001913
 21
146.0
 31
0.0
  0
LINE
  5
2E8
330
1F
100
AcDbEntity
  8
0
  6
Continuous
 62
     1
100
AcDbLine
 10
98.000001913
 20
139.0
 30
0.0
 11
93.000001913
 21
139.0
 31
0.0
  0
LINE
  5
2E9
330
1F
100
AcDbEntity
  8
0
  6
Continuous
 62
     1
100
AcDbLine
 10
92.000001913
 20
140.0
 30
0.0
 11
93.000001913
 21
139.0
 31
0.0
  0
LINE
  5
2EA
330
1F
100
AcDbEntity
  8
0
  6
Continuous
 62
     2
100
AcDbLine
 10
92.000001913
 20
140.0
 30
0.0
 11
99.000001913
 21
140.0
 31
0.0
  0
LINE
  5
2EB
330
1F
100
AcDbEntity
  8
0
  6
Continuous
 62
     2
100
AcDbLine
 10
92.300001913
 20
146.0
 30
0.0
 11
92.300001913
 21
140.0
 31
0.0
  0
LINE
  5
2EC
330
1F
100
AcDbEntity
  8
0
  6
Continuous
 62
     2
100
AcDbLine
 10
93.100001913
 20
140.0
 30
0.0
 11
93.100001913
 21
146.0
 31
0.0
  0
LINE
  5
2ED
330
1F
100
AcDbEntity
  8
0
  6
Continuous
 62
     2
100
AcDbLine
 10
93.900001913
 20
146.0
 30
0.0
 11
93.900001913
 21
140.0
 31
0.0
  0
LINE
  5
2EE
330
1F
100
AcDbEntity
  8
0
  6
Continuous
 62
     2
100
AcDbLine
 10
94.700001913
 20
140.0
 30
0.0
 11
94.700001913
 21
146.0
 31
0.0
  0
LINE
  5
2EF
330
1F
100
AcDbEntity
  8
0
  6
Continuous
 62
     2
100
AcDbLine
 10
95.500001913
 20
146.0
 30
0.0
 11
95.500001913
 21
140.0
 31
0.0
  0
LINE
  5
2F0
330
1F
100
AcDbEntity
  8
0
  6
Continuous
 62
     2
100
AcDbLine
 10
96.300001913
 20
140.0
 30
0.0
 11
96.300001913
 21
146.0
 31
0.0
  0
LINE
  5
2F1
330
1F
100
AcDbEntity
  8
0
  6
Continuous
 62
     2
100
AcDbLine
 10
97.100001913
 20
146.0
 30
0.0
 11
97.100001913
 21
140.0
 31
0.0
  0
LINE
  5
2F2
330
1F
100
AcDbEntity
  8
0
  6
Continuous
 62
     2
100
AcDbLine
 10
97.900001913
 20
140.0
 30
0.0
 11
97.900001913
 21
146.0
 31
0.0
  0
LINE
  5
2F3
330
1F
100
AcDbEntity
  8
0
  6
Continuous
 62
     2
100
AcDbLine
 10
98.700001913
 20
146.0
 30
0.0
 11
98.700001913
 21
140.0
 31
0.0
  0
LINE
  5
2F4
330
1F
100
AcDbEntity
  8
0
  6
Continuous
 62
     1
100
AcDbLine
 10
97.500001913
 20
127.5
 30
0.0
 11
97.500001913
 21
139.0
 31
0.0
  0
LINE
  5
2F5
330
1F
100
AcDbEntity
  8
0
  6
Continuous
 62
     1
100
AcDbLine
 10
93.500001913
 20
127.5
 30
0.0
 11
93.500001913
 21
139.0
 31
0.0
  0
LINE
  5
2F6
330
1F
100
AcDbEntity
  8
0
  6
LTYPE1
 62
     2
100
AcDbLine
 10
97.500001913
 20
120.5
 30
0.0
 11
97.500001913
 21
127.5
 31
0.0
  0
LINE
  5
2F7
330
1F
100
AcDbEntity
  8
0
  6
LTYPE1
 62
     2
100
AcDbLine
 10
93.500001913
 20
120.5
 30
0.0
 11
93.500001913
 21
127.5
 31
0.0
  0
LINE
  5
2F8
330
1F
100
AcDbEntity
  8
0
  6
Continuous
 62
     1
100
AcDbLine
 10
98.000001913
 20
101.0
 30
0.0
 11
99.000001913
 21
102.0
 31
0.0
  0
LINE
  5
2F9
330
1F
100
AcDbEntity
  8
0
  6
Continuous
 62
     1
100
AcDbLine
 10
98.000001913
 20
101.0
 30
0.0
 11
93.000001913
 21
101.0
 31
0.0
  0
LINE
  5
2FA
330
1F
100
AcDbEntity
  8
0
  6
Continuous
 62
     1
100
AcDbLine
 10
92.000001913
 20
102.0
 30
0.0
 11
93.000001913
 21
101.0
 31
0.0
  0
LINE
  5
2FB
330
1F
100
AcDbEntity
  8
0
  6
Continuous
 62
     2
100
AcDbLine
 10
92.000001913
 20
102.0
 30
0.0
 11
99.000001913
 21
102.0
 31
0.0
  0
LINE
  5
2FC
330
1F
100
AcDbEntity
  8
0
  6
Continuous
 62
     1
100
AcDbLine
 10
99.000001913
 20
108.0
 30
0.0
 11
99.000001913
 21
102.0
 31
0.0
  0
LINE
  5
2FD
330
1F
100
AcDbEntity
  8
0
  6
Continuous
 62
     1
100
AcDbLine
 10
98.000001913
 20
109.0
 30
0.0
 11
99.000001913
 21
108.0
 31
0.0
  0
LINE
  5
2FE
330
1F
100
AcDbEntity
  8
0
  6
Continuous
 62
     1
100
AcDbLine
 10
92.000001913
 20
108.0
 30
0.0
 11
92.000001913
 21
102.0
 31
0.0
  0
LINE
  5
2FF
330
1F
100
AcDbEntity
  8
0
  6
Continuous
 62
     1
100
AcDbLine
 10
98.000001913
 20
109.0
 30
0.0
 11
93.000001913
 21
109.0
 31
0.0
  0
LINE
  5
300
330
1F
100
AcDbEntity
  8
0
  6
Continuous
 62
     1
100
AcDbLine
 10
92.000001913
 20
108.0
 30
0.0
 11
93.000001913
 21
109.0
 31
0.0
  0
LINE
  5
301
330
1F
100
AcDbEntity
  8
0
  6
Continuous
 62
     2
100
AcDbLine
 10
92.000001913
 20
108.0
 30
0.0
 11
99.000001913
 21
108.0
 31
0.0
  0
LINE
  5
302
330
1F
100
AcDbEntity
  8
0
  6
Continuous
 62
     2
100
AcDbLine
 10
92.300001913
 20
102.0
 30
0.0
 11
92.300001913
 21
108.0
 31
0.0
  0
LINE
  5
303
330
1F
100
AcDbEntity
  8
0
  6
Continuous
 62
     2
100
AcDbLine
 10
93.100001913
 20
108.0
 30
0.0
 11
93.100001913
 21
102.0
 31
0.0
  0
LINE
  5
304
330
1F
100
AcDbEntity
  8
0
  6
Continuous
 62
     2
100
AcDbLine
 10
93.900001913
 20
102.0
 30
0.0
 11
93.900001913
 21
108.0
 31
0.0
  0
LINE
  5
305
330
1F
100
AcDbEntity
  8
0
  6
Continuous
 62
     2
100
AcDbLine
 10
94.700001913
 20
108.0
 30
0.0
 11
94.700001913
 21
102.0
 31
0.0
  0
LINE
  5
306
330
1F
100
AcDbEntity
  8
0
  6
Continuous
 62
     2
100
AcDbLine
 10
95.500001913
 20
102.0
 30
0.0
 11
95.500001913
 21
108.0
 31
0.0
  0
LINE
  5
307
330
1F
100
AcDbEntity
  8
0
  6
Continuous
 62
     2
100
AcDbLine
 10
96.300001913
 20
108.0
 30
0.0
 11
96.300001913
 21
102.0
 31
0.0
  0
LINE
  5
308
330
1F
100
AcDbEntity
  8
0
  6
Continuous
 62
     2
100
AcDbLine
 10
97.100001913
 20
102.0
 30
0.0
 11
97.100001913
 21
108.0
 31
0.0
  0
LINE
  5
309
330
1F
100
AcDbEntity
  8
0
  6
Continuous
 62
     2
100
AcDbLine
 10
97.900001913
 20
108.0
 30
0.0
 11
97.900001913
 21
102.0
 31
0.0
  0
LINE
  5
30A
330
1F
100
AcDbEntity
  8
0
  6
Continuous
 62
     2
100
AcDbLine
 10
98.700001913
 20
102.0
 30
0.0
 11
98.700001913
 21
108.0
 31
0.0
  0
LINE
  5
30B
330
1F
100
AcDbEntity
  8
0
  6
Continuous
 62
     1
100
AcDbLine
 10
97.500001913
 20
120.5
 30
0.0
 11
97.500001913
 21
109.0
 31
0.0
  0
LINE
  5
30C
330
1F
100
AcDbEntity
  8
0
  6
Continuous
 62
     1
100
AcDbLine
 10
93.500001913
 20
120.5
 30
0.0
 11
93.500001913
 21
109.0
 31
0.0
  0
LINE
  5
30D
330
1F
100
AcDbEntity
  8
0
  6
Continuous
 62
     2
100
AcDbLine
 10
105.500001913
 20
127.399997581
 30
0.0
 11
105.000001913
 21
127.5
 31
0.0
  0
LINE
  5
30E
330
1F
100
AcDbEntity
  8
0
  6
Continuous
 62
     1
100
AcDbLine
 10
105.000001913
 20
127.5
 30
0.0
 11
91.000001913
 21
127.5
 31
0.0
  0
LINE
  5
30F
330
1F
100
AcDbEntity
  8
0
  6
Continuous
 62
     1
100
AcDbLine
 10
105.499999547
 20
127.999997634
 30
0.0
 11
105.000001913
 21
127.5
 31
0.0
  0
LINE
  5
310
330
1F
100
AcDbEntity
  8
0
  6
Continuous
 62
     2
100
AcDbLine
 10
105.500001913
 20
120.600002419
 30
0.0
 11
105.000001913
 21
120.5
 31
0.0
  0
LWPOLYLINE
  5
312
330
1F
100
AcDbEntity
  8
0
  6
Continuous
 62
     1
100
AcDbPolyline
 90
     3
 70
   128
 43
0.0
 10
105.500007039
 20
119.999994873
 10
105.000001913
 20
120.5
 10
91.000001913
 20
120.5
  0
LINE
  5
313
330
1F
100
AcDbEntity
  8
0
  6
Continuous
 62
     2
100
AcDbLine
 10
160.900001879
 20
127.399999597
 30
0.0
 11
105.500001913
 21
127.399997581
 31
0.0
  0
LINE
  5
314
330
1F
100
AcDbEntity
  8
0
  6
Continuous
 62
     2
100
AcDbLine
 10
175.500001913
 20
127.400000128
 30
0.0
 11
171.100001836
 21
127.399999968
 31
0.0
  0
LINE
  5
315
330
1F
100
AcDbEntity
  8
0
  6
Continuous
 62
     2
100
AcDbLine
 10
160.900001879
 20
120.599996836
 30
0.0
 11
105.500001913
 21
120.59999482
 31
0.0
  0
LINE
  5
316
330
1F
100
AcDbEntity
  8
0
  6
Continuous
 62
     2
100
AcDbLine
 10
175.500001913
 20
120.599997368
 30
0.0
 11
171.100001989
 21
120.599997208
 31
0.0
  0
LINE
  5
317
330
1F
100
AcDbEntity
  8
0
  6
Continuous
 62
     1
100
AcDbLine
 10
175.500001913
 20
127.999999897
 30
0.0
 11
171.100001823
 21
127.999999754
 31
0.0
  0
LINE
  5
318
330
1F
100
AcDbEntity
  8
0
  6
Continuous
 62
     1
100
AcDbLine
 10
160.900001879
 20
119.999996664
 30
0.0
 11
105.500007039
 21
119.999994873
 31
0.0
  0
LINE
  5
319
330
1F
100
AcDbEntity
  8
0
  6
Continuous
 62
     1
100
AcDbLine
 10
175.500001913
 20
119.999997136
 30
0.0
 11
171.100002003
 21
119.999996994
 31
0.0
  0
LINE
  5
31A
330
1F
100
AcDbEntity
  8
0
  6
LTYPE1
 62
     2
100
AcDbLine
 10
171.100002003
 20
119.999996994
 30
0.0
 11
160.900001879
 21
119.999996664
 31
0.0
  0
LINE
  5
31B
330
1F
100
AcDbEntity
  8
0
  6
Continuous
 62
     1
100
AcDbLine
 10
160.900001879
 20
127.999999425
 30
0.0
 11
105.499999547
 21
127.999997634
 31
0.0
  0
LINE
  5
31C
330
1F
100
AcDbEntity
  8
0
  6
LTYPE1
 62
     2
100
AcDbLine
 10
171.100001823
 20
127.999999754
 30
0.0
 11
160.900001879
 21
127.999999425
 31
0.0
  0
LINE
  5
31D
330
1F
100
AcDbEntity
  8
0
  6
Continuous
 62
     1
100
AcDbLine
 10
430.1
 20
124.0
 30
0.0
 11
430.1
 21
129.0
 31
0.0
  0
LINE
  5
31E
330
1F
100
AcDbEntity
  8
0
  6
Continuous
 62
     1
100
AcDbLine
 10
430.1
 20
119.0
 30
0.0
 11
430.1
 21
124.0
 31
0.0
  0
LINE
  5
31F
330
1F
100
AcDbEntity
  8
0
  6
Continuous
 62
     1
100
AcDbLine
 10
428.5
 20
142.0
 30
0.0
 11
433.5
 21
142.0
 31
0.0
  0
LINE
  5
320
330
1F
100
AcDbEntity
  8
0
  6
Continuous
 62
     1
100
AcDbLine
 10
431.9
 20
142.0
 30
0.0
 11
431.9
 21
133.0
 31
0.0
  0
LINE
  5
321
330
1F
100
AcDbEntity
  8
0
  6
Continuous
 62
     1
100
AcDbLine
 10
428.5
 20
106.0
 30
0.0
 11
428.5
 21
142.0
 31
0.0
  0
ARC
  5
322
330
1F
100
AcDbEntity
  8
0
  6
Continuous
 62
     1
100
AcDbCircle
 10
430.0
 20
129.3
 30
0.0
 40
1.5
100
AcDbArc
 50
131.4
 51
180.0
  0
LINE
  5
323
330
1F
100
AcDbEntity
  8
0
  6
Continuous
 62
     1
100
AcDbLine
 10
429.0
 20
130.4
 30
0.0
 11
431.9
 21
133.0
 31
0.0
  0
LINE
  5
324
330
1F
100
AcDbEntity
  8
0
  6
Continuous
 62
     1
100
AcDbLine
 10
433.5
 20
142.0
 30
0.0
 11
433.5
 21
132.7
 31
0.0
  0
ARC
  5
325
330
1F
100
AcDbEntity
  8
0
  6
Continuous
 62
     1
100
AcDbCircle
 10
432.0
 20
132.7
 30
0.0
 40
1.5
100
AcDbArc
 50
311.4
 51
0.0
  0
LINE
  5
326
330
1F
100
AcDbEntity
  8
0
  6
Continuous
 62
     1
100
AcDbLine
 10
433.0
 20
131.6
 30
0.0
 11
430.1
 21
129.0
 31
0.0
  0
LINE
  5
327
330
1F
100
AcDbEntity
  8
0
  6
Continuous
 62
     1
100
AcDbLine
 10
430.1
 20
124.0
 30
0.0
 11
430.1
 21
119.0
 31
0.0
  0
LINE
  5
328
330
1F
100
AcDbEntity
  8
0
  6
Continuous
 62
     1
100
AcDbLine
 10
428.5
 20
106.0
 30
0.0
 11
433.5
 21
106.0
 31
0.0
  0
LINE
  5
329
330
1F
100
AcDbEntity
  8
0
  6
Continuous
 62
     1
100
AcDbLine
 10
431.9
 20
106.0
 30
0.0
 11
431.9
 21
115.0
 31
0.0
  0
ARC
  5
32A
330
1F
100
AcDbEntity
  8
0
  6
Continuous
 62
     1
100
AcDbCircle
 10
430.0
 20
118.7
 30
0.0
 40
1.5
100
AcDbArc
 50
180.0
 51
228.6
  0
LINE
  5
32B
330
1F
100
AcDbEntity
  8
0
  6
Continuous
 62
     1
100
AcDbLine
 10
429.0
 20
117.6
 30
0.0
 11
431.9
 21
115.0
 31
0.0
  0
LWPOLYLINE
  5
32E
330
1F
100
AcDbEntity
  8
0
  6
Continuous
 62
     1
100
AcDbPolyline
 90
     3
 70
   128
 43
0.0
 10
433.5
 20
106.0
 42
0.0
 10
433.5
 20
115.3
 42
0.215294367
 10
432.991967798
 20
116.425166604
 42
0.0
  0
LINE
  5
32F
330
1F
100
AcDbEntity
  8
0
  6
Continuous
 62
     1
100
AcDbLine
 10
433.0
 20
116.4
 30
0.0
 11
430.1
 21
119.0
 31
0.0
  0
LINE
  5
330
330
1F
100
AcDbEntity
  8
0
  6
Continuous
 62
     1
100
AcDbLine
 10
413.5
 20
112.8
 30
0.0
 11
428.5
 21
112.8
 31
0.0
  0
ARC
  5
331
330
1F
100
AcDbEntity
  8
0
  6
Continuous
 62
     1
100
AcDbCircle
 10
395.0
 20
104.0
 30
0.0
 40
4.0
100
AcDbArc
 50
0.0
 51
90.0
  0
LWPOLYLINE
  5
333
330
1F
100
AcDbEntity
  8
0
  6
Continuous
 62
     1
100
AcDbPolyline
 90
     4
 70
   128
 43
0.0
 10
399.0
 20
124.0
 10
399.0
 20
104.0
 10
411.0
 20
104.0
 10
411.0
 20
124.0
  0
LWPOLYLINE
  5
335
330
1F
100
AcDbEntity
  8
0
  6
Continuous
 62
     1
100
AcDbPolyline
 90
     3
 70
   128
 43
0.0
 10
411.0
 20
104.0
 10
413.5
 20
106.5
 10
413.5
 20
124.0
  0
LWPOLYLINE
  5
337
330
1F
100
AcDbEntity
  8
0
  6
Continuous
 62
     1
100
AcDbPolyline
 90
     3
 70
   128
 43
0.0
 10
376.5
 20
111.5
 42
0.414213562
 10
379.5
 20
108.5
 42
0.0
 10
395.0
 20
108.0
 42
0.0
  0
LINE
  5
338
330
1F
100
AcDbEntity
  8
0
  6
Continuous
 62
     1
100
AcDbLine
 10
376.5
 20
111.5
 30
0.0
 11
376.5
 21
124.0
 31
0.0
  0
LINE
  5
339
330
1F
100
AcDbEntity
  8
0
  6
Continuous
 62
     1
100
AcDbLine
 10
413.5
 20
135.2
 30
0.0
 11
428.5
 21
135.2
 31
0.0
  0
ARC
  5
33A
330
1F
100
AcDbEntity
  8
0
  6
Continuous
 62
     1
100
AcDbCircle
 10
395.0
 20
144.0
 30
0.0
 40
4.0
100
AcDbArc
 50
270.0
 51
0.0
  0
LWPOLYLINE
  5
33C
330
1F
100
AcDbEntity
  8
0
  6
Continuous
 62
     1
100
AcDbPolyline
 90
     4
 70
   128
 43
0.0
 10
399.0
 20
124.0
 10
399.0
 20
144.0
 10
411.0
 20
144.0
 10
411.0
 20
124.0
  0
LWPOLYLINE
  5
33E
330
1F
100
AcDbEntity
  8
0
  6
Continuous
 62
     1
100
AcDbPolyline
 90
     3
 70
   128
 43
0.0
 10
411.0
 20
144.0
 10
413.5
 20
141.5
 10
413.5
 20
124.0
  0
ARC
  5
33F
330
1F
100
AcDbEntity
  8
0
  6
Continuous
 62
     1
100
AcDbCircle
 10
379.5
 20
136.5
 30
0.0
 40
3.0
100
AcDbArc
 50
90.0
 51
180.0
  0
LINE
  5
340
330
1F
100
AcDbEntity
  8
0
  6
Continuous
 62
     1
100
AcDbLine
 10
379.5
 20
139.5
 30
0.0
 11
395.0
 21
140.0
 31
0.0
  0
LINE
  5
341
330
1F
100
AcDbEntity
  8
0
  6
Continuous
 62
     1
100
AcDbLine
 10
376.5
 20
136.5
 30
0.0
 11
376.5
 21
124.0
 31
0.0
  0
LWPOLYLINE
  5
343
330
1F
100
AcDbEntity
  8
0
  6
Continuous
 62
     2
100
AcDbPolyline
 90
     3
 70
   128
 43
0.0
 10
427.7
 20
130.0
 10
427.7
 20
118.0
 10
428.5
 20
118.0
  0
LINE
  5
344
330
1F
100
AcDbEntity
  8
0
  6
Continuous
 62
     2
100
AcDbLine
 10
427.7
 20
126.5
 30
0.0
 11
427.2
 21
126.5
 31
0.0
  0
LINE
  5
345
330
1F
100
AcDbEntity
  8
0
  6
Continuous
 62
     2
100
AcDbLine
 10
427.2
 20
121.5
 30
0.0
 11
427.7
 21
121.5
 31
0.0
  0
ARC
  5
346
330
1F
100
AcDbEntity
  8
0
  6
Continuous
 62
     2
100
AcDbCircle
 10
421.4
 20
109.1
 30
0.0
 40
13.7
100
AcDbArc
 50
64.8
 51
112.0
  0
ARC
  5
347
330
1F
100
AcDbEntity
  8
0
  6
Continuous
 62
     2
100
AcDbCircle
 10
420.8
 20
124.0
 30
0.0
 40
5.1
100
AcDbArc
 50
154.4
 51
205.6
  0
ARC
  5
348
330
1F
100
AcDbEntity
  8
0
  6
Continuous
 62
     2
100
AcDbCircle
 10
421.4
 20
138.9
 30
0.0
 40
13.7
100
AcDbArc
 50
248.0
 51
295.2
  0
LINE
  5
349
330
1F
100
AcDbEntity
  8
0
  6
Continuous
 62
     2
100
AcDbLine
 10
428.5
 20
130.0
 30
0.0
 11
427.7
 21
130.0
 31
0.0
  0
LWPOLYLINE
  5
34B
330
1F
100
AcDbEntity
  8
0
  6
Continuous
 62
     2
100
AcDbPolyline
 90
     4
 70
   128
 43
0.0
 10
431.1
 20
130.0
 10
431.9
 20
130.0
 10
431.9
 20
118.0
 10
431.1
 20
118.0
  0
LWPOLYLINE
  5
34D
330
1F
100
AcDbEntity
  8
0
  6
Continuous
 62
     2
100
AcDbPolyline
 90
     4
 70
   128
 43
0.0
 10
431.9
 20
118.0
 10
432.7
 20
118.0
 10
432.7
 20
130.0
 10
431.9
 20
130.0
  0
LINE
  5
34E
330
1F
100
AcDbEntity
  8
0
  6
Continuous
 62
     2
100
AcDbLine
 10
431.1
 20
130.0
 30
0.0
 11
431.1
 21
118.0
 31
0.0
  0
LINE
  5
34F
330
1F
100
AcDbEntity
  8
0
  6
Continuous
 62
     2
100
AcDbLine
 10
430.1
 20
126.5
 30
0.0
 11
431.1
 21
126.5
 31
0.0
  0
LWPOLYLINE
  5
351
330
1F
100
AcDbEntity
  8
0
  6
Continuous
 62
     2
100
AcDbPolyline
 90
     4
 70
   128
 43
0.0
 10
441.7
 20
126.5
 10
442.7
 20
125.5
 10
442.7
 20
122.5
 10
441.7
 20
121.5
  0
LINE
  5
352
330
1F
100
AcDbEntity
  8
0
  6
Continuous
 62
     2
100
AcDbLine
 10
430.1
 20
121.5
 30
0.0
 11
431.1
 21
121.5
 31
0.0
  0
LINE
  5
353
330
1F
100
AcDbEntity
  8
0
  6
Continuous
 62
     2
100
AcDbLine
 10
430.1
 20
122.2
 30
0.0
 11
431.1
 21
122.2
 31
0.0
  0
LINE
  5
354
330
1F
100
AcDbEntity
  8
0
  6
Continuous
 62
     2
100
AcDbLine
 10
442.3
 20
122.2
 30
0.0
 11
442.3
 21
125.8
 31
0.0
  0
LINE
  5
355
330
1F
100
AcDbEntity
  8
0
  6
Continuous
 62
     2
100
AcDbLine
 10
430.1
 20
125.8
 30
0.0
 11
431.1
 21
125.8
 31
0.0
  0
LINE
  5
356
330
1F
100
AcDbEntity
  8
0
  6
Continuous
 62
     2
100
AcDbLine
 10
441.7
 20
121.5
 30
0.0
 11
432.7
 21
121.5
 31
0.0
  0
LINE
  5
357
330
1F
100
AcDbEntity
  8
0
  6
Continuous
 62
     2
100
AcDbLine
 10
442.3
 20
122.2
 30
0.0
 11
432.7
 21
122.2
 31
0.0
  0
LINE
  5
358
330
1F
100
AcDbEntity
  8
0
  6
Continuous
 62
     2
100
AcDbLine
 10
442.3
 20
125.8
 30
0.0
 11
432.7
 21
125.8
 31
0.0
  0
LINE
  5
359
330
1F
100
AcDbEntity
  8
0
  6
Continuous
 62
     2
100
AcDbLine
 10
441.7
 20
126.5
 30
0.0
 11
432.7
 21
126.5
 31
0.0
  0
LINE
  5
35A
330
1F
100
AcDbEntity
  8
0
  6
Continuous
 62
     2
100
AcDbLine
 10
402.0
 20
104.0
 30
0.0
 11
402.0
 21
100.0
 31
0.0
  0
LINE
  5
35B
330
1F
100
AcDbEntity
  8
0
  6
Continuous
 62
     2
100
AcDbLine
 10
408.0
 20
100.0
 30
0.0
 11
408.0
 21
104.0
 31
0.0
  0
LWPOLYLINE
  5
35D
330
1F
100
AcDbEntity
  8
0
  6
Continuous
 62
     2
100
AcDbPolyline
 90
     3
 70
   128
 43
0.0
 10
407.3
 20
104.0
 10
407.3
 20
100.7
 10
408.0
 20
100.0
  0
LWPOLYLINE
  5
35F
330
1F
100
AcDbEntity
  8
0
  6
Continuous
 62
     2
100
AcDbPolyline
 90
     3
 70
   128
 43
0.0
 10
402.7
 20
104.0
 10
402.7
 20
100.7
 10
402.0
 20
100.0
  0
LINE
  5
360
330
1F
100
AcDbEntity
  8
0
  6
Continuous
 62
     2
100
AcDbLine
 10
402.7
 20
100.7
 30
0.0
 11
407.3
 21
100.7
 31
0.0
  0
LWPOLYLINE
  5
362
330
1F
100
AcDbEntity
  8
0
  6
Continuous
 62
     2
100
AcDbPolyline
 90
     7
 70
   129
 43
0.0
 10
405.0
 20
100.0
 10
401.0
 20
100.0
 10
401.0
 20
93.0
 10
402.0
 20
92.0
 10
408.0
 20
92.0
 10
409.0
 20
93.0
 10
409.0
 20
100.0
  0
LINE
  5
363
330
1F
100
AcDbEntity
  8
0
  6
Continuous
 62
     2
100
AcDbLine
 10
409.0
 20
93.0
 30
0.0
 11
401.0
 21
93.0
 31
0.0
  0
LWPOLYLINE
  5
365
330
1F
100
AcDbEntity
  8
0
  6
Continuous
 62
     2
100
AcDbPolyline
 90
     4
 70
   128
 43
0.0
 10
409.0
 20
98.6
 10
411.0
 20
99.5
 10
411.0
 20
92.5
 10
409.0
 20
93.4
  0
LWPOLYLINE
  5
367
330
1F
100
AcDbEntity
  8
0
  6
Continuous
 62
     2
100
AcDbPolyline
 90
     6
 70
   128
 43
0.0
 10
411.0
 20
92.5
 10
416.0
 20
92.5
 10
417.0
 20
93.5
 10
417.0
 20
98.5
 10
416.0
 20
99.5
 10
411.0
 20
99.5
  0
LINE
  5
368
330
1F
100
AcDbEntity
  8
0
  6
Continuous
 62
     2
100
AcDbLine
 10
416.0
 20
99.5
 30
0.0
 11
416.0
 21
92.5
 31
0.0
  0
LINE
  5
369
330
1F
100
AcDbEntity
  8
0
  6
Continuous
 62
     2
100
AcDbLine
 10
416.0
 20
96.0
 30
0.0
 11
411.0
 21
96.0
 31
0.0
  0
LINE
  5
36A
330
1F
100
AcDbEntity
  8
0
  6
Continuous
 62
     2
100
AcDbLine
 10
411.0
 20
95.0
 30
0.0
 11
416.0
 21
95.0
 31
0.0
  0
LINE
  5
36B
330
1F
100
AcDbEntity
  8
0
  6
Continuous
 62
     2
100
AcDbLine
 10
416.0
 20
94.0
 30
0.0
 11
411.0
 21
94.0
 31
0.0
  0
LINE
  5
36C
330
1F
100
AcDbEntity
  8
0
  6
Continuous
 62
     2
100
AcDbLine
 10
411.0
 20
93.3
 30
0.0
 11
416.0
 21
93.3
 31
0.0
  0
LINE
  5
36D
330
1F
100
AcDbEntity
  8
0
  6
Continuous
 62
     2
100
AcDbLine
 10
416.0
 20
92.8
 30
0.0
 11
411.0
 21
92.8
 31
0.0
  0
LINE
  5
36E
330
1F
100
AcDbEntity
  8
0
  6
Continuous
 62
     2
100
AcDbLine
 10
416.0
 20
99.2
 30
0.0
 11
411.0
 21
99.2
 31
0.0
  0
LINE
  5
36F
330
1F
100
AcDbEntity
  8
0
  6
Continuous
 62
     2
100
AcDbLine
 10
411.0
 20
98.7
 30
0.0
 11
416.0
 21
98.7
 31
0.0
  0
LINE
  5
370
330
1F
100
AcDbEntity
  8
0
  6
Continuous
 62
     2
100
AcDbLine
 10
416.0
 20
98.0
 30
0.0
 11
411.0
 21
98.0
 31
0.0
  0
LINE
  5
371
330
1F
100
AcDbEntity
  8
0
  6
Continuous
 62
     2
100
AcDbLine
 10
411.0
 20
97.0
 30
0.0
 11
416.0
 21
97.0
 31
0.0
  0
LWPOLYLINE
  5
373
330
1F
100
AcDbEntity
  8
0
  6
Continuous
 62
     2
100
AcDbPolyline
 90
     4
 70
   128
 43
0.0
 10
390.0
 20
93.4
 10
388.0
 20
92.5
 10
388.0
 20
99.5
 10
390.0
 20
98.6
  0
LWPOLYLINE
  5
375
330
1F
100
AcDbEntity
  8
0
  6
Continuous
 62
     2
100
AcDbPolyline
 90
     6
 70
   128
 43
0.0
 10
388.0
 20
99.5
 10
383.0
 20
99.5
 10
382.0
 20
98.5
 10
382.0
 20
93.5
 10
383.0
 20
92.5
 10
388.0
 20
92.5
  0
LINE
  5
376
330
1F
100
AcDbEntity
  8
0
  6
Continuous
 62
     2
100
AcDbLine
 10
383.0
 20
92.5
 30
0.0
 11
383.0
 21
99.5
 31
0.0
  0
LINE
  5
377
330
1F
100
AcDbEntity
  8
0
  6
Continuous
 62
     2
100
AcDbLine
 10
383.0
 20
96.0
 30
0.0
 11
388.0
 21
96.0
 31
0.0
  0
LINE
  5
378
330
1F
100
AcDbEntity
  8
0
  6
Continuous
 62
     2
100
AcDbLine
 10
388.0
 20
97.0
 30
0.0
 11
383.0
 21
97.0
 31
0.0
  0
LINE
  5
379
330
1F
100
AcDbEntity
  8
0
  6
Continuous
 62
     2
100
AcDbLine
 10
383.0
 20
98.0
 30
0.0
 11
388.0
 21
98.0
 31
0.0
  0
LINE
  5
37A
330
1F
100
AcDbEntity
  8
0
  6
Continuous
 62
     2
100
AcDbLine
 10
388.0
 20
98.7
 30
0.0
 11
383.0
 21
98.7
 31
0.0
  0
LINE
  5
37B
330
1F
100
AcDbEntity
  8
0
  6
Continuous
 62
     2
100
AcDbLine
 10
383.0
 20
99.2
 30
0.0
 11
388.0
 21
99.2
 31
0.0
  0
LINE
  5
37C
330
1F
100
AcDbEntity
  8
0
  6
Continuous
 62
     2
100
AcDbLine
 10
383.0
 20
92.8
 30
0.0
 11
388.0
 21
92.8
 31
0.0
  0
LINE
  5
37D
330
1F
100
AcDbEntity
  8
0
  6
Continuous
 62
     2
100
AcDbLine
 10
388.0
 20
93.3
 30
0.0
 11
383.0
 21
93.3
 31
0.0
  0
LINE
  5
37E
330
1F
100
AcDbEntity
  8
0
  6
Continuous
 62
     2
100
AcDbLine
 10
383.0
 20
94.0
 30
0.0
 11
388.0
 21
94.0
 31
0.0
  0
LINE
  5
37F
330
1F
100
AcDbEntity
  8
0
  6
Continuous
 62
     2
100
AcDbLine
 10
388.0
 20
95.0
 30
0.0
 11
383.0
 21
95.0
 31
0.0
  0
LINE
  5
380
330
1F
100
AcDbEntity
  8
0
  6
Continuous
 62
     2
100
AcDbLine
 10
390.0
 20
98.6
 30
0.0
 11
390.0
 21
93.4
 31
0.0
  0
LINE
  5
381
330
1F
100
AcDbEntity
  8
0
  6
Continuous
 62
     2
100
AcDbLine
 10
390.0
 20
94.0
 30
0.0
 11
401.0
 21
94.0
 31
0.0
  0
LINE
  5
382
330
1F
100
AcDbEntity
  8
0
  6
Continuous
 62
     2
100
AcDbLine
 10
401.0
 20
98.0
 30
0.0
 11
390.0
 21
98.0
 31
0.0
  0
LINE
  5
383
330
1F
100
AcDbEntity
  8
0
  6
Continuous
 62
     2
100
AcDbLine
 10
402.0
 20
144.0
 30
0.0
 11
402.0
 21
148.0
 31
0.0
  0
LINE
  5
384
330
1F
100
AcDbEntity
  8
0
  6
Continuous
 62
     2
100
AcDbLine
 10
408.0
 20
148.0
 30
0.0
 11
408.0
 21
144.0
 31
0.0
  0
LWPOLYLINE
  5
386
330
1F
100
AcDbEntity
  8
0
  6
Continuous
 62
     2
100
AcDbPolyline
 90
     3
 70
   128
 43
0.0
 10
407.3
 20
144.0
 10
407.3
 20
147.3
 10
408.0
 20
148.0
  0
LWPOLYLINE
  5
388
330
1F
100
AcDbEntity
  8
0
  6
Continuous
 62
     2
100
AcDbPolyline
 90
     3
 70
   128
 43
0.0
 10
402.7
 20
144.0
 10
402.7
 20
147.3
 10
402.0
 20
148.0
  0
LINE
  5
389
330
1F
100
AcDbEntity
  8
0
  6
Continuous
 62
     2
100
AcDbLine
 10
402.7
 20
147.3
 30
0.0
 11
407.3
 21
147.3
 31
0.0
  0
LWPOLYLINE
  5
38B
330
1F
100
AcDbEntity
  8
0
  6
Continuous
 62
     2
100
AcDbPolyline
 90
     7
 70
   129
 43
0.0
 10
405.0
 20
148.0
 10
401.0
 20
148.0
 10
401.0
 20
155.0
 10
402.0
 20
156.0
 10
408.0
 20
156.0
 10
409.0
 20
155.0
 10
409.0
 20
148.0
  0
LINE
  5
38C
330
1F
100
AcDbEntity
  8
0
  6
Continuous
 62
     2
100
AcDbLine
 10
409.0
 20
155.0
 30
0.0
 11
401.0
 21
155.0
 31
0.0
  0
LWPOLYLINE
  5
38E
330
1F
100
AcDbEntity
  8
0
  6
Continuous
 62
     2
100
AcDbPolyline
 90
     4
 70
   128
 43
0.0
 10
409.0
 20
149.4
 10
411.0
 20
148.5
 10
411.0
 20
155.5
 10
409.0
 20
154.6
  0
LWPOLYLINE
  5
390
330
1F
100
AcDbEntity
  8
0
  6
Continuous
 62
     2
100
AcDbPolyline
 90
     6
 70
   128
 43
0.0
 10
411.0
 20
155.5
 10
416.0
 20
155.5
 10
417.0
 20
154.5
 10
417.0
 20
149.5
 10
416.0
 20
148.5
 10
411.0
 20
148.5
  0
LINE
  5
391
330
1F
100
AcDbEntity
  8
0
  6
Continuous
 62
     2
100
AcDbLine
 10
416.0
 20
148.5
 30
0.0
 11
416.0
 21
155.5
 31
0.0
  0
LINE
  5
392
330
1F
100
AcDbEntity
  8
0
  6
Continuous
 62
     2
100
AcDbLine
 10
416.0
 20
152.0
 30
0.0
 11
411.0
 21
152.0
 31
0.0
  0
LINE
  5
393
330
1F
100
AcDbEntity
  8
0
  6
Continuous
 62
     2
100
AcDbLine
 10
411.0
 20
153.0
 30
0.0
 11
416.0
 21
153.0
 31
0.0
  0
LINE
  5
394
330
1F
100
AcDbEntity
  8
0
  6
Continuous
 62
     2
100
AcDbLine
 10
416.0
 20
154.0
 30
0.0
 11
411.0
 21
154.0
 31
0.0
  0
LINE
  5
395
330
1F
100
AcDbEntity
  8
0
  6
Continuous
 62
     2
100
AcDbLine
 10
411.0
 20
154.7
 30
0.0
 11
416.0
 21
154.7
 31
0.0
  0
LINE
  5
396
330
1F
100
AcDbEntity
  8
0
  6
Continuous
 62
     2
100
AcDbLine
 10
416.0
 20
155.2
 30
0.0
 11
411.0
 21
155.2
 31
0.0
  0
LINE
  5
397
330
1F
100
AcDbEntity
  8
0
  6
Continuous
 62
     2
100
AcDbLine
 10
416.0
 20
148.8
 30
0.0
 11
411.0
 21
148.8
 31
0.0
  0
LINE
  5
398
330
1F
100
AcDbEntity
  8
0
  6
Continuous
 62
     2
100
AcDbLine
 10
411.0
 20
149.3
 30
0.0
 11
416.0
 21
149.3
 31
0.0
  0
LINE
  5
399
330
1F
100
AcDbEntity
  8
0
  6
Continuous
 62
     2
100
AcDbLine
 10
416.0
 20
150.0
 30
0.0
 11
411.0
 21
150.0
 31
0.0
  0
LINE
  5
39A
330
1F
100
AcDbEntity
  8
0
  6
Continuous
 62
     2
100
AcDbLine
 10
411.0
 20
151.0
 30
0.0
 11
416.0
 21
151.0
 31
0.0
  0
LWPOLYLINE
  5
39C
330
1F
100
AcDbEntity
  8
0
  6
Continuous
 62
     2
100
AcDbPolyline
 90
     4
 70
   128
 43
0.0
 10
390.0
 20
154.6
 10
388.0
 20
155.5
 10
388.0
 20
148.5
 10
390.0
 20
149.4
  0
LWPOLYLINE
  5
39E
330
1F
100
AcDbEntity
  8
0
  6
Continuous
 62
     2
100
AcDbPolyline
 90
     6
 70
   128
 43
0.0
 10
388.0
 20
148.5
 10
383.0
 20
148.5
 10
382.0
 20
149.5
 10
382.0
 20
154.5
 10
383.0
 20
155.5
 10
388.0
 20
155.5
  0
LINE
  5
39F
330
1F
100
AcDbEntity
  8
0
  6
Continuous
 62
     2
100
AcDbLine
 10
383.0
 20
155.5
 30
0.0
 11
383.0
 21
148.5
 31
0.0
  0
LINE
  5
3A0
330
1F
100
AcDbEntity
  8
0
  6
Continuous
 62
     2
100
AcDbLine
 10
383.0
 20
152.0
 30
0.0
 11
388.0
 21
152.0
 31
0.0
  0
LINE
  5
3A1
330
1F
100
AcDbEntity
  8
0
  6
Continuous
 62
     2
100
AcDbLine
 10
388.0
 20
151.0
 30
0.0
 11
383.0
 21
151.0
 31
0.0
  0
LINE
  5
3A2
330
1F
100
AcDbEntity
  8
0
  6
Continuous
 62
     2
100
AcDbLine
 10
383.0
 20
150.0
 30
0.0
 11
388.0
 21
150.0
 31
0.0
  0
LINE
  5
3A3
330
1F
100
AcDbEntity
  8
0
  6
Continuous
 62
     2
100
AcDbLine
 10
388.0
 20
149.3
 30
0.0
 11
383.0
 21
149.3
 31
0.0
  0
LINE
  5
3A4
330
1F
100
AcDbEntity
  8
0
  6
Continuous
 62
     2
100
AcDbLine
 10
383.0
 20
148.8
 30
0.0
 11
388.0
 21
148.8
 31
0.0
  0
LINE
  5
3A5
330
1F
100
AcDbEntity
  8
0
  6
Continuous
 62
     2
100
AcDbLine
 10
383.0
 20
155.2
 30
0.0
 11
388.0
 21
155.2
 31
0.0
  0
LINE
  5
3A6
330
1F
100
AcDbEntity
  8
0
  6
Continuous
 62
     2
100
AcDbLine
 10
388.0
 20
154.7
 30
0.0
 11
383.0
 21
154.7
 31
0.0
  0
LINE
  5
3A7
330
1F
100
AcDbEntity
  8
0
  6
Continuous
 62
     2
100
AcDbLine
 10
383.0
 20
154.0
 30
0.0
 11
388.0
 21
154.0
 31
0.0
  0
LINE
  5
3A8
330
1F
100
AcDbEntity
  8
0
  6
Continuous
 62
     2
100
AcDbLine
 10
388.0
 20
153.0
 30
0.0
 11
383.0
 21
153.0
 31
0.0
  0
LINE
  5
3A9
330
1F
100
AcDbEntity
  8
0
  6
Continuous
 62
     2
100
AcDbLine
 10
390.0
 20
149.4
 30
0.0
 11
390.0
 21
154.6
 31
0.0
  0
LINE
  5
3AA
330
1F
100
AcDbEntity
  8
0
  6
Continuous
 62
     2
100
AcDbLine
 10
390.0
 20
154.0
 30
0.0
 11
401.0
 21
154.0
 31
0.0
  0
LINE
  5
3AB
330
1F
100
AcDbEntity
  8
0
  6
Continuous
 62
     2
100
AcDbLine
 10
401.0
 20
150.0
 30
0.0
 11
390.0
 21
150.0
 31
0.0
  0
CIRCLE
  5
3AC
330
1F
100
AcDbEntity
  8
0
  6
Continuous
 62
     2
100
AcDbCircle
 10
405.0
 20
124.0
 30
0.0
 40
2.7
  0
CIRCLE
  5
3AD
330
1F
100
AcDbEntity
  8
0
  6
Continuous
 62
     2
100
AcDbCircle
 10
405.0
 20
124.0
 30
0.0
 40
3.0
  0
ARC
  5
3AE
330
1F
100
AcDbEntity
  8
0
  6
Continuous
 62
     2
100
AcDbCircle
 10
406.0
 20
125.0
 30
0.0
 40
0.5
100
AcDbArc
 50
180.0
 51
270.0
  0
ARC
  5
3AF
330
1F
100
AcDbEntity
  8
0
  6
Continuous
 62
     2
100
AcDbCircle
 10
404.0
 20
125.0
 30
0.0
 40
0.5
100
AcDbArc
 50
270.0
 51
0.0
  0
ARC
  5
3B0
330
1F
100
AcDbEntity
  8
0
  6
Continuous
 62
     2
100
AcDbCircle
 10
404.0
 20
123.0
 30
0.0
 40
0.5
100
AcDbArc
 50
0.0
 51
90.0
  0
ARC
  5
3B1
330
1F
100
AcDbEntity
  8
0
  6
Continuous
 62
     2
100
AcDbCircle
 10
406.0
 20
123.0
 30
0.0
 40
0.5
100
AcDbArc
 50
90.0
 51
180.0
  0
LWPOLYLINE
  5
3B3
330
1F
100
AcDbEntity
  8
0
  6
Continuous
 62
     2
100
AcDbPolyline
 90
     4
 70
   128
 43
0.0
 10
406.0
 20
124.5
 10
407.0
 20
124.5
 10
407.0
 20
123.5
 10
406.0
 20
123.5
  0
LWPOLYLINE
  5
3B5
330
1F
100
AcDbEntity
  8
0
  6
Continuous
 62
     2
100
AcDbPolyline
 90
     4
 70
   128
 43
0.0
 10
404.5
 20
125.0
 10
404.5
 20
126.0
 10
405.5
 20
126.0
 10
405.5
 20
125.0
  0
LWPOLYLINE
  5
3B7
330
1F
100
AcDbEntity
  8
0
  6
Continuous
 62
     2
100
AcDbPolyline
 90
     4
 70
   128
 43
0.0
 10
404.0
 20
123.5
 10
403.0
 20
123.5
 10
403.0
 20
124.5
 10
404.0
 20
124.5
  0
LWPOLYLINE
  5
3B9
330
1F
100
AcDbEntity
  8
0
  6
Continuous
 62
     2
100
AcDbPolyline
 90
     4
 70
   128
 43
0.0
 10
405.5
 20
123.0
 10
405.5
 20
122.0
 10
404.5
 20
122.0
 10
404.5
 20
123.0
  0
LINE
  5
3BA
330
1F
100
AcDbEntity
  8
0
  6
Continuous
 62
     1
100
AcDbLine
 10
37.5
 20
128.2
 30
0.0
 11
38.5
 21
129.2
 31
0.0
  0
LWPOLYLINE
  5
3BC
330
1F
100
AcDbEntity
  8
0
  6
Continuous
 62
     1
100
AcDbPolyline
 90
     3
 70
   128
 43
0.0
 10
38.5
 20
118.8
 10
37.5
 20
119.8
 10
37.5
 20
128.2
  0
ARC
  5
3BD
330
1F
100
AcDbEntity
  8
0
  6
Continuous
 62
     2
100
AcDbCircle
 10
39.6
 20
127.9
 30
0.0
 40
1.7
100
AcDbArc
 50
130.2
 51
229.8
  0
ARC
  5
3BE
330
1F
100
AcDbEntity
  8
0
  6
Continuous
 62
     2
100
AcDbCircle
 10
43.8
 20
124.0
 30
0.0
 40
5.9
100
AcDbArc
 50
154.0
 51
206.0
  0
ARC
  5
3BF
330
1F
100
AcDbEntity
  8
0
  6
Continuous
 62
     2
100
AcDbCircle
 10
39.6
 20
120.1
 30
0.0
 40
1.7
100
AcDbArc
 50
130.2
 51
229.8
  0
LINE
  5
3C0
330
1F
100
AcDbEntity
  8
0
  6
Continuous
 62
     2
100
AcDbLine
 10
90.500001913
 20
126.6
 30
0.0
 11
38.5
 21
126.6
 31
0.0
  0
LINE
  5
3C1
330
1F
100
AcDbEntity
  8
0
  6
Continuous
 62
     2
100
AcDbLine
 10
38.4
 20
121.4
 30
0.0
 11
90.500001913
 21
121.4
 31
0.0
  0
LINE
  5
3C2
330
1F
100
AcDbEntity
  8
0
  6
Continuous
 62
     1
100
AcDbLine
 10
38.5
 20
129.2
 30
0.0
 11
93.500001913
 21
129.2
 31
0.0
  0
LINE
  5
3C3
330
1F
100
AcDbEntity
  8
0
  6
Continuous
 62
     1
100
AcDbLine
 10
93.500001913
 20
118.8
 30
0.0
 11
38.5
 21
118.8
 31
0.0
  0
LINE
  5
3C4
330
1F
100
AcDbEntity
  8
0
  6
Continuous
 62
     1
100
AcDbLine
 10
97.500001913
 20
129.2
 30
0.0
 11
160.900001879
 21
129.2
 31
0.0
  0
LINE
  5
3C5
330
1F
100
AcDbEntity
  8
0
  6
Continuous
 62
     1
100
AcDbLine
 10
160.900001879
 20
118.8
 30
0.0
 11
97.500001913
 21
118.8
 31
0.0
  0
LINE
  5
3C6
330
1F
100
AcDbEntity
  8
0
  6
Continuous
 62
     2
100
AcDbLine
 10
376.5
 20
126.6
 30
0.0
 11
252.100000034
 21
126.6
 31
0.0
  0
LINE
  5
3C7
330
1F
100
AcDbEntity
  8
0
  6
Continuous
 62
     2
100
AcDbLine
 10
252.100000034
 20
121.4
 30
0.0
 11
376.5
 21
121.4
 31
0.0
  0
LINE
  5
3C8
330
1F
100
AcDbEntity
  8
0
  6
Continuous
 62
     2
100
AcDbLine
 10
248.900000034
 20
126.6
 30
0.0
 11
221.500000956
 21
126.6
 31
0.0
  0
LINE
  5
3C9
330
1F
100
AcDbEntity
  8
0
  6
Continuous
 62
     2
100
AcDbLine
 10
221.500000956
 20
121.4
 30
0.0
 11
248.900000034
 21
121.4
 31
0.0
  0
LINE
  5
3CA
330
1F
100
AcDbEntity
  8
0
  6
Continuous
 62
     2
100
AcDbLine
 10
194.700000956
 20
121.4
 30
0.0
 11
218.300000956
 21
121.4
 31
0.0
  0
LINE
  5
3CB
330
1F
100
AcDbEntity
  8
0
  6
Continuous
 62
     2
100
AcDbLine
 10
218.300000956
 20
126.6
 30
0.0
 11
194.700000956
 21
126.6
 31
0.0
  0
ARC
  5
3CC
330
1F
100
AcDbEntity
  8
0
  6
Continuous
 62
     2
100
AcDbCircle
 10
206.500000956
 20
124.0
 30
0.0
 40
7.0
100
AcDbArc
 50
47.975372421
 51
132.024627579
  0
ARC
  5
3CD
330
1F
100
AcDbEntity
  8
0
  6
Continuous
 62
     2
100
AcDbCircle
 10
206.500000956
 20
124.0
 30
0.0
 40
7.0
100
AcDbArc
 50
227.975372421
 51
312.024627579
  0
LINE
  5
3CE
330
1F
100
AcDbEntity
  8
0
  6
Continuous
 62
     1
100
AcDbLine
 10
221.500000956
 20
129.2
 30
0.0
 11
248.900000034
 21
129.2
 31
0.0
  0
LINE
  5
3CF
330
1F
100
AcDbEntity
  8
0
  6
Continuous
 62
     1
100
AcDbLine
 10
194.700000956
 20
129.2
 30
0.0
 11
218.300000956
 21
129.2
 31
0.0
  0
LINE
  5
3D0
330
1F
100
AcDbEntity
  8
0
  6
Continuous
 62
     1
100
AcDbLine
 10
178.700001913
 20
129.2
 30
0.0
 11
191.500000956
 21
129.2
 31
0.0
  0
LINE
  5
3D1
330
1F
100
AcDbEntity
  8
0
  6
LTYPE1
 62
     2
100
AcDbLine
 10
175.500001913
 20
129.2
 30
0.0
 11
178.700001913
 21
129.2
 31
0.0
  0
LINE
  5
3D2
330
1F
100
AcDbEntity
  8
0
  6
LTYPE1
 62
     2
100
AcDbLine
 10
191.500000956
 20
129.2
 30
0.0
 11
194.700000956
 21
129.2
 31
0.0
  0
LINE
  5
3D3
330
1F
100
AcDbEntity
  8
0
  6
LTYPE1
 62
     2
100
AcDbLine
 10
218.300000956
 20
129.2
 30
0.0
 11
221.500000956
 21
129.2
 31
0.0
  0
LINE
  5
3D4
330
1F
100
AcDbEntity
  8
0
  6
Continuous
 62
     1
100
AcDbLine
 10
252.100000034
 20
129.2
 30
0.0
 11
376.5
 21
129.2
 31
0.0
  0
LINE
  5
3D5
330
1F
100
AcDbEntity
  8
0
  6
Continuous
 62
     1
100
AcDbLine
 10
171.100001796
 20
129.2
 30
0.0
 11
175.500001913
 21
129.2
 31
0.0
  0
LINE
  5
3D6
330
1F
100
AcDbEntity
  8
0
  6
LTYPE1
 62
     2
100
AcDbLine
 10
160.900001879
 20
129.2
 30
0.0
 11
171.100001796
 21
129.2
 31
0.0
  0
LINE
  5
3D7
330
1F
100
AcDbEntity
  8
0
  6
LTYPE1
 62
     2
100
AcDbLine
 10
248.900000034
 20
129.2
 30
0.0
 11
252.100000034
 21
129.2
 31
0.0
  0
LINE
  5
3D8
330
1F
100
AcDbEntity
  8
0
  6
Continuous
 62
     1
100
AcDbLine
 10
376.5
 20
118.8
 30
0.0
 11
252.100000034
 21
118.8
 31
0.0
  0
LINE
  5
3D9
330
1F
100
AcDbEntity
  8
0
  6
LTYPE1
 62
     2
100
AcDbLine
 10
252.100000034
 20
118.8
 30
0.0
 11
248.900000034
 21
118.8
 31
0.0
  0
LINE
  5
3DA
330
1F
100
AcDbEntity
  8
0
  6
Continuous
 62
     1
100
AcDbLine
 10
248.900000034
 20
118.8
 30
0.0
 11
221.500000956
 21
118.8
 31
0.0
  0
LINE
  5
3DB
330
1F
100
AcDbEntity
  8
0
  6
LTYPE1
 62
     2
100
AcDbLine
 10
221.500000956
 20
118.8
 30
0.0
 11
218.300000956
 21
118.8
 31
0.0
  0
LINE
  5
3DC
330
1F
100
AcDbEntity
  8
0
  6
Continuous
 62
     1
100
AcDbLine
 10
218.300000956
 20
118.8
 30
0.0
 11
194.700000956
 21
118.8
 31
0.0
  0
LINE
  5
3DD
330
1F
100
AcDbEntity
  8
0
  6
LTYPE1
 62
     2
100
AcDbLine
 10
194.700000956
 20
118.8
 30
0.0
 11
191.500000956
 21
118.8
 31
0.0
  0
LINE
  5
3DE
330
1F
100
AcDbEntity
  8
0
  6
Continuous
 62
     1
100
AcDbLine
 10
191.500000956
 20
118.8
 30
0.0
 11
178.700001913
 21
118.8
 31
0.0
  0
LINE
  5
3DF
330
1F
100
AcDbEntity
  8
0
  6
LTYPE1
 62
     2
100
AcDbLine
 10
178.700001913
 20
118.8
 30
0.0
 11
175.500001913
 21
118.8
 31
0.0
  0
LINE
  5
3E0
330
1F
100
AcDbEntity
  8
0
  6
Continuous
 62
     1
100
AcDbLine
 10
175.500001913
 20
118.8
 30
0.0
 11
171.10000203
 21
118.8
 31
0.0
  0
LINE
  5
3E1
330
1F
100
AcDbEntity
  8
0
  6
LTYPE1
 62
     2
100
AcDbLine
 10
171.10000203
 20
118.8
 30
0.0
 11
160.900001879
 21
118.8
 31
0.0
  0
LINE
  5
3E2
330
1F
100
AcDbEntity
  8
0
  6
Continuous
 62
     2
100
AcDbLine
 10
178.700001913
 20
118.0
 30
0.0
 11
179.000001913
 21
118.0
 31
0.0
  0
LINE
  5
3E3
330
1F
100
AcDbEntity
  8
0
  6
Continuous
 62
     2
100
AcDbLine
 10
179.000001913
 20
130.0
 30
0.0
 11
179.000001913
 21
118.0
 31
0.0
  0
LINE
  5
3E4
330
1F
100
AcDbEntity
  8
0
  6
Continuous
 62
     2
100
AcDbLine
 10
178.700001913
 20
130.0
 30
0.0
 11
179.000001913
 21
130.0
 31
0.0
  0
LINE
  5
3E5
330
1F
100
AcDbEntity
  8
0
  6
Continuous
 62
     2
100
AcDbLine
 10
179.000001913
 20
120.499997236
 30
0.0
 11
180.100001913
 21
121.999997256
 31
0.0
  0
LINE
  5
3E6
330
1F
100
AcDbEntity
  8
0
  6
Continuous
 62
     2
100
AcDbLine
 10
180.100001913
 20
126.000002744
 30
0.0
 11
180.100001913
 21
121.999997256
 31
0.0
  0
LINE
  5
3E7
330
1F
100
AcDbEntity
  8
0
  6
Continuous
 62
     2
100
AcDbLine
 10
179.000001913
 20
127.500002764
 30
0.0
 11
180.100001913
 21
126.000002744
 31
0.0
  0
LINE
  5
3E8
330
1F
100
AcDbEntity
  8
0
  6
Continuous
 62
     1
100
AcDbLine
 10
183.000001902
 20
125.999997309
 30
0.0
 11
180.100001913
 21
125.999997256
 31
0.0
  0
LINE
  5
3E9
330
1F
100
AcDbEntity
  8
0
  6
Continuous
 62
     1
100
AcDbLine
 10
183.000001924
 20
121.999997309
 30
0.0
 11
180.100001913
 21
121.999997256
 31
0.0
  0
LINE
  5
3EA
330
1F
100
AcDbEntity
  8
0
  6
LTYPE1
 62
     2
100
AcDbLine
 10
180.100001913
 20
125.999997256
 30
0.0
 11
175.500001913
 21
125.999997172
 31
0.0
  0
LINE
  5
3EB
330
1F
100
AcDbEntity
  8
0
  6
LTYPE1
 62
     2
100
AcDbLine
 10
180.100001913
 20
121.999997256
 30
0.0
 11
175.500001913
 21
121.999997172
 31
0.0
  0
LINE
  5
3EC
330
1F
100
AcDbEntity
  8
0
  6
Continuous
 62
     2
100
AcDbLine
 10
191.500000956
 20
126.6
 30
0.0
 11
179.660003931
 21
126.6
 31
0.0
  0
LINE
  5
3ED
330
1F
100
AcDbEntity
  8
0
  6
Continuous
 62
     2
100
AcDbLine
 10
179.660003931
 20
121.4
 30
0.0
 11
191.500000956
 21
121.4
 31
0.0
  0
LINE
  5
3EE
330
1F
100
AcDbEntity
  8
7
  6
Continuous
 62
     2
100
AcDbLine
 10
190.500001913
 20
260.5
 30
0.0
 11
190.500001913
 21
239.7
 31
0.0
  0
LINE
  5
3EF
330
1F
100
AcDbEntity
  8
7
  6
Continuous
 62
     2
100
AcDbLine
 10
190.500001913
 20
243.7
 30
0.0
 11
195.329631044
 21
242.405904774
 31
0.0
  0
LINE
  5
3F0
330
1F
100
AcDbEntity
  8
7
  6
Continuous
 62
     2
100
AcDbLine
 10
190.500001913
 20
243.7
 30
0.0
 11
195.329631044
 21
244.994095226
 31
0.0
  0
LWPOLYLINE
  5
3F2
330
1F
100
AcDbEntity
  8
7
  6
Continuous
 62
     2
100
AcDbPolyline
 90
     3
 70
   128
 43
0.0
 10
190.500001913
 20
243.7
 10
240.500001913
 20
243.7
 10
235.670372781
 20
244.994095226
  0
LINE
  5
3F3
330
1F
100
AcDbEntity
  8
7
  6
Continuous
 62
     2
100
AcDbLine
 10
240.500001913
 20
243.7
 30
0.0
 11
235.670372781
 21
242.405904774
 31
0.0
  0
LINE
  5
3F4
330
1F
100
AcDbEntity
  8
7
  6
Continuous
 62
     2
100
AcDbLine
 10
240.500001913
 20
260.0
 30
0.0
 11
240.500001913
 21
239.7
 31
0.0
  0
TEXT
  5
3F5
330
1F
100
AcDbEntity
  8
7
  6
Continuous
 62
     2
100
AcDbText
 10
207.400001913
 20
245.7
 30
0.0
 40
6.0
  1
０～５０
 41
0.6
  7
KANJI3
100
AcDbText
  0
TEXT
  5
3F7
330
1F
100
AcDbEntity
  8
3
  6
Continuous
 62
     2
100
AcDbText
 10
455.793333333
 20
68.472
 30
0.0
 40
7.114666667
  1
ＶＳ－５０
 41
0.9
  7
KANJI4
100
AcDbText
  0
TEXT
  5
3F9
330
1F
100
AcDbEntity
  8
3
  6
Continuous
 62
     2
100
AcDbText
 10
455.793333333
 20
37.345333333
 30
0.0
 40
5.336
  1
自重　　１．１８ｋｇ
 41
0.9
  7
KANJI0
100
AcDbText
  0
TEXT
  5
3FA
330
1F
100
AcDbEntity
  8
3
  6
Continuous
 62
     2
100
AcDbText
 10
455.793333333
 20
26.673333333
 30
0.0
 40
5.336
  1
耐荷重　　３ｋｇ（程度迄）
 41
0.9
  7
KANJI0
100
AcDbText
  0
ENDSEC
  0
SECTION
  2
OBJECTS
  0
DICTIONARY
  5
C
330
0
100
AcDbDictionary
280
     0
281
     1
  3
ACAD_GROUP
350
D
  3
ACAD_LAYOUT
350
1A
  3
ACAD_MLINESTYLE
350
17
  3
ACAD_PLOTSETTINGS
350
19
  3
ACAD_PLOTSTYLENAME
350
E
  0
DICTIONARY
  5
D
102
{ACAD_REACTORS
330
C
102
}
330
C
100
AcDbDictionary
280
     0
281
     1
  0
DICTIONARY
  5
1A
102
{ACAD_REACTORS
330
C
102
}
330
C
100
AcDbDictionary
280
     0
281
     1
  3
Model
350
22
  3
ﾚｲｱｳﾄ1
350
1E
  3
ﾚｲｱｳﾄ2
350
26
  0
LAYOUT
  5
22
102
{ACAD_REACTORS
330
1A
102
}
330
1A
100
AcDbPlotSettings
  1

  2

  4

  6

 40
0.0
 41
0.0
 42
0.0
 43
0.0
 44
0.0
 45
0.0
 46
0.0
 47
0.0
 48
0.0
 49
0.0
140
0.0
141
0.0
142
1.0
143
1.0
 70
  1712
 72
     0
 73
     0
 74
     0
  7

 75
     0
147
1.0
148
0.0
149
0.0
100
AcDbLayout
  1
Model
 70
     1
 71
     0
 10
0.0
 20
0.0
 11
0.0
 21
0.0
 12
0.0
 22
0.0
 32
0.0
 14
0.0
 24
0.0
 34
0.0
 15
0.0
 25
0.0
 35
0.0
146
0.0
 13
0.0
 23
0.0
 33
0.0
 16
1.0
 26
0.0
 36
0.0
 17
0.0
 27
1.0
 37
0.0
 76
     0
330
1F
331
0
345
0
346
0
  0
LAYOUT
  5
1E
102
{ACAD_REACTORS
330
1A
102
}
330
1A
100
AcDbPlotSettings
  1

  2

  4

  6

 40
0.0
 41
0.0
 42
0.0
 43
0.0
 44
0.0
 45
0.0
 46
0.0
 47
0.0
 48
0.0
 49
0.0
140
0.0
141
0.0
142
1.0
143
1.0
 70
   688
 72
     0
 73
     0
 74
     5
  7

 75
    16
147
1.0
148
0.0
149
0.0
100
AcDbLayout
  1
ﾚｲｱｳﾄ1
 70
     1
 71
     1
 10
0.0
 20
0.0
 11
0.0
 21
0.0
 12
0.0
 22
0.0
 32
0.0
 14
0.0
 24
0.0
 34
0.0
 15
0.0
 25
0.0
 35
0.0
146
0.0
 13
0.0
 23
0.0
 33
0.0
 16
1.0
 26
0.0
 36
0.0
 17
0.0
 27
1.0
 37
0.0
 76
     0
330
1B
331
0
345
0
346
0
  0
LAYOUT
  5
26
102
{ACAD_REACTORS
330
1A
102
}
330
1A
100
AcDbPlotSettings
  1

  2

  4

  6

 40
0.0
 41
0.0
 42
0.0
 43
0.0
 44
0.0
 45
0.0
 46
0.0
 47
0.0
 48
0.0
 49
0.0
140
0.0
141
0.0
142
1.0
143
1.0
 70
   688
 72
     0
 73
     0
 74
     5
  7

 75
    16
147
1.0
148
0.0
149
0.0
100
AcDbLayout
  1
ﾚｲｱｳﾄ2
 70
     1
 71
     2
 10
0.0
 20
0.0
 11
0.0
 21
0.0
 12
0.0
 22
0.0
 32
0.0
 14
0.0
 24
0.0
 34
0.0
 15
0.0
 25
0.0
 35
0.0
146
0.0
 13
0.0
 23
0.0
 33
0.0
 16
1.0
 26
0.0
 36
0.0
 17
0.0
 27
1.0
 37
0.0
 76
     0
330
23
331
0
345
0
346
0
  0
DICTIONARY
  5
17
102
{ACAD_REACTORS
330
C
102
}
330
C
100
AcDbDictionary
280
     0
281
     1
  3
Standard
350
18
  0
MLINESTYLE
  5
18
102
{ACAD_REACTORS
330
17
102
}
330
17
100
AcDbMlineStyle
  2
STANDARD
 70
     0
  3

 62
   256
 51
90.0
 52
90.0
 71
     2
 49
0.5
 62
   256
  6
ByLayer
 49
-0.5
 62
   256
  6
ByLayer
  0
DICTIONARY
  5
19
102
{ACAD_REACTORS
330
C
102
}
330
C
100
AcDbDictionary
280
     0
281
     1
  0
ACDBDICTIONARYWDFLT
  5
E
330
C
100
AcDbDictionary
281
     0
  3
Normal
350
F
100
AcDbDictionaryWithDefault
340
F
  0
ACDBPLACEHOLDER
  5
F
102
{ACAD_REACTORS
330
E
102
}
330
E
  0
ENDSEC
  0
EOF
