  0
SECTION
  2
HEADER
  9
$ACADVER
  1
AC1015
  9
$ACADMAINTVER
 70
     6
  9
$DWGCODEPAGE
  3
ANSI_932
  9
$INSBASE
 10
0.0
 20
0.0
 30
0.0
  9
$EXTMIN
 10
0.0
 20
0.0
 30
0.0
  9
$EXTMAX
 10
445.5
 20
315.0
 30
0.0
  9
$LIMMIN
 10
0.0
 20
0.0
  9
$LIMMAX
 10
445.5
 20
315.0
  9
$ORTHOMODE
 70
     0
  9
$REGENMODE
 70
     1
  9
$FILLMODE
 70
     1
  9
$QTEXTMODE
 70
     0
  9
$MIRRTEXT
 70
     1
  9
$LTSCALE
 40
1.5
  9
$ATTMODE
 70
     1
  9
$TEXTSIZE
 40
2.5
  9
$TRACEWID
 40
1.0
  9
$TEXTSTYLE
  7
Standard
  9
$CLAYER
  8
0
  9
$CELTYPE
  6
ByLayer
  9
$CECOLOR
 62
   256
  9
$CELTSCALE
 40
1.0
  9
$DISPSILH
 70
     0
  9
$DIMSCALE
 40
1.0
  9
$DIMASZ
 40
2.5
  9
$DIMEXO
 40
0.625
  9
$DIMDLI
 40
3.75
  9
$DIMRND
 40
0.0
  9
$DIMDLE
 40
0.0
  9
$DIMEXE
 40
1.25
  9
$DIMTP
 40
0.0
  9
$DIMTM
 40
0.0
  9
$DIMTXT
 40
2.5
  9
$DIMCEN
 40
2.5
  9
$DIMTSZ
 40
0.0
  9
$DIMTOL
 70
     0
  9
$DIMLIM
 70
     0
  9
$DIMTIH
 70
     0
  9
$DIMTOH
 70
     0
  9
$DIMSE1
 70
     0
  9
$DIMSE2
 70
     0
  9
$DIMTAD
 70
     1
  9
$DIMZIN
 70
     8
  9
$DIMBLK
  1

  9
$DIMASO
 70
     1
  9
$DIMSHO
 70
     1
  9
$DIMPOST
  1

  9
$DIMAPOST
  1

  9
$DIMALT
 70
     0
  9
$DIMALTD
 70
     3
  9
$DIMALTF
 40
0.03937007874016
  9
$DIMLFAC
 40
1.0
  9
$DIMTOFL
 70
     1
  9
$DIMTVP
 40
0.0
  9
$DIMTIX
 70
     0
  9
$DIMSOXD
 70
     0
  9
$DIMSAH
 70
     0
  9
$DIMBLK1
  1

  9
$DIMBLK2
  1

  9
$DIMSTYLE
  2
ISO-25
  9
$DIMCLRD
 70
     0
  9
$DIMCLRE
 70
     0
  9
$DIMCLRT
 70
     0
  9
$DIMTFAC
 40
1.0
  9
$DIMGAP
 40
0.625
  9
$DIMJUST
 70
     0
  9
$DIMSD1
 70
     0
  9
$DIMSD2
 70
     0
  9
$DIMTOLJ
 70
     0
  9
$DIMTZIN
 70
     8
  9
$DIMALTZ
 70
     0
  9
$DIMALTTZ
 70
     0
  9
$DIMUPT
 70
     0
  9
$DIMDEC
 70
     2
  9
$DIMTDEC
 70
     2
  9
$DIMALTU
 70
     2
  9
$DIMALTTD
 70
     3
  9
$DIMTXSTY
  7
Standard
  9
$DIMAUNIT
 70
     0
  9
$DIMADEC
 70
     0
  9
$DIMALTRND
 40
0.0
  9
$DIMAZIN
 70
     0
  9
$DIMDSEP
 70
    46
  9
$DIMATFIT
 70
     3
  9
$DIMFRAC
 70
     0
  9
$DIMLDRBLK
  1

  9
$DIMLUNIT
 70
     2
  9
$DIMLWD
 70
    -2
  9
$DIMLWE
 70
    -2
  9
$DIMTMOVE
 70
     0
  9
$LUNITS
 70
     2
  9
$LUPREC
 70
     4
  9
$SKETCHINC
 40
1.0
  9
$FILLETRAD
 40
10.0
  9
$AUNITS
 70
     0
  9
$AUPREC
 70
     0
  9
$MENU
  1
.
  9
$ELEVATION
 40
0.0
  9
$PELEVATION
 40
0.0
  9
$THICKNESS
 40
0.0
  9
$LIMCHECK
 70
     0
  9
$CHAMFERA
 40
10.0
  9
$CHAMFERB
 40
10.0
  9
$CHAMFERC
 40
20.0
  9
$CHAMFERD
 40
0.0
  9
$SKPOLY
 70
     0
  9
$TDCREATE
 40
2459047.000000
  9
$TDUCREATE
 40
0.000000000
  9
$TDUPDATE
 40
2459047.000000
  9
$TDUUPDATE
 40
2459047.000000
  9
$TDINDWG
 40
0.0
  9
$TDUSRTIMER
 40
0.0
  9
$USRTIMER
 70
     1
  9
$ANGBASE
 50
0.0
  9
$ANGDIR
 70
     0
  9
$PDMODE
 70
     0
  9
$PDSIZE
 40
0.0
  9
$PLINEWID
 40
0.0
  9
$SPLFRAME
 70
     0
  9
$SPLINETYPE
 70
     6
  9
$SPLINESEGS
 70
     8
  9
$HANDSEED
  5
0274
  9
$SURFTAB1
 70
     6
  9
$SURFTAB2
 70
     6
  9
$SURFTYPE
 70
     6
  9
$SURFU
 70
     6
  9
$SURFV
 70
     6
  9
$UCSBASE
  2

  9
$UCSNAME
  2

  9
$UCSORG
 10
0.0
 20
0.0
 30
0.0
  9
$UCSXDIR
 10
1.0
 20
0.0
 30
0.0
  9
$UCSYDIR
 10
0.0
 20
1.0
 30
0.0
  9
$UCSORTHOREF
  2

  9
$UCSORTHOVIEW
 70
     0
  9
$UCSORGTOP
 10
0.0
 20
0.0
 30
0.0
  9
$UCSORGBOTTOM
 10
0.0
 20
0.0
 30
0.0
  9
$UCSORGLEFT
 10
0.0
 20
0.0
 30
0.0
  9
$UCSORGRIGHT
 10
0.0
 20
0.0
 30
0.0
  9
$UCSORGFRONT
 10
0.0
 20
0.0
 30
0.0
  9
$UCSORGBACK
 10
0.0
 20
0.0
 30
0.0
  9
$PUCSBASE
  2

  9
$PUCSNAME
  2

  9
$PUCSORG
 10
0.0
 20
0.0
 30
0.0
  9
$PUCSXDIR
 10
1.0
 20
0.0
 30
0.0
  9
$PUCSYDIR
 10
0.0
 20
1.0
 30
0.0
  9
$PUCSORTHOREF
  2

  9
$PUCSORTHOVIEW
 70
     0
  9
$PUCSORGTOP
 10
0.0
 20
0.0
 30
0.0
  9
$PUCSORGBOTTOM
 10
0.0
 20
0.0
 30
0.0
  9
$PUCSORGLEFT
 10
0.0
 20
0.0
 30
0.0
  9
$PUCSORGRIGHT
 10
0.0
 20
0.0
 30
0.0
  9
$PUCSORGFRONT
 10
0.0
 20
0.0
 30
0.0
  9
$PUCSORGBACK
 10
0.0
 20
0.0
 30
0.0
  9
$USERI1
 70
     0
  9
$USERI2
 70
     0
  9
$USERI3
 70
     0
  9
$USERI4
 70
     0
  9
$USERI5
 70
     0
  9
$USERR1
 40
0.0
  9
$USERR2
 40
0.0
  9
$USERR3
 40
0.0
  9
$USERR4
 40
0.0
  9
$USERR5
 40
0.0
  9
$WORLDVIEW
 70
     1
  9
$SHADEDGE
 70
     3
  9
$SHADEDIF
 70
    70
  9
$TILEMODE
 70
     1
  9
$MAXACTVP
 70
    64
  9
$PINSBASE
 10
0.0
 20
0.0
 30
0.0
  9
$PLIMCHECK
 70
     0
  9
$PEXTMIN
 10
1.000000E+20
 20
1.000000E+20
 30
1.000000E+20
  9
$PEXTMAX
 10
-1.000000E+20
 20
-1.000000E+20
 30
-1.000000E+20
  9
$PLIMMIN
 10
0.0
 20
0.0
  9
$PLIMMAX
 10
0.0
 20
0.0
  9
$UNITMODE
 70
     0
  9
$VISRETAIN
 70
     0
  9
$PLINEGEN
 70
     0
  9
$PSLTSCALE
 70
     1
  9
$TREEDEPTH
 70
  3020
  9
$CMLSTYLE
  2
STANDARD
  9
$CMLJUST
 70
     0
  9
$CMLSCALE
 40
20.0
  9
$PROXYGRAPHICS
 70
     1
  9
$MEASUREMENT
 70
     1
  9
$CELWEIGHT
370
    -1
  9
$ENDCAPS
280
     0
  9
$JOINSTYLE
280
     0
  9
$LWDISPLAY
290
     0
  9
$INSUNITS
 70
     4
  9
$HYPERLINKBASE
  1

  9
$STYLESHEET
  1

  9
$XEDIT
290
     1
  9
$CEPSNTYPE
380
     0
  9
$PSTYLEMODE
290
     1
  9
$FINGERPRINTGUID
  2
{ACFB047C-0E56-B855-E3F6-B7F56877416F}
  9
$VERSIONGUID
  2
{2680122B-6360-EB75-4AA1-8AAF922B0920}
  9
$EXTNAMES
290
     1
  9
$PSVPSCALE
 40
0.0
  0
ENDSEC
  0
SECTION
  2
CLASSES
  0
ENDSEC
  0
SECTION
  2
TABLES
  0
TABLE
  2
VPORT
  5
8
330
0
100
AcDbSymbolTable
 70
     3
  0
VPORT
  5
29
330
8
100
AcDbSymbolTableRecord
100
AcDbViewportTableRecord
  2
*Active
 70
     0
 10
0.0
 20
0.0
 11
1.0
 21
1.0
 12
222.75
 22
157.5
 13
0.0
 23
0.0
 14
10.0
 24
10.0
 15
0.0
 25
0.0
 16
0.0
 26
0.0
 36
1.0
 17
0.0
 27
0.0
 37
0.0
 40
315.0
 41
1.414285714
 42
50.0
 43
0.0
 44
0.0
 50
0.0
 51
0.0
 71
     0
 72
  1000
 73
     1
 74
     3
 75
     0
 76
     0
 77
     0
 78
     0
281
     0
 65
     0
110
0.0
120
0.0
130
0.0
111
1.0
121
0.0
131
0.0
112
0.0
122
1.0
132
0.0
 79
     0
146
0.0
  0
ENDTAB
  0
TABLE
  2
LTYPE
  5
5
330
0
100
AcDbSymbolTable
 70
     7
  0
LTYPE
  5
14
330
5
100
AcDbSymbolTableRecord
100
AcDbLinetypeTableRecord
  2
ByBlock
 70
     0
  3

 72
    65
 73
     0
 40
0.0
  0
LTYPE
  5
15
330
5
100
AcDbSymbolTableRecord
100
AcDbLinetypeTableRecord
  2
ByLayer
 70
     0
  3

 72
    65
 73
     0
 40
0.0
  0
LTYPE
  5
16
330
5
100
AcDbSymbolTableRecord
100
AcDbLinetypeTableRecord
  2
Continuous
 70
     0
  3
Solid line
 72
    65
 73
     0
 40
0.0
  0
LTYPE
  5
D5
330
5
100
AcDbSymbolTableRecord
100
AcDbLinetypeTableRecord
  2
LTYPE1
 70
     0
  3
HIDDEN
 72
    65
 73
     2
 40
2.0
 49
1.2
 74
     0
 49
-0.8
 74
     0
  0
LTYPE
  5
14B
330
5
100
AcDbSymbolTableRecord
100
AcDbLinetypeTableRecord
  2
LTYPE2
 70
     0
  3
HIDDEN
 72
    65
 73
     2
 40
3.0
 49
1.8
 74
     0
 49
-1.2
 74
     0
  0
LTYPE
  5
15D
330
5
100
AcDbSymbolTableRecord
100
AcDbLinetypeTableRecord
  2
LTYPE3
 70
     0
  3
HIDDEN
 72
    65
 73
     2
 40
2.5
 49
1.5
 74
     0
 49
-1.0
 74
     0
  0
LTYPE
  5
22F
330
5
100
AcDbSymbolTableRecord
100
AcDbLinetypeTableRecord
  2
LTYPE4
 70
     0
  3
CENTER
 72
    65
 73
     4
 40
12.0
 49
8.4
 74
     0
 49
-1.2
 74
     0
 49
1.2
 74
     0
 49
-1.2
 74
     0
  0
ENDTAB
  0
TABLE
  2
LAYER
  5
2
330
0
100
AcDbSymbolTable
 70
   128
  0
LAYER
  5
10
330
2
100
AcDbSymbolTableRecord
100
AcDbLayerTableRecord
  2
0
 70
     0
 62
     7
  6
Continuous
290
     1
370
    -3
390
F
  0
LAYER
  5
2A
330
2
100
AcDbSymbolTableRecord
100
AcDbLayerTableRecord
  2
2
 70
     0
 62
     7
  6
Continuous
290
     1
370
    -3
390
F
  0
LAYER
  5
2B
330
2
100
AcDbSymbolTableRecord
100
AcDbLayerTableRecord
  2
3
 70
     0
 62
     7
  6
Continuous
290
     1
370
    -3
390
F
  0
LAYER
  5
2C
330
2
100
AcDbSymbolTableRecord
100
AcDbLayerTableRecord
  2
4
 70
     0
 62
     7
  6
Continuous
290
     1
370
    -3
390
F
  0
LAYER
  5
2D
330
2
100
AcDbSymbolTableRecord
100
AcDbLayerTableRecord
  2
5
 70
     0
 62
     7
  6
Continuous
290
     1
370
    -3
390
F
  0
LAYER
  5
2E
330
2
100
AcDbSymbolTableRecord
100
AcDbLayerTableRecord
  2
6
 70
     0
 62
     7
  6
Continuous
290
     1
370
    -3
390
F
  0
LAYER
  5
2F
330
2
100
AcDbSymbolTableRecord
100
AcDbLayerTableRecord
  2
7
 70
     0
 62
     7
  6
Continuous
290
     1
370
    -3
390
F
  0
LAYER
  5
30
330
2
100
AcDbSymbolTableRecord
100
AcDbLayerTableRecord
  2
8
 70
     0
 62
     7
  6
Continuous
290
     1
370
    -3
390
F
  0
LAYER
  5
31
330
2
100
AcDbSymbolTableRecord
100
AcDbLayerTableRecord
  2
9
 70
     0
 62
     7
  6
Continuous
290
     1
370
    -3
390
F
  0
LAYER
  5
32
330
2
100
AcDbSymbolTableRecord
100
AcDbLayerTableRecord
  2
10
 70
     0
 62
     7
  6
Continuous
290
     1
370
    -3
390
F
  0
LAYER
  5
33
330
2
100
AcDbSymbolTableRecord
100
AcDbLayerTableRecord
  2
11
 70
     0
 62
     7
  6
Continuous
290
     1
370
    -3
390
F
  0
LAYER
  5
34
330
2
100
AcDbSymbolTableRecord
100
AcDbLayerTableRecord
  2
12
 70
     0
 62
     7
  6
Continuous
290
     1
370
    -3
390
F
  0
LAYER
  5
35
330
2
100
AcDbSymbolTableRecord
100
AcDbLayerTableRecord
  2
13
 70
     0
 62
     7
  6
Continuous
290
     1
370
    -3
390
F
  0
LAYER
  5
36
330
2
100
AcDbSymbolTableRecord
100
AcDbLayerTableRecord
  2
14
 70
     0
 62
     7
  6
Continuous
290
     1
370
    -3
390
F
  0
LAYER
  5
37
330
2
100
AcDbSymbolTableRecord
100
AcDbLayerTableRecord
  2
15
 70
     0
 62
     7
  6
Continuous
290
     1
370
    -3
390
F
  0
LAYER
  5
38
330
2
100
AcDbSymbolTableRecord
100
AcDbLayerTableRecord
  2
16
 70
     0
 62
     7
  6
Continuous
290
     1
370
    -3
390
F
  0
LAYER
  5
39
330
2
100
AcDbSymbolTableRecord
100
AcDbLayerTableRecord
  2
17
 70
     0
 62
     7
  6
Continuous
290
     1
370
    -3
390
F
  0
LAYER
  5
3A
330
2
100
AcDbSymbolTableRecord
100
AcDbLayerTableRecord
  2
18
 70
     0
 62
     7
  6
Continuous
290
     1
370
    -3
390
F
  0
LAYER
  5
3B
330
2
100
AcDbSymbolTableRecord
100
AcDbLayerTableRecord
  2
19
 70
     0
 62
     7
  6
Continuous
290
     1
370
    -3
390
F
  0
LAYER
  5
3C
330
2
100
AcDbSymbolTableRecord
100
AcDbLayerTableRecord
  2
20
 70
     0
 62
     7
  6
Continuous
290
     1
370
    -3
390
F
  0
LAYER
  5
3D
330
2
100
AcDbSymbolTableRecord
100
AcDbLayerTableRecord
  2
21
 70
     0
 62
     7
  6
Continuous
290
     1
370
    -3
390
F
  0
LAYER
  5
3E
330
2
100
AcDbSymbolTableRecord
100
AcDbLayerTableRecord
  2
22
 70
     0
 62
     7
  6
Continuous
290
     1
370
    -3
390
F
  0
LAYER
  5
3F
330
2
100
AcDbSymbolTableRecord
100
AcDbLayerTableRecord
  2
23
 70
     0
 62
     7
  6
Continuous
290
     1
370
    -3
390
F
  0
LAYER
  5
40
330
2
100
AcDbSymbolTableRecord
100
AcDbLayerTableRecord
  2
24
 70
     0
 62
     7
  6
Continuous
290
     1
370
    -3
390
F
  0
LAYER
  5
41
330
2
100
AcDbSymbolTableRecord
100
AcDbLayerTableRecord
  2
25
 70
     0
 62
     7
  6
Continuous
290
     1
370
    -3
390
F
  0
LAYER
  5
42
330
2
100
AcDbSymbolTableRecord
100
AcDbLayerTableRecord
  2
26
 70
     0
 62
     7
  6
Continuous
290
     1
370
    -3
390
F
  0
LAYER
  5
43
330
2
100
AcDbSymbolTableRecord
100
AcDbLayerTableRecord
  2
27
 70
     0
 62
     7
  6
Continuous
290
     1
370
    -3
390
F
  0
LAYER
  5
44
330
2
100
AcDbSymbolTableRecord
100
AcDbLayerTableRecord
  2
28
 70
     0
 62
     7
  6
Continuous
290
     1
370
    -3
390
F
  0
LAYER
  5
45
330
2
100
AcDbSymbolTableRecord
100
AcDbLayerTableRecord
  2
29
 70
     0
 62
     7
  6
Continuous
290
     1
370
    -3
390
F
  0
LAYER
  5
46
330
2
100
AcDbSymbolTableRecord
100
AcDbLayerTableRecord
  2
30
 70
     0
 62
     7
  6
Continuous
290
     1
370
    -3
390
F
  0
LAYER
  5
47
330
2
100
AcDbSymbolTableRecord
100
AcDbLayerTableRecord
  2
31
 70
     0
 62
     7
  6
Continuous
290
     1
370
    -3
390
F
  0
LAYER
  5
48
330
2
100
AcDbSymbolTableRecord
100
AcDbLayerTableRecord
  2
32
 70
     0
 62
     7
  6
Continuous
290
     1
370
    -3
390
F
  0
LAYER
  5
49
330
2
100
AcDbSymbolTableRecord
100
AcDbLayerTableRecord
  2
33
 70
     0
 62
     7
  6
Continuous
290
     1
370
    -3
390
F
  0
LAYER
  5
4A
330
2
100
AcDbSymbolTableRecord
100
AcDbLayerTableRecord
  2
34
 70
     0
 62
     7
  6
Continuous
290
     1
370
    -3
390
F
  0
LAYER
  5
4B
330
2
100
AcDbSymbolTableRecord
100
AcDbLayerTableRecord
  2
35
 70
     0
 62
     7
  6
Continuous
290
     1
370
    -3
390
F
  0
LAYER
  5
4C
330
2
100
AcDbSymbolTableRecord
100
AcDbLayerTableRecord
  2
36
 70
     0
 62
     7
  6
Continuous
290
     1
370
    -3
390
F
  0
LAYER
  5
4D
330
2
100
AcDbSymbolTableRecord
100
AcDbLayerTableRecord
  2
37
 70
     0
 62
     7
  6
Continuous
290
     1
370
    -3
390
F
  0
LAYER
  5
4E
330
2
100
AcDbSymbolTableRecord
100
AcDbLayerTableRecord
  2
38
 70
     0
 62
     7
  6
Continuous
290
     1
370
    -3
390
F
  0
LAYER
  5
4F
330
2
100
AcDbSymbolTableRecord
100
AcDbLayerTableRecord
  2
39
 70
     0
 62
     7
  6
Continuous
290
     1
370
    -3
390
F
  0
LAYER
  5
50
330
2
100
AcDbSymbolTableRecord
100
AcDbLayerTableRecord
  2
40
 70
     0
 62
     7
  6
Continuous
290
     1
370
    -3
390
F
  0
LAYER
  5
51
330
2
100
AcDbSymbolTableRecord
100
AcDbLayerTableRecord
  2
41
 70
     0
 62
     7
  6
Continuous
290
     1
370
    -3
390
F
  0
LAYER
  5
52
330
2
100
AcDbSymbolTableRecord
100
AcDbLayerTableRecord
  2
42
 70
     0
 62
     7
  6
Continuous
290
     1
370
    -3
390
F
  0
LAYER
  5
53
330
2
100
AcDbSymbolTableRecord
100
AcDbLayerTableRecord
  2
43
 70
     0
 62
     7
  6
Continuous
290
     1
370
    -3
390
F
  0
LAYER
  5
54
330
2
100
AcDbSymbolTableRecord
100
AcDbLayerTableRecord
  2
44
 70
     0
 62
     7
  6
Continuous
290
     1
370
    -3
390
F
  0
LAYER
  5
55
330
2
100
AcDbSymbolTableRecord
100
AcDbLayerTableRecord
  2
45
 70
     0
 62
     7
  6
Continuous
290
     1
370
    -3
390
F
  0
LAYER
  5
56
330
2
100
AcDbSymbolTableRecord
100
AcDbLayerTableRecord
  2
46
 70
     0
 62
     7
  6
Continuous
290
     1
370
    -3
390
F
  0
LAYER
  5
57
330
2
100
AcDbSymbolTableRecord
100
AcDbLayerTableRecord
  2
47
 70
     0
 62
     7
  6
Continuous
290
     1
370
    -3
390
F
  0
LAYER
  5
58
330
2
100
AcDbSymbolTableRecord
100
AcDbLayerTableRecord
  2
48
 70
     0
 62
     7
  6
Continuous
290
     1
370
    -3
390
F
  0
LAYER
  5
59
330
2
100
AcDbSymbolTableRecord
100
AcDbLayerTableRecord
  2
49
 70
     0
 62
     7
  6
Continuous
290
     1
370
    -3
390
F
  0
LAYER
  5
5A
330
2
100
AcDbSymbolTableRecord
100
AcDbLayerTableRecord
  2
50
 70
     0
 62
     7
  6
Continuous
290
     1
370
    -3
390
F
  0
LAYER
  5
5B
330
2
100
AcDbSymbolTableRecord
100
AcDbLayerTableRecord
  2
51
 70
     0
 62
     7
  6
Continuous
290
     1
370
    -3
390
F
  0
LAYER
  5
5C
330
2
100
AcDbSymbolTableRecord
100
AcDbLayerTableRecord
  2
52
 70
     0
 62
     7
  6
Continuous
290
     1
370
    -3
390
F
  0
LAYER
  5
5D
330
2
100
AcDbSymbolTableRecord
100
AcDbLayerTableRecord
  2
53
 70
     0
 62
     7
  6
Continuous
290
     1
370
    -3
390
F
  0
LAYER
  5
5E
330
2
100
AcDbSymbolTableRecord
100
AcDbLayerTableRecord
  2
54
 70
     0
 62
     7
  6
Continuous
290
     1
370
    -3
390
F
  0
LAYER
  5
5F
330
2
100
AcDbSymbolTableRecord
100
AcDbLayerTableRecord
  2
55
 70
     0
 62
     7
  6
Continuous
290
     1
370
    -3
390
F
  0
LAYER
  5
60
330
2
100
AcDbSymbolTableRecord
100
AcDbLayerTableRecord
  2
56
 70
     0
 62
     7
  6
Continuous
290
     1
370
    -3
390
F
  0
LAYER
  5
61
330
2
100
AcDbSymbolTableRecord
100
AcDbLayerTableRecord
  2
57
 70
     0
 62
     7
  6
Continuous
290
     1
370
    -3
390
F
  0
LAYER
  5
62
330
2
100
AcDbSymbolTableRecord
100
AcDbLayerTableRecord
  2
58
 70
     0
 62
     7
  6
Continuous
290
     1
370
    -3
390
F
  0
LAYER
  5
63
330
2
100
AcDbSymbolTableRecord
100
AcDbLayerTableRecord
  2
59
 70
     0
 62
     7
  6
Continuous
290
     1
370
    -3
390
F
  0
LAYER
  5
64
330
2
100
AcDbSymbolTableRecord
100
AcDbLayerTableRecord
  2
60
 70
     0
 62
     7
  6
Continuous
290
     1
370
    -3
390
F
  0
LAYER
  5
65
330
2
100
AcDbSymbolTableRecord
100
AcDbLayerTableRecord
  2
61
 70
     0
 62
     7
  6
Continuous
290
     1
370
    -3
390
F
  0
LAYER
  5
66
330
2
100
AcDbSymbolTableRecord
100
AcDbLayerTableRecord
  2
62
 70
     0
 62
     7
  6
Continuous
290
     1
370
    -3
390
F
  0
LAYER
  5
67
330
2
100
AcDbSymbolTableRecord
100
AcDbLayerTableRecord
  2
63
 70
     0
 62
     7
  6
Continuous
290
     1
370
    -3
390
F
  0
LAYER
  5
68
330
2
100
AcDbSymbolTableRecord
100
AcDbLayerTableRecord
  2
64
 70
     0
 62
     7
  6
Continuous
290
     1
370
    -3
390
F
  0
LAYER
  5
69
330
2
100
AcDbSymbolTableRecord
100
AcDbLayerTableRecord
  2
65
 70
     0
 62
     7
  6
Continuous
290
     1
370
    -3
390
F
  0
LAYER
  5
6A
330
2
100
AcDbSymbolTableRecord
100
AcDbLayerTableRecord
  2
66
 70
     0
 62
     7
  6
Continuous
290
     1
370
    -3
390
F
  0
LAYER
  5
6B
330
2
100
AcDbSymbolTableRecord
100
AcDbLayerTableRecord
  2
67
 70
     0
 62
     7
  6
Continuous
290
     1
370
    -3
390
F
  0
LAYER
  5
6C
330
2
100
AcDbSymbolTableRecord
100
AcDbLayerTableRecord
  2
68
 70
     0
 62
     7
  6
Continuous
290
     1
370
    -3
390
F
  0
LAYER
  5
6D
330
2
100
AcDbSymbolTableRecord
100
AcDbLayerTableRecord
  2
69
 70
     0
 62
     7
  6
Continuous
290
     1
370
    -3
390
F
  0
LAYER
  5
6E
330
2
100
AcDbSymbolTableRecord
100
AcDbLayerTableRecord
  2
70
 70
     0
 62
     7
  6
Continuous
290
     1
370
    -3
390
F
  0
LAYER
  5
6F
330
2
100
AcDbSymbolTableRecord
100
AcDbLayerTableRecord
  2
71
 70
     0
 62
     7
  6
Continuous
290
     1
370
    -3
390
F
  0
LAYER
  5
70
330
2
100
AcDbSymbolTableRecord
100
AcDbLayerTableRecord
  2
72
 70
     0
 62
     7
  6
Continuous
290
     1
370
    -3
390
F
  0
LAYER
  5
71
330
2
100
AcDbSymbolTableRecord
100
AcDbLayerTableRecord
  2
73
 70
     0
 62
     7
  6
Continuous
290
     1
370
    -3
390
F
  0
LAYER
  5
72
330
2
100
AcDbSymbolTableRecord
100
AcDbLayerTableRecord
  2
74
 70
     0
 62
     7
  6
Continuous
290
     1
370
    -3
390
F
  0
LAYER
  5
73
330
2
100
AcDbSymbolTableRecord
100
AcDbLayerTableRecord
  2
75
 70
     0
 62
     7
  6
Continuous
290
     1
370
    -3
390
F
  0
LAYER
  5
74
330
2
100
AcDbSymbolTableRecord
100
AcDbLayerTableRecord
  2
76
 70
     0
 62
     7
  6
Continuous
290
     1
370
    -3
390
F
  0
LAYER
  5
75
330
2
100
AcDbSymbolTableRecord
100
AcDbLayerTableRecord
  2
77
 70
     0
 62
     7
  6
Continuous
290
     1
370
    -3
390
F
  0
LAYER
  5
76
330
2
100
AcDbSymbolTableRecord
100
AcDbLayerTableRecord
  2
78
 70
     0
 62
     7
  6
Continuous
290
     1
370
    -3
390
F
  0
LAYER
  5
77
330
2
100
AcDbSymbolTableRecord
100
AcDbLayerTableRecord
  2
79
 70
     0
 62
     7
  6
Continuous
290
     1
370
    -3
390
F
  0
LAYER
  5
78
330
2
100
AcDbSymbolTableRecord
100
AcDbLayerTableRecord
  2
80
 70
     0
 62
     7
  6
Continuous
290
     1
370
    -3
390
F
  0
LAYER
  5
79
330
2
100
AcDbSymbolTableRecord
100
AcDbLayerTableRecord
  2
81
 70
     0
 62
     7
  6
Continuous
290
     1
370
    -3
390
F
  0
LAYER
  5
7A
330
2
100
AcDbSymbolTableRecord
100
AcDbLayerTableRecord
  2
82
 70
     0
 62
     7
  6
Continuous
290
     1
370
    -3
390
F
  0
LAYER
  5
7B
330
2
100
AcDbSymbolTableRecord
100
AcDbLayerTableRecord
  2
83
 70
     0
 62
     7
  6
Continuous
290
     1
370
    -3
390
F
  0
LAYER
  5
7C
330
2
100
AcDbSymbolTableRecord
100
AcDbLayerTableRecord
  2
84
 70
     0
 62
     7
  6
Continuous
290
     1
370
    -3
390
F
  0
LAYER
  5
7D
330
2
100
AcDbSymbolTableRecord
100
AcDbLayerTableRecord
  2
85
 70
     0
 62
     7
  6
Continuous
290
     1
370
    -3
390
F
  0
LAYER
  5
7E
330
2
100
AcDbSymbolTableRecord
100
AcDbLayerTableRecord
  2
86
 70
     0
 62
     7
  6
Continuous
290
     1
370
    -3
390
F
  0
LAYER
  5
7F
330
2
100
AcDbSymbolTableRecord
100
AcDbLayerTableRecord
  2
87
 70
     0
 62
     7
  6
Continuous
290
     1
370
    -3
390
F
  0
LAYER
  5
80
330
2
100
AcDbSymbolTableRecord
100
AcDbLayerTableRecord
  2
88
 70
     0
 62
     7
  6
Continuous
290
     1
370
    -3
390
F
  0
LAYER
  5
81
330
2
100
AcDbSymbolTableRecord
100
AcDbLayerTableRecord
  2
89
 70
     0
 62
     7
  6
Continuous
290
     1
370
    -3
390
F
  0
LAYER
  5
82
330
2
100
AcDbSymbolTableRecord
100
AcDbLayerTableRecord
  2
90
 70
     0
 62
     7
  6
Continuous
290
     1
370
    -3
390
F
  0
LAYER
  5
83
330
2
100
AcDbSymbolTableRecord
100
AcDbLayerTableRecord
  2
91
 70
     0
 62
     7
  6
Continuous
290
     1
370
    -3
390
F
  0
LAYER
  5
84
330
2
100
AcDbSymbolTableRecord
100
AcDbLayerTableRecord
  2
92
 70
     0
 62
     7
  6
Continuous
290
     1
370
    -3
390
F
  0
LAYER
  5
85
330
2
100
AcDbSymbolTableRecord
100
AcDbLayerTableRecord
  2
93
 70
     0
 62
     7
  6
Continuous
290
     1
370
    -3
390
F
  0
LAYER
  5
86
330
2
100
AcDbSymbolTableRecord
100
AcDbLayerTableRecord
  2
94
 70
     0
 62
     7
  6
Continuous
290
     1
370
    -3
390
F
  0
LAYER
  5
87
330
2
100
AcDbSymbolTableRecord
100
AcDbLayerTableRecord
  2
95
 70
     0
 62
     7
  6
Continuous
290
     1
370
    -3
390
F
  0
LAYER
  5
88
330
2
100
AcDbSymbolTableRecord
100
AcDbLayerTableRecord
  2
96
 70
     0
 62
     7
  6
Continuous
290
     1
370
    -3
390
F
  0
LAYER
  5
89
330
2
100
AcDbSymbolTableRecord
100
AcDbLayerTableRecord
  2
97
 70
     0
 62
     7
  6
Continuous
290
     1
370
    -3
390
F
  0
LAYER
  5
8A
330
2
100
AcDbSymbolTableRecord
100
AcDbLayerTableRecord
  2
98
 70
     0
 62
     7
  6
Continuous
290
     1
370
    -3
390
F
  0
LAYER
  5
8B
330
2
100
AcDbSymbolTableRecord
100
AcDbLayerTableRecord
  2
99
 70
     0
 62
     7
  6
Continuous
290
     1
370
    -3
390
F
  0
LAYER
  5
8C
330
2
100
AcDbSymbolTableRecord
100
AcDbLayerTableRecord
  2
100
 70
     0
 62
     7
  6
Continuous
290
     1
370
    -3
390
F
  0
LAYER
  5
8D
330
2
100
AcDbSymbolTableRecord
100
AcDbLayerTableRecord
  2
101
 70
     0
 62
     7
  6
Continuous
290
     1
370
    -3
390
F
  0
LAYER
  5
8E
330
2
100
AcDbSymbolTableRecord
100
AcDbLayerTableRecord
  2
102
 70
     0
 62
     7
  6
Continuous
290
     1
370
    -3
390
F
  0
LAYER
  5
8F
330
2
100
AcDbSymbolTableRecord
100
AcDbLayerTableRecord
  2
103
 70
     0
 62
     7
  6
Continuous
290
     1
370
    -3
390
F
  0
LAYER
  5
90
330
2
100
AcDbSymbolTableRecord
100
AcDbLayerTableRecord
  2
104
 70
     0
 62
     7
  6
Continuous
290
     1
370
    -3
390
F
  0
LAYER
  5
91
330
2
100
AcDbSymbolTableRecord
100
AcDbLayerTableRecord
  2
105
 70
     0
 62
     7
  6
Continuous
290
     1
370
    -3
390
F
  0
LAYER
  5
92
330
2
100
AcDbSymbolTableRecord
100
AcDbLayerTableRecord
  2
106
 70
     0
 62
     7
  6
Continuous
290
     1
370
    -3
390
F
  0
LAYER
  5
93
330
2
100
AcDbSymbolTableRecord
100
AcDbLayerTableRecord
  2
107
 70
     0
 62
     7
  6
Continuous
290
     1
370
    -3
390
F
  0
LAYER
  5
94
330
2
100
AcDbSymbolTableRecord
100
AcDbLayerTableRecord
  2
108
 70
     0
 62
     7
  6
Continuous
290
     1
370
    -3
390
F
  0
LAYER
  5
95
330
2
100
AcDbSymbolTableRecord
100
AcDbLayerTableRecord
  2
109
 70
     0
 62
     7
  6
Continuous
290
     1
370
    -3
390
F
  0
LAYER
  5
96
330
2
100
AcDbSymbolTableRecord
100
AcDbLayerTableRecord
  2
110
 70
     0
 62
     7
  6
Continuous
290
     1
370
    -3
390
F
  0
LAYER
  5
97
330
2
100
AcDbSymbolTableRecord
100
AcDbLayerTableRecord
  2
111
 70
     0
 62
     7
  6
Continuous
290
     1
370
    -3
390
F
  0
LAYER
  5
98
330
2
100
AcDbSymbolTableRecord
100
AcDbLayerTableRecord
  2
112
 70
     0
 62
     7
  6
Continuous
290
     1
370
    -3
390
F
  0
LAYER
  5
99
330
2
100
AcDbSymbolTableRecord
100
AcDbLayerTableRecord
  2
113
 70
     0
 62
     7
  6
Continuous
290
     1
370
    -3
390
F
  0
LAYER
  5
9A
330
2
100
AcDbSymbolTableRecord
100
AcDbLayerTableRecord
  2
114
 70
     0
 62
     7
  6
Continuous
290
     1
370
    -3
390
F
  0
LAYER
  5
9B
330
2
100
AcDbSymbolTableRecord
100
AcDbLayerTableRecord
  2
115
 70
     0
 62
     7
  6
Continuous
290
     1
370
    -3
390
F
  0
LAYER
  5
9C
330
2
100
AcDbSymbolTableRecord
100
AcDbLayerTableRecord
  2
116
 70
     0
 62
     7
  6
Continuous
290
     1
370
    -3
390
F
  0
LAYER
  5
9D
330
2
100
AcDbSymbolTableRecord
100
AcDbLayerTableRecord
  2
117
 70
     0
 62
     7
  6
Continuous
290
     1
370
    -3
390
F
  0
LAYER
  5
9E
330
2
100
AcDbSymbolTableRecord
100
AcDbLayerTableRecord
  2
118
 70
     0
 62
     7
  6
Continuous
290
     1
370
    -3
390
F
  0
LAYER
  5
9F
330
2
100
AcDbSymbolTableRecord
100
AcDbLayerTableRecord
  2
119
 70
     0
 62
     7
  6
Continuous
290
     1
370
    -3
390
F
  0
LAYER
  5
A0
330
2
100
AcDbSymbolTableRecord
100
AcDbLayerTableRecord
  2
120
 70
     0
 62
     7
  6
Continuous
290
     1
370
    -3
390
F
  0
LAYER
  5
A1
330
2
100
AcDbSymbolTableRecord
100
AcDbLayerTableRecord
  2
121
 70
     0
 62
     7
  6
Continuous
290
     1
370
    -3
390
F
  0
LAYER
  5
A2
330
2
100
AcDbSymbolTableRecord
100
AcDbLayerTableRecord
  2
122
 70
     0
 62
     7
  6
Continuous
290
     1
370
    -3
390
F
  0
LAYER
  5
A3
330
2
100
AcDbSymbolTableRecord
100
AcDbLayerTableRecord
  2
123
 70
     0
 62
     7
  6
Continuous
290
     1
370
    -3
390
F
  0
LAYER
  5
A4
330
2
100
AcDbSymbolTableRecord
100
AcDbLayerTableRecord
  2
124
 70
     0
 62
     7
  6
Continuous
290
     1
370
    -3
390
F
  0
LAYER
  5
A5
330
2
100
AcDbSymbolTableRecord
100
AcDbLayerTableRecord
  2
125
 70
     0
 62
     7
  6
Continuous
290
     1
370
    -3
390
F
  0
LAYER
  5
A6
330
2
100
AcDbSymbolTableRecord
100
AcDbLayerTableRecord
  2
126
 70
     0
 62
     7
  6
Continuous
290
     1
370
    -3
390
F
  0
LAYER
  5
A7
330
2
100
AcDbSymbolTableRecord
100
AcDbLayerTableRecord
  2
127
 70
     0
 62
     7
  6
Continuous
290
     1
370
    -3
390
F
  0
LAYER
  5
A8
330
2
100
AcDbSymbolTableRecord
100
AcDbLayerTableRecord
  2
128
 70
     0
 62
     7
  6
Continuous
290
     1
370
    -3
390
F
  0
ENDTAB
  0
TABLE
  2
STYLE
  5
3
330
0
100
AcDbSymbolTable
 70
     5
  0
STYLE
  5
11
330
3
100
AcDbSymbolTableRecord
100
AcDbTextStyleTableRecord
  2
Standard
 70
     0
 40
0.0
 41
1.0
 50
0.0
 71
     0
 42
2.5
  3
txt.shx
  4
extfont.shx
  0
STYLE
  5
B3
330
3
100
AcDbSymbolTableRecord
100
AcDbTextStyleTableRecord
  2
KANJI0
 70
     0
 40
4.5
 41
0.9
 50
0.0
 71
     0
 42
4.5
  3
txt.shx
  4
extfont.shx
  0
STYLE
  5
23A
330
3
100
AcDbSymbolTableRecord
100
AcDbTextStyleTableRecord
  2
KANJI1
 70
     0
 40
4.5
 41
0.6
 50
0.0
 71
     0
 42
4.5
  3
txt.shx
  4
extfont.shx
  0
STYLE
  5
250
330
3
100
AcDbSymbolTableRecord
100
AcDbTextStyleTableRecord
  2
KANJI2
 70
     0
 40
4.5
 41
0.6
 50
0.0
 71
     0
 42
4.5
  3
txt.shx
  4
extfont.shx
  0
STYLE
  5
270
330
3
100
AcDbSymbolTableRecord
100
AcDbTextStyleTableRecord
  2
KANJI3
 70
     0
 40
6.0
 41
0.9
 50
0.0
 71
     0
 42
6.0
  3
txt.shx
  4
extfont.shx
  0
ENDTAB
  0
TABLE
  2
VIEW
  5
6
330
0
100
AcDbSymbolTable
 70
     0
  0
ENDTAB
  0
TABLE
  2
UCS
  5
7
330
0
100
AcDbSymbolTable
 70
     0
  0
ENDTAB
  0
TABLE
  2
APPID
  5
9
330
0
100
AcDbSymbolTable
 70
     1
  0
APPID
  5
12
330
9
100
AcDbSymbolTableRecord
100
AcDbRegAppTableRecord
  2
ACAD
 70
     0
  0
ENDTAB
  0
TABLE
  2
DIMSTYLE
  5
A
330
0
100
AcDbSymbolTable
 70
     1
100
AcDbDimStyleTable
 71
     0
  0
DIMSTYLE
105
27
330
A
100
AcDbSymbolTableRecord
100
AcDbDimStyleTableRecord
  2
ISO-25
 70
    64
  3

  4

 40
1.0
 41
2.5
 42
0.625
 43
3.75
 44
1.25
 45
0.0
 46
0.0
 47
0.0
 48
0.0
 71
     0
 72
     0
 73
     0
 74
     0
 75
     0
 76
     0
 77
     1
 78
     8
 79
     0
140
2.5
141
2.5
142
0.0
143
0.039370079
144
1.0
145
0.0
146
1.0
147
0.625
148
0.0
170
     0
171
     3
172
     1
173
     0
174
     0
175
     0
176
     0
177
     0
178
     0
179
     0
270
     2
271
     2
272
     2
273
     2
274
     3
275
     0
276
     0
277
     2
278
    46
279
     0
280
     0
281
     0
282
     0
283
     1
284
     8
285
     0
286
     0
288
     0
289
     3
340
11
341
0
342
0
343
0
344
0
371
    -2
372
    -2
  0
ENDTAB
  0
TABLE
  2
BLOCK_RECORD
  5
1
330
0
100
AcDbSymbolTable
 70
     3
  0
BLOCK_RECORD
  5
1F
330
1
100
AcDbSymbolTableRecord
100
AcDbBlockTableRecord
  2
*Model_Space
340
22
  0
BLOCK_RECORD
  5
1B
330
1
100
AcDbSymbolTableRecord
100
AcDbBlockTableRecord
  2
*Paper_Space
340
1E
  0
BLOCK_RECORD
  5
23
330
1
100
AcDbSymbolTableRecord
100
AcDbBlockTableRecord
  2
*Paper_Space0
340
26
  0
ENDTAB
  0
ENDSEC
  0
SECTION
  2
BLOCKS
  0
BLOCK
  5
1C
330
1B
100
AcDbEntity
 67
     1
  8
0
100
AcDbBlockBegin
  2
*Paper_Space
 70
     0
 10
0.0
 20
0.0
 30
0.0
  3
*Paper_Space
  1

  0
ENDBLK
  5
1D
330
1B
100
AcDbEntity
  8
0
100
AcDbBlockEnd
  0
BLOCK
  5
20
330
1F
100
AcDbEntity
  8
0
100
AcDbBlockBegin
  2
*Model_Space
 70
     0
 10
0.0
 20
0.0
 30
0.0
  3
*Model_Space
  1

  0
ENDBLK
  5
21
330
1F
100
AcDbEntity
  8
0
100
AcDbBlockEnd
  0
BLOCK
  5
24
330
23
100
AcDbEntity
 67
     1
  8
0
100
AcDbBlockBegin
  2
*Paper_Space0
 70
     0
 10
0.0
 20
0.0
 30
0.0
  3
*Paper_Space0
  1

  0
ENDBLK
  5
25
330
23
100
AcDbEntity
  8
0
100
AcDbBlockEnd
  0
ENDSEC
  0
SECTION
  2
ENTITIES
  0
LWPOLYLINE
  5
AA
330
1F
100
AcDbEntity
  8
2
  6
Continuous
 62
     2
100
AcDbPolyline
 90
     4
 70
   129
 43
0.0
 10
15.0
 20
15.0
 10
427.5
 20
15.0
 10
427.5
 20
300.0
 10
15.0
 20
300.0
  0
LINE
  5
AB
330
1F
100
AcDbEntity
  8
2
  6
Continuous
 62
     2
100
AcDbLine
 10
322.5
 20
24.0
 30
0.0
 11
427.5
 21
24.0
 31
0.0
  0
LINE
  5
AC
330
1F
100
AcDbEntity
  8
2
  6
Continuous
 62
     2
100
AcDbLine
 10
427.5
 20
33.0
 30
0.0
 11
322.5
 21
33.0
 31
0.0
  0
LINE
  5
AD
330
1F
100
AcDbEntity
  8
2
  6
Continuous
 62
     2
100
AcDbLine
 10
322.5
 20
42.0
 30
0.0
 11
427.5
 21
42.0
 31
0.0
  0
LINE
  5
AE
330
1F
100
AcDbEntity
  8
2
  6
Continuous
 62
     2
100
AcDbLine
 10
427.5
 20
51.0
 30
0.0
 11
322.5
 21
51.0
 31
0.0
  0
LINE
  5
AF
330
1F
100
AcDbEntity
  8
2
  6
Continuous
 62
     2
100
AcDbLine
 10
322.5
 20
60.0
 30
0.0
 11
427.5
 21
60.0
 31
0.0
  0
LWPOLYLINE
  5
B1
330
1F
100
AcDbEntity
  8
2
  6
Continuous
 62
     2
100
AcDbPolyline
 90
     3
 70
   128
 43
0.0
 10
427.5
 20
69.0
 10
322.5
 20
69.0
 10
322.5
 20
15.0
  0
TEXT
  5
B2
330
1F
100
AcDbEntity
  8
2
  6
Continuous
 62
     2
100
AcDbText
 10
326.25
 20
44.25
 30
0.0
 40
4.5
  1
黒色半艶消し焼付け塗装
 41
0.9
  7
KANJI0
 72
     5
 11
375.3
 21
44.25
 31
0.0
100
AcDbText
  0
TEXT
  5
B4
330
1F
100
AcDbEntity
  8
2
  6
Continuous
 62
     2
100
AcDbText
 10
326.25
 20
17.25
 30
0.0
 40
4.5
  1
尺度  2/3
 41
0.9
  7
KANJI0
 72
     5
 11
357.3
 21
17.25
 31
0.0
100
AcDbText
  0
TEXT
  5
B5
330
1F
100
AcDbEntity
  8
2
  6
Continuous
 62
     2
100
AcDbText
 10
326.25
 20
26.25
 30
0.0
 40
4.5
  1
使用重  5~6kg(程度迄)
 41
0.9
  7
KANJI0
 72
     5
 11
393.3
 21
26.25
 31
0.0
100
AcDbText
  0
LINE
  5
B6
330
1F
100
AcDbEntity
  8
0
  6
Continuous
 62
     1
100
AcDbLine
 10
160.708136062
 20
202.02
 30
0.0
 11
160.708136062
 21
201.02
 31
0.0
  0
LINE
  5
B7
330
1F
100
AcDbEntity
  8
0
  6
Continuous
 62
     1
100
AcDbLine
 10
160.708136062
 20
201.02
 30
0.0
 11
176.708136062
 21
201.02
 31
0.0
  0
LINE
  5
B8
330
1F
100
AcDbEntity
  8
0
  6
Continuous
 62
     1
100
AcDbLine
 10
176.708136062
 20
201.02
 30
0.0
 11
176.708136062
 21
202.02
 31
0.0
  0
LINE
  5
B9
330
1F
100
AcDbEntity
  8
0
  6
Continuous
 62
     1
100
AcDbLine
 10
162.708136062
 20
201.02
 30
0.0
 11
161.708136062
 21
200.02
 31
0.0
  0
LINE
  5
BA
330
1F
100
AcDbEntity
  8
0
  6
Continuous
 62
     1
100
AcDbLine
 10
161.708136062
 20
200.02
 30
0.0
 11
163.708136062
 21
195.02
 31
0.0
  0
LINE
  5
BB
330
1F
100
AcDbEntity
  8
0
  6
Continuous
 62
     1
100
AcDbLine
 10
173.708136062
 20
195.02
 30
0.0
 11
175.708136062
 21
200.02
 31
0.0
  0
LINE
  5
BC
330
1F
100
AcDbEntity
  8
0
  6
Continuous
 62
     1
100
AcDbLine
 10
175.708136062
 20
200.02
 30
0.0
 11
174.708136062
 21
201.02
 31
0.0
  0
LINE
  5
BD
330
1F
100
AcDbEntity
  8
0
  6
Continuous
 62
     1
100
AcDbLine
 10
166.208136062
 20
200.02
 30
0.0
 11
167.708136062
 21
185.02
 31
0.0
  0
LINE
  5
BE
330
1F
100
AcDbEntity
  8
0
  6
Continuous
 62
     1
100
AcDbLine
 10
167.708136062
 20
185.02
 30
0.0
 11
169.708136062
 21
185.02
 31
0.0
  0
LINE
  5
BF
330
1F
100
AcDbEntity
  8
0
  6
Continuous
 62
     1
100
AcDbLine
 10
169.708136062
 20
185.02
 30
0.0
 11
171.208136062
 21
200.02
 31
0.0
  0
LINE
  5
C0
330
1F
100
AcDbEntity
  8
0
  6
Continuous
 62
     1
100
AcDbLine
 10
173.708136062
 20
195.02
 30
0.0
 11
170.708136062
 21
195.02
 31
0.0
  0
LINE
  5
C1
330
1F
100
AcDbEntity
  8
0
  6
Continuous
 62
     1
100
AcDbLine
 10
166.708136062
 20
195.02
 30
0.0
 11
163.608136062
 21
195.02
 31
0.0
  0
ARC
  5
C2
330
1F
100
AcDbEntity
  8
0
  6
Continuous
 62
     1
100
AcDbCircle
 10
168.708136062
 20
197.42
 30
0.0
 40
3.6
100
AcDbArc
 50
46.4
 51
133.6
  0
LINE
  5
C3
330
1F
100
AcDbEntity
  8
0
  6
Continuous
 62
     1
100
AcDbLine
 10
123.708136062
 20
202.02
 30
0.0
 11
118.708136062
 21
202.02
 31
0.0
  0
LINE
  5
C4
330
1F
100
AcDbEntity
  8
0
  6
Continuous
 62
     1
100
AcDbLine
 10
213.708136062
 20
236.02
 30
0.0
 11
218.708136062
 21
236.02
 31
0.0
  0
LINE
  5
C5
330
1F
100
AcDbEntity
  8
0
  6
Continuous
 62
     1
100
AcDbLine
 10
160.208136062
 20
236.02
 30
0.0
 11
160.208136062
 21
237.52
 31
0.0
  0
LINE
  5
C6
330
1F
100
AcDbEntity
  8
0
  6
Continuous
 62
     1
100
AcDbLine
 10
160.208136062
 20
237.52
 30
0.0
 11
177.208136062
 21
237.52
 31
0.0
  0
LINE
  5
C7
330
1F
100
AcDbEntity
  8
0
  6
Continuous
 62
     1
100
AcDbLine
 10
177.208136062
 20
237.52
 30
0.0
 11
177.208136062
 21
236.02
 31
0.0
  0
LINE
  5
C8
330
1F
100
AcDbEntity
  8
0
  6
Continuous
 62
     1
100
AcDbLine
 10
161.708136062
 20
237.52
 30
0.0
 11
161.708136062
 21
238.52
 31
0.0
  0
LINE
  5
C9
330
1F
100
AcDbEntity
  8
0
  6
Continuous
 62
     1
100
AcDbLine
 10
175.708136062
 20
238.52
 30
0.0
 11
175.708136062
 21
237.52
 31
0.0
  0
ARC
  5
CA
330
1F
100
AcDbEntity
  8
0
  6
Continuous
 62
     1
100
AcDbCircle
 10
168.708136062
 20
230.02
 30
0.0
 40
11.0
100
AcDbArc
 50
50.7
 51
129.3
  0
LINE
  5
CB
330
1F
100
AcDbEntity
  8
0
  6
Continuous
 62
     2
100
AcDbLine
 10
165.708136062
 20
195.02
 30
0.0
 11
165.708136062
 21
193.02
 31
0.0
  0
LINE
  5
CC
330
1F
100
AcDbEntity
  8
0
  6
Continuous
 62
     2
100
AcDbLine
 10
165.708136062
 20
193.02
 30
0.0
 11
166.208136062
 21
192.52
 31
0.0
  0
LINE
  5
CD
330
1F
100
AcDbEntity
  8
0
  6
Continuous
 62
     2
100
AcDbLine
 10
166.208136062
 20
192.52
 30
0.0
 11
166.708136062
 21
192.52
 31
0.0
  0
LINE
  5
CE
330
1F
100
AcDbEntity
  8
0
  6
Continuous
 62
     2
100
AcDbLine
 10
165.708136062
 20
193.02
 30
0.0
 11
166.708136062
 21
193.02
 31
0.0
  0
LINE
  5
CF
330
1F
100
AcDbEntity
  8
0
  6
Continuous
 62
     2
100
AcDbLine
 10
166.208136062
 20
195.02
 30
0.0
 11
166.208136062
 21
192.52
 31
0.0
  0
LINE
  5
D0
330
1F
100
AcDbEntity
  8
0
  6
Continuous
 62
     2
100
AcDbLine
 10
171.208136062
 20
195.02
 30
0.0
 11
171.208136062
 21
192.52
 31
0.0
  0
LINE
  5
D1
330
1F
100
AcDbEntity
  8
0
  6
Continuous
 62
     2
100
AcDbLine
 10
171.708136062
 20
193.02
 30
0.0
 11
170.708136062
 21
193.02
 31
0.0
  0
LINE
  5
D2
330
1F
100
AcDbEntity
  8
0
  6
Continuous
 62
     2
100
AcDbLine
 10
171.208136062
 20
192.52
 30
0.0
 11
170.708136062
 21
192.52
 31
0.0
  0
LINE
  5
D3
330
1F
100
AcDbEntity
  8
0
  6
Continuous
 62
     2
100
AcDbLine
 10
171.708136062
 20
193.02
 30
0.0
 11
171.208136062
 21
192.52
 31
0.0
  0
LINE
  5
D4
330
1F
100
AcDbEntity
  8
0
  6
Continuous
 62
     2
100
AcDbLine
 10
171.708136062
 20
195.02
 30
0.0
 11
171.708136062
 21
193.02
 31
0.0
  0
LINE
  5
D6
330
1F
100
AcDbEntity
  8
0
  6
LTYPE1
 62
     2
100
AcDbLine
 10
118.708136062
 20
234.02
 30
0.0
 11
218.708136062
 21
234.02
 31
0.0
  0
LINE
  5
D7
330
1F
100
AcDbEntity
  8
0
  6
LTYPE1
 62
     2
100
AcDbLine
 10
158.708136062
 20
234.02
 30
0.0
 11
158.708136062
 21
228.02
 31
0.0
  0
LINE
  5
D8
330
1F
100
AcDbEntity
  8
0
  6
LTYPE1
 62
     2
100
AcDbLine
 10
178.708136062
 20
228.02
 30
0.0
 11
178.708136062
 21
234.02
 31
0.0
  0
LINE
  5
D9
330
1F
100
AcDbEntity
  8
0
  6
LTYPE1
 62
     2
100
AcDbLine
 10
118.708136062
 20
204.02
 30
0.0
 11
218.708136062
 21
204.02
 31
0.0
  0
LINE
  5
DA
330
1F
100
AcDbEntity
  8
0
  6
LTYPE1
 62
     2
100
AcDbLine
 10
158.708136062
 20
204.02
 30
0.0
 11
158.708136062
 21
210.02
 31
0.0
  0
LINE
  5
DB
330
1F
100
AcDbEntity
  8
0
  6
LTYPE1
 62
     2
100
AcDbLine
 10
178.708136062
 20
210.02
 30
0.0
 11
178.708136062
 21
204.02
 31
0.0
  0
CIRCLE
  5
DC
330
1F
100
AcDbEntity
  8
0
  6
LTYPE1
 62
     2
100
AcDbCircle
 10
168.708136062
 20
219.02
 30
0.0
 40
11.0
  0
CIRCLE
  5
DD
330
1F
100
AcDbEntity
  8
0
  6
LTYPE1
 62
     2
100
AcDbCircle
 10
168.708136062
 20
219.02
 30
0.0
 40
13.0
  0
CIRCLE
  5
DE
330
1F
100
AcDbEntity
  8
0
  6
Continuous
 62
     2
100
AcDbCircle
 10
138.708136062
 20
219.02
 30
0.0
 40
2.5
  0
CIRCLE
  5
DF
330
1F
100
AcDbEntity
  8
0
  6
Continuous
 62
     2
100
AcDbCircle
 10
138.708136062
 20
219.02
 30
0.0
 40
2.0
  0
CIRCLE
  5
E0
330
1F
100
AcDbEntity
  8
0
  6
Continuous
 62
     2
100
AcDbCircle
 10
138.708136062
 20
219.02
 30
0.0
 40
6.0
  0
CIRCLE
  5
E1
330
1F
100
AcDbEntity
  8
0
  6
Continuous
 62
     2
100
AcDbCircle
 10
138.708136062
 20
219.02
 30
0.0
 40
8.0
  0
LINE
  5
E2
330
1F
100
AcDbEntity
  8
0
  6
Continuous
 62
     2
100
AcDbLine
 10
142.508136062
 20
223.32
 30
0.0
 11
140.208136062
 21
221.02
 31
0.0
  0
CIRCLE
  5
E3
330
1F
100
AcDbEntity
  8
0
  6
Continuous
 62
     2
100
AcDbCircle
 10
198.708136062
 20
219.02
 30
0.0
 40
2.5
  0
CIRCLE
  5
E4
330
1F
100
AcDbEntity
  8
0
  6
Continuous
 62
     2
100
AcDbCircle
 10
198.708136062
 20
219.02
 30
0.0
 40
2.0
  0
CIRCLE
  5
E5
330
1F
100
AcDbEntity
  8
0
  6
Continuous
 62
     2
100
AcDbCircle
 10
198.708136062
 20
219.02
 30
0.0
 40
6.0
  0
CIRCLE
  5
E6
330
1F
100
AcDbEntity
  8
0
  6
Continuous
 62
     2
100
AcDbCircle
 10
198.708136062
 20
219.02
 30
0.0
 40
8.0
  0
LINE
  5
E7
330
1F
100
AcDbEntity
  8
0
  6
Continuous
 62
     2
100
AcDbLine
 10
196.908136062
 20
220.82
 30
0.0
 11
194.508136062
 21
223.32
 31
0.0
  0
LINE
  5
E8
330
1F
100
AcDbEntity
  8
0
  6
Continuous
 62
     1
100
AcDbLine
 10
213.708136062
 20
236.02
 30
0.0
 11
118.708136062
 21
236.02
 31
0.0
  0
LINE
  5
E9
330
1F
100
AcDbEntity
  8
0
  6
Continuous
 62
     1
100
AcDbLine
 10
118.708136062
 20
202.02
 30
0.0
 11
118.708136062
 21
236.02
 31
0.0
  0
LINE
  5
EA
330
1F
100
AcDbEntity
  8
0
  6
Continuous
 62
     1
100
AcDbLine
 10
123.708136062
 20
202.02
 30
0.0
 11
218.708136062
 21
202.02
 31
0.0
  0
LINE
  5
EB
330
1F
100
AcDbEntity
  8
0
  6
Continuous
 62
     1
100
AcDbLine
 10
218.708136062
 20
236.02
 30
0.0
 11
218.708136062
 21
202.02
 31
0.0
  0
LINE
  5
EC
330
1F
100
AcDbEntity
  8
0
  6
Continuous
 62
     1
100
AcDbLine
 10
324.573892324
 20
234.02
 30
0.0
 11
324.573892324
 21
236.02
 31
0.0
  0
LINE
  5
ED
330
1F
100
AcDbEntity
  8
0
  6
Continuous
 62
     1
100
AcDbLine
 10
324.573892324
 20
202.02
 30
0.0
 11
324.573892324
 21
204.02
 31
0.0
  0
ARC
  5
EE
330
1F
100
AcDbEntity
  8
0
  6
Continuous
 62
     1
100
AcDbCircle
 10
276.573892324
 20
233.02
 30
0.0
 40
1.0
100
AcDbArc
 50
90.0
 51
180.0
  0
LINE
  5
EF
330
1F
100
AcDbEntity
  8
0
  6
Continuous
 62
     1
100
AcDbLine
 10
276.573892324
 20
234.02
 30
0.0
 11
324.573892324
 21
234.02
 31
0.0
  0
ARC
  5
F0
330
1F
100
AcDbEntity
  8
0
  6
Continuous
 62
     1
100
AcDbCircle
 10
275.573892324
 20
234.02
 30
0.0
 40
2.0
100
AcDbArc
 50
90.0
 51
180.0
  0
LINE
  5
F1
330
1F
100
AcDbEntity
  8
0
  6
Continuous
 62
     1
100
AcDbLine
 10
275.573892324
 20
236.02
 30
0.0
 11
324.573892324
 21
236.02
 31
0.0
  0
LINE
  5
F2
330
1F
100
AcDbEntity
  8
0
  6
Continuous
 62
     1
100
AcDbLine
 10
324.573892324
 20
202.02
 30
0.0
 11
275.573892324
 21
202.02
 31
0.0
  0
ARC
  5
F3
330
1F
100
AcDbEntity
  8
0
  6
Continuous
 62
     1
100
AcDbCircle
 10
275.573892324
 20
204.02
 30
0.0
 40
2.0
100
AcDbArc
 50
180.0
 51
270.0
  0
LINE
  5
F4
330
1F
100
AcDbEntity
  8
0
  6
Continuous
 62
     1
100
AcDbLine
 10
273.573892324
 20
204.02
 30
0.0
 11
273.573892324
 21
234.02
 31
0.0
  0
LINE
  5
F5
330
1F
100
AcDbEntity
  8
0
  6
Continuous
 62
     1
100
AcDbLine
 10
324.573892324
 20
204.02
 30
0.0
 11
276.573892324
 21
204.02
 31
0.0
  0
ARC
  5
F6
330
1F
100
AcDbEntity
  8
0
  6
Continuous
 62
     1
100
AcDbCircle
 10
276.573892324
 20
205.02
 30
0.0
 40
1.0
100
AcDbArc
 50
180.0
 51
270.0
  0
LINE
  5
F7
330
1F
100
AcDbEntity
  8
0
  6
Continuous
 62
     1
100
AcDbLine
 10
275.573892324
 20
205.02
 30
0.0
 11
275.573892324
 21
233.02
 31
0.0
  0
ELLIPSE
  5
F8
330
1F
100
AcDbEntity
  8
0
  6
Continuous
 62
     1
100
AcDbEllipse
 10
293.573892324
 20
206.02
 30
0.0
 11
10.0
 21
0.0
 31
0.0
 40
0.5
 41
0.0
 42
3.141592654
  0
ELLIPSE
  5
F9
330
1F
100
AcDbEntity
  8
0
  6
Continuous
 62
     1
100
AcDbEllipse
 10
314.573892324
 20
206.02
 30
0.0
 11
10.0
 21
0.0
 31
0.0
 40
0.5
 41
0.0
 42
3.141592654
  0
ELLIPSE
  5
FA
330
1F
100
AcDbEntity
  8
0
  6
Continuous
 62
     1
100
AcDbEllipse
 10
293.573892324
 20
232.02
 30
0.0
 11
10.0
 21
0.0
 31
0.0
 40
0.5
 41
3.141592654
 42
0.0
  0
ELLIPSE
  5
FB
330
1F
100
AcDbEntity
  8
0
  6
Continuous
 62
     1
100
AcDbEllipse
 10
314.573892324
 20
232.02
 30
0.0
 11
10.0
 21
0.0
 31
0.0
 40
0.5
 41
3.141592654
 42
0.0
  0
LINE
  5
FC
330
1F
100
AcDbEntity
  8
0
  6
Continuous
 62
     1
100
AcDbLine
 10
324.573892324
 20
232.02
 30
0.0
 11
324.573892324
 21
234.02
 31
0.0
  0
LINE
  5
FD
330
1F
100
AcDbEntity
  8
0
  6
Continuous
 62
     1
100
AcDbLine
 10
304.573892324
 20
234.02
 30
0.0
 11
304.573892324
 21
232.02
 31
0.0
  0
LINE
  5
FE
330
1F
100
AcDbEntity
  8
0
  6
Continuous
 62
     1
100
AcDbLine
 10
304.573892324
 20
232.02
 30
0.0
 11
303.573892324
 21
232.02
 31
0.0
  0
LINE
  5
FF
330
1F
100
AcDbEntity
  8
0
  6
Continuous
 62
     1
100
AcDbLine
 10
303.573892324
 20
232.02
 30
0.0
 11
303.573892324
 21
234.02
 31
0.0
  0
LINE
  5
100
330
1F
100
AcDbEntity
  8
0
  6
Continuous
 62
     1
100
AcDbLine
 10
283.573892324
 20
234.02
 30
0.0
 11
283.573892324
 21
232.02
 31
0.0
  0
LINE
  5
101
330
1F
100
AcDbEntity
  8
0
  6
Continuous
 62
     1
100
AcDbLine
 10
283.573892324
 20
206.02
 30
0.0
 11
283.573892324
 21
204.02
 31
0.0
  0
LINE
  5
102
330
1F
100
AcDbEntity
  8
0
  6
Continuous
 62
     1
100
AcDbLine
 10
303.573892324
 20
204.02
 30
0.0
 11
303.573892324
 21
206.02
 31
0.0
  0
LINE
  5
103
330
1F
100
AcDbEntity
  8
0
  6
Continuous
 62
     1
100
AcDbLine
 10
303.573892324
 20
206.02
 30
0.0
 11
304.573892324
 21
206.02
 31
0.0
  0
LINE
  5
104
330
1F
100
AcDbEntity
  8
0
  6
Continuous
 62
     1
100
AcDbLine
 10
304.573892324
 20
206.02
 30
0.0
 11
304.573892324
 21
204.02
 31
0.0
  0
LINE
  5
105
330
1F
100
AcDbEntity
  8
0
  6
Continuous
 62
     1
100
AcDbLine
 10
324.573892324
 20
204.02
 30
0.0
 11
324.573892324
 21
206.02
 31
0.0
  0
LINE
  5
106
330
1F
100
AcDbEntity
  8
0
  6
Continuous
 62
     1
100
AcDbLine
 10
308.573892324
 20
201.02
 30
0.0
 11
307.573892324
 21
200.02
 31
0.0
  0
LINE
  5
107
330
1F
100
AcDbEntity
  8
0
  6
Continuous
 62
     1
100
AcDbLine
 10
307.573892324
 20
200.02
 30
0.0
 11
309.573892324
 21
195.02
 31
0.0
  0
LINE
  5
108
330
1F
100
AcDbEntity
  8
0
  6
Continuous
 62
     1
100
AcDbLine
 10
309.573892324
 20
195.02
 30
0.0
 11
314.573892324
 21
195.02
 31
0.0
  0
LINE
  5
109
330
1F
100
AcDbEntity
  8
0
  6
Continuous
 62
     1
100
AcDbLine
 10
306.573892324
 20
202.02
 30
0.0
 11
306.573892324
 21
201.02
 31
0.0
  0
LINE
  5
10A
330
1F
100
AcDbEntity
  8
0
  6
Continuous
 62
     1
100
AcDbLine
 10
306.573892324
 20
201.02
 30
0.0
 11
314.573892324
 21
201.02
 31
0.0
  0
ARC
  5
10B
330
1F
100
AcDbEntity
  8
0
  6
Continuous
 62
     1
100
AcDbCircle
 10
303.573892324
 20
190.02
 30
0.0
 40
5.0
100
AcDbArc
 50
150.0
 51
310.0
  0
LINE
  5
10C
330
1F
100
AcDbEntity
  8
0
  6
Continuous
 62
     1
100
AcDbLine
 10
307.573892324
 20
200.02
 30
0.0
 11
299.273892324
 21
192.52
 31
0.0
  0
LINE
  5
10D
330
1F
100
AcDbEntity
  8
0
  6
Continuous
 62
     1
100
AcDbLine
 10
306.673892324
 20
186.22
 30
0.0
 11
309.573892324
 21
195.02
 31
0.0
  0
LINE
  5
10E
330
1F
100
AcDbEntity
  8
0
  6
Continuous
 62
     1
100
AcDbLine
 10
320.573892324
 20
201.02
 30
0.0
 11
321.573892324
 21
200.02
 31
0.0
  0
LINE
  5
10F
330
1F
100
AcDbEntity
  8
0
  6
Continuous
 62
     1
100
AcDbLine
 10
321.573892324
 20
200.02
 30
0.0
 11
319.573892324
 21
195.02
 31
0.0
  0
LINE
  5
110
330
1F
100
AcDbEntity
  8
0
  6
Continuous
 62
     1
100
AcDbLine
 10
319.573892324
 20
195.02
 30
0.0
 11
314.573892324
 21
195.02
 31
0.0
  0
LINE
  5
111
330
1F
100
AcDbEntity
  8
0
  6
Continuous
 62
     1
100
AcDbLine
 10
322.573892324
 20
202.02
 30
0.0
 11
322.573892324
 21
201.02
 31
0.0
  0
LINE
  5
112
330
1F
100
AcDbEntity
  8
0
  6
Continuous
 62
     1
100
AcDbLine
 10
322.573892324
 20
201.02
 30
0.0
 11
314.573892324
 21
201.02
 31
0.0
  0
ARC
  5
113
330
1F
100
AcDbEntity
  8
0
  6
Continuous
 62
     1
100
AcDbCircle
 10
325.573892324
 20
190.02
 30
0.0
 40
5.0
100
AcDbArc
 50
230.0
 51
30.0
  0
LINE
  5
114
330
1F
100
AcDbEntity
  8
0
  6
Continuous
 62
     1
100
AcDbLine
 10
321.573892324
 20
200.02
 30
0.0
 11
329.873892324
 21
192.52
 31
0.0
  0
LINE
  5
115
330
1F
100
AcDbEntity
  8
0
  6
Continuous
 62
     1
100
AcDbLine
 10
322.473892324
 20
186.22
 30
0.0
 11
319.573892324
 21
195.02
 31
0.0
  0
LINE
  5
116
330
1F
100
AcDbEntity
  8
0
  6
Continuous
 62
     1
100
AcDbLine
 10
287.573892324
 20
202.02
 30
0.0
 11
287.573892324
 21
200.02
 31
0.0
  0
LINE
  5
117
330
1F
100
AcDbEntity
  8
0
  6
Continuous
 62
     1
100
AcDbLine
 10
287.573892324
 20
200.02
 30
0.0
 11
299.573892324
 21
200.02
 31
0.0
  0
LINE
  5
118
330
1F
100
AcDbEntity
  8
0
  6
Continuous
 62
     1
100
AcDbLine
 10
299.573892324
 20
200.02
 30
0.0
 11
299.573892324
 21
202.02
 31
0.0
  0
LINE
  5
119
330
1F
100
AcDbEntity
  8
0
  6
Continuous
 62
     1
100
AcDbLine
 10
288.573892324
 20
236.02
 30
0.0
 11
288.573892324
 21
236.52
 31
0.0
  0
LINE
  5
11A
330
1F
100
AcDbEntity
  8
0
  6
Continuous
 62
     1
100
AcDbLine
 10
288.573892324
 20
236.52
 30
0.0
 11
293.573892324
 21
237.02
 31
0.0
  0
LINE
  5
11B
330
1F
100
AcDbEntity
  8
0
  6
Continuous
 62
     1
100
AcDbLine
 10
293.573892324
 20
237.02
 30
0.0
 11
298.573892324
 21
236.52
 31
0.0
  0
LINE
  5
11C
330
1F
100
AcDbEntity
  8
0
  6
Continuous
 62
     1
100
AcDbLine
 10
298.573892324
 20
236.52
 30
0.0
 11
298.573892324
 21
236.02
 31
0.0
  0
LINE
  5
11D
330
1F
100
AcDbEntity
  8
0
  6
Continuous
 62
     1
100
AcDbLine
 10
275.573892324
 20
229.02
 30
0.0
 11
277.573892324
 21
227.02
 31
0.0
  0
LINE
  5
11E
330
1F
100
AcDbEntity
  8
0
  6
Continuous
 62
     1
100
AcDbLine
 10
277.573892324
 20
227.02
 30
0.0
 11
277.573892324
 21
211.02
 31
0.0
  0
LINE
  5
11F
330
1F
100
AcDbEntity
  8
0
  6
Continuous
 62
     1
100
AcDbLine
 10
277.573892324
 20
211.02
 30
0.0
 11
275.573892324
 21
209.02
 31
0.0
  0
LINE
  5
120
330
1F
100
AcDbEntity
  8
0
  6
Continuous
 62
     1
100
AcDbLine
 10
277.573892324
 20
225.02
 30
0.0
 11
278.573892324
 21
225.02
 31
0.0
  0
LINE
  5
121
330
1F
100
AcDbEntity
  8
0
  6
Continuous
 62
     1
100
AcDbLine
 10
278.573892324
 20
225.02
 30
0.0
 11
278.573892324
 21
213.02
 31
0.0
  0
LINE
  5
122
330
1F
100
AcDbEntity
  8
0
  6
Continuous
 62
     1
100
AcDbLine
 10
278.573892324
 20
213.02
 30
0.0
 11
277.573892324
 21
213.02
 31
0.0
  0
ARC
  5
123
330
1F
100
AcDbEntity
  8
0
  6
Continuous
 62
     1
100
AcDbCircle
 10
285.673892324
 20
234.32
 30
0.0
 40
14.7
100
AcDbArc
 50
241.1
 51
285.5
  0
LINE
  5
124
330
1F
100
AcDbEntity
  8
0
  6
Continuous
 62
     1
100
AcDbLine
 10
289.573892324
 20
220.22
 30
0.0
 11
289.573892324
 21
219.02
 31
0.0
  0
ARC
  5
125
330
1F
100
AcDbEntity
  8
0
  6
Continuous
 62
     1
100
AcDbCircle
 10
285.673892324
 20
203.72
 30
0.0
 40
14.7
100
AcDbArc
 50
74.5
 51
118.9
  0
LINE
  5
126
330
1F
100
AcDbEntity
  8
0
  6
Continuous
 62
     1
100
AcDbLine
 10
289.573892324
 20
217.82
 30
0.0
 11
289.573892324
 21
219.02
 31
0.0
  0
LINE
  5
127
330
1F
100
AcDbEntity
  8
0
  6
Continuous
 62
     1
100
AcDbLine
 10
306.073892324
 20
236.02
 30
0.0
 11
306.073892324
 21
237.52
 31
0.0
  0
LINE
  5
128
330
1F
100
AcDbEntity
  8
0
  6
Continuous
 62
     1
100
AcDbLine
 10
306.073892324
 20
237.52
 30
0.0
 11
323.073892324
 21
237.52
 31
0.0
  0
LINE
  5
129
330
1F
100
AcDbEntity
  8
0
  6
Continuous
 62
     1
100
AcDbLine
 10
323.073892324
 20
237.52
 30
0.0
 11
323.073892324
 21
236.02
 31
0.0
  0
LINE
  5
12A
330
1F
100
AcDbEntity
  8
0
  6
Continuous
 62
     1
100
AcDbLine
 10
307.573892324
 20
237.52
 30
0.0
 11
307.573892324
 21
238.52
 31
0.0
  0
LINE
  5
12B
330
1F
100
AcDbEntity
  8
0
  6
Continuous
 62
     1
100
AcDbLine
 10
321.573892324
 20
238.52
 30
0.0
 11
321.573892324
 21
237.52
 31
0.0
  0
ARC
  5
12C
330
1F
100
AcDbEntity
  8
0
  6
Continuous
 62
     1
100
AcDbCircle
 10
314.573892324
 20
230.02
 30
0.0
 40
11.0
100
AcDbArc
 50
50.7
 51
129.3
  0
LINE
  5
12D
330
1F
100
AcDbEntity
  8
0
  6
Continuous
 62
     1
100
AcDbLine
 10
283.573892324
 20
206.02
 30
0.0
 11
282.573892324
 21
207.02
 31
0.0
  0
LINE
  5
12E
330
1F
100
AcDbEntity
  8
0
  6
Continuous
 62
     1
100
AcDbLine
 10
282.573892324
 20
207.02
 30
0.0
 11
282.573892324
 21
218.02
 31
0.0
  0
LINE
  5
12F
330
1F
100
AcDbEntity
  8
0
  6
Continuous
 62
     1
100
AcDbLine
 10
282.573892324
 20
220.02
 30
0.0
 11
282.573892324
 21
231.02
 31
0.0
  0
LINE
  5
130
330
1F
100
AcDbEntity
  8
0
  6
Continuous
 62
     1
100
AcDbLine
 10
282.573892324
 20
231.02
 30
0.0
 11
283.573892324
 21
232.02
 31
0.0
  0
LINE
  5
131
330
1F
100
AcDbEntity
  8
0
  6
Continuous
 62
     1
100
AcDbLine
 10
283.573892324
 20
232.02
 30
0.0
 11
283.573892324
 21
219.82
 31
0.0
  0
LINE
  5
132
330
1F
100
AcDbEntity
  8
0
  6
Continuous
 62
     1
100
AcDbLine
 10
283.573892324
 20
218.22
 30
0.0
 11
283.573892324
 21
206.02
 31
0.0
  0
LINE
  5
133
330
1F
100
AcDbEntity
  8
0
  6
Continuous
 62
     1
100
AcDbLine
 10
324.573892324
 20
206.02
 30
0.0
 11
335.573892324
 21
206.02
 31
0.0
  0
LINE
  5
134
330
1F
100
AcDbEntity
  8
0
  6
Continuous
 62
     1
100
AcDbLine
 10
335.573892324
 20
206.02
 30
0.0
 11
336.573892324
 21
207.02
 31
0.0
  0
LINE
  5
135
330
1F
100
AcDbEntity
  8
0
  6
Continuous
 62
     1
100
AcDbLine
 10
336.573892324
 20
207.02
 30
0.0
 11
336.573892324
 21
231.02
 31
0.0
  0
LINE
  5
136
330
1F
100
AcDbEntity
  8
0
  6
Continuous
 62
     1
100
AcDbLine
 10
336.573892324
 20
231.02
 30
0.0
 11
335.573892324
 21
232.02
 31
0.0
  0
LINE
  5
137
330
1F
100
AcDbEntity
  8
0
  6
Continuous
 62
     1
100
AcDbLine
 10
335.573892324
 20
232.02
 30
0.0
 11
324.573892324
 21
232.02
 31
0.0
  0
LINE
  5
138
330
1F
100
AcDbEntity
  8
0
  6
Continuous
 62
     1
100
AcDbLine
 10
335.573892324
 20
232.02
 30
0.0
 11
335.573892324
 21
206.02
 31
0.0
  0
LINE
  5
139
330
1F
100
AcDbEntity
  8
0
  6
Continuous
 62
     1
100
AcDbLine
 10
339.573892324
 20
230.52
 30
0.0
 11
339.073892324
 21
231.02
 31
0.0
  0
LINE
  5
13A
330
1F
100
AcDbEntity
  8
0
  6
Continuous
 62
     1
100
AcDbLine
 10
339.073892324
 20
231.02
 30
0.0
 11
337.073892324
 21
231.02
 31
0.0
  0
LINE
  5
13B
330
1F
100
AcDbEntity
  8
0
  6
Continuous
 62
     1
100
AcDbLine
 10
337.073892324
 20
231.02
 30
0.0
 11
336.573892324
 21
230.52
 31
0.0
  0
LINE
  5
13C
330
1F
100
AcDbEntity
  8
0
  6
Continuous
 62
     1
100
AcDbLine
 10
336.573892324
 20
230.52
 30
0.0
 11
336.573892324
 21
219.02
 31
0.0
  0
LINE
  5
13D
330
1F
100
AcDbEntity
  8
0
  6
Continuous
 62
     1
100
AcDbLine
 10
339.573892324
 20
230.52
 30
0.0
 11
339.573892324
 21
219.02
 31
0.0
  0
LINE
  5
13E
330
1F
100
AcDbEntity
  8
0
  6
Continuous
 62
     1
100
AcDbLine
 10
339.573892324
 20
207.52
 30
0.0
 11
339.073892324
 21
207.02
 31
0.0
  0
LINE
  5
13F
330
1F
100
AcDbEntity
  8
0
  6
Continuous
 62
     1
100
AcDbLine
 10
339.073892324
 20
207.02
 30
0.0
 11
337.073892324
 21
207.02
 31
0.0
  0
LINE
  5
140
330
1F
100
AcDbEntity
  8
0
  6
Continuous
 62
     1
100
AcDbLine
 10
337.073892324
 20
207.02
 30
0.0
 11
336.573892324
 21
207.52
 31
0.0
  0
LINE
  5
141
330
1F
100
AcDbEntity
  8
0
  6
Continuous
 62
     1
100
AcDbLine
 10
336.573892324
 20
207.52
 30
0.0
 11
336.573892324
 21
219.02
 31
0.0
  0
LINE
  5
142
330
1F
100
AcDbEntity
  8
0
  6
Continuous
 62
     1
100
AcDbLine
 10
339.573892324
 20
207.52
 30
0.0
 11
339.573892324
 21
219.02
 31
0.0
  0
LINE
  5
143
330
1F
100
AcDbEntity
  8
0
  6
Continuous
 62
     2
100
AcDbLine
 10
311.573892324
 20
195.02
 30
0.0
 11
311.573892324
 21
193.52
 31
0.0
  0
LINE
  5
144
330
1F
100
AcDbEntity
  8
0
  6
Continuous
 62
     2
100
AcDbLine
 10
311.573892324
 20
193.52
 30
0.0
 11
312.573892324
 21
192.52
 31
0.0
  0
LINE
  5
145
330
1F
100
AcDbEntity
  8
0
  6
Continuous
 62
     2
100
AcDbLine
 10
312.573892324
 20
192.52
 30
0.0
 11
316.573892324
 21
192.52
 31
0.0
  0
LINE
  5
146
330
1F
100
AcDbEntity
  8
0
  6
Continuous
 62
     2
100
AcDbLine
 10
316.573892324
 20
192.52
 30
0.0
 11
317.573892324
 21
193.52
 31
0.0
  0
LINE
  5
147
330
1F
100
AcDbEntity
  8
0
  6
Continuous
 62
     2
100
AcDbLine
 10
317.573892324
 20
193.52
 30
0.0
 11
317.573892324
 21
195.02
 31
0.0
  0
LINE
  5
148
330
1F
100
AcDbEntity
  8
0
  6
Continuous
 62
     2
100
AcDbLine
 10
316.573892324
 20
195.02
 30
0.0
 11
316.573892324
 21
192.52
 31
0.0
  0
LINE
  5
149
330
1F
100
AcDbEntity
  8
0
  6
Continuous
 62
     2
100
AcDbLine
 10
312.573892324
 20
192.52
 30
0.0
 11
312.573892324
 21
195.02
 31
0.0
  0
LINE
  5
14A
330
1F
100
AcDbEntity
  8
0
  6
Continuous
 62
     2
100
AcDbLine
 10
311.573892324
 20
193.52
 30
0.0
 11
317.573892324
 21
193.52
 31
0.0
  0
LINE
  5
14C
330
1F
100
AcDbEntity
  8
0
  6
LTYPE2
 62
     2
100
AcDbLine
 10
336.573892324
 20
209.02
 30
0.0
 11
334.573892324
 21
211.02
 31
0.0
  0
LINE
  5
14D
330
1F
100
AcDbEntity
  8
0
  6
Continuous
 62
     2
100
AcDbLine
 10
339.073892324
 20
231.02
 30
0.0
 11
339.073892324
 21
219.02
 31
0.0
  0
LINE
  5
14E
330
1F
100
AcDbEntity
  8
0
  6
Continuous
 62
     2
100
AcDbLine
 10
337.073892324
 20
219.02
 30
0.0
 11
337.073892324
 21
231.02
 31
0.0
  0
LINE
  5
14F
330
1F
100
AcDbEntity
  8
0
  6
Continuous
 62
     2
100
AcDbLine
 10
337.073892324
 20
220.02
 30
0.0
 11
339.073892324
 21
220.02
 31
0.0
  0
LINE
  5
150
330
1F
100
AcDbEntity
  8
0
  6
Continuous
 62
     2
100
AcDbLine
 10
339.073892324
 20
221.02
 30
0.0
 11
337.073892324
 21
221.02
 31
0.0
  0
LINE
  5
151
330
1F
100
AcDbEntity
  8
0
  6
Continuous
 62
     2
100
AcDbLine
 10
337.073892324
 20
222.02
 30
0.0
 11
339.073892324
 21
222.02
 31
0.0
  0
LINE
  5
152
330
1F
100
AcDbEntity
  8
0
  6
Continuous
 62
     2
100
AcDbLine
 10
339.073892324
 20
223.02
 30
0.0
 11
337.073892324
 21
223.02
 31
0.0
  0
LINE
  5
153
330
1F
100
AcDbEntity
  8
0
  6
Continuous
 62
     2
100
AcDbLine
 10
337.073892324
 20
224.02
 30
0.0
 11
339.073892324
 21
224.02
 31
0.0
  0
LINE
  5
154
330
1F
100
AcDbEntity
  8
0
  6
Continuous
 62
     2
100
AcDbLine
 10
339.073892324
 20
225.02
 30
0.0
 11
337.073892324
 21
225.02
 31
0.0
  0
LINE
  5
155
330
1F
100
AcDbEntity
  8
0
  6
Continuous
 62
     2
100
AcDbLine
 10
337.073892324
 20
226.02
 30
0.0
 11
339.073892324
 21
226.02
 31
0.0
  0
LINE
  5
156
330
1F
100
AcDbEntity
  8
0
  6
Continuous
 62
     2
100
AcDbLine
 10
339.073892324
 20
226.92
 30
0.0
 11
337.073892324
 21
226.92
 31
0.0
  0
LINE
  5
157
330
1F
100
AcDbEntity
  8
0
  6
Continuous
 62
     2
100
AcDbLine
 10
337.073892324
 20
227.82
 30
0.0
 11
339.073892324
 21
227.82
 31
0.0
  0
LINE
  5
158
330
1F
100
AcDbEntity
  8
0
  6
Continuous
 62
     2
100
AcDbLine
 10
339.073892324
 20
228.62
 30
0.0
 11
337.073892324
 21
228.62
 31
0.0
  0
LINE
  5
159
330
1F
100
AcDbEntity
  8
0
  6
Continuous
 62
     2
100
AcDbLine
 10
337.073892324
 20
229.32
 30
0.0
 11
339.073892324
 21
229.32
 31
0.0
  0
LINE
  5
15A
330
1F
100
AcDbEntity
  8
0
  6
Continuous
 62
     2
100
AcDbLine
 10
339.073892324
 20
230.02
 30
0.0
 11
337.073892324
 21
230.02
 31
0.0
  0
LINE
  5
15B
330
1F
100
AcDbEntity
  8
0
  6
Continuous
 62
     2
100
AcDbLine
 10
337.073892324
 20
230.62
 30
0.0
 11
339.073892324
 21
230.62
 31
0.0
  0
LINE
  5
15C
330
1F
100
AcDbEntity
  8
0
  6
Continuous
 62
     2
100
AcDbLine
 10
339.073892324
 20
230.92
 30
0.0
 11
337.073892324
 21
230.92
 31
0.0
  0
LINE
  5
15E
330
1F
100
AcDbEntity
  8
0
  6
LTYPE3
 62
     2
100
AcDbLine
 10
326.573892324
 20
212.02
 30
0.0
 11
326.573892324
 21
219.02
 31
0.0
  0
LINE
  5
15F
330
1F
100
AcDbEntity
  8
0
  6
LTYPE3
 62
     2
100
AcDbLine
 10
334.073892324
 20
211.02
 30
0.0
 11
334.573892324
 21
211.52
 31
0.0
  0
LINE
  5
160
330
1F
100
AcDbEntity
  8
0
  6
Continuous
 62
     2
100
AcDbLine
 10
339.073892324
 20
207.02
 30
0.0
 11
339.073892324
 21
219.02
 31
0.0
  0
LINE
  5
161
330
1F
100
AcDbEntity
  8
0
  6
Continuous
 62
     2
100
AcDbLine
 10
337.073892324
 20
219.02
 30
0.0
 11
337.073892324
 21
207.02
 31
0.0
  0
LINE
  5
162
330
1F
100
AcDbEntity
  8
0
  6
LTYPE3
 62
     2
100
AcDbLine
 10
334.573892324
 20
211.52
 30
0.0
 11
334.573892324
 21
219.02
 31
0.0
  0
LINE
  5
163
330
1F
100
AcDbEntity
  8
0
  6
Continuous
 62
     2
100
AcDbLine
 10
337.073892324
 20
218.02
 30
0.0
 11
339.073892324
 21
218.02
 31
0.0
  0
LINE
  5
164
330
1F
100
AcDbEntity
  8
0
  6
Continuous
 62
     2
100
AcDbLine
 10
339.073892324
 20
217.02
 30
0.0
 11
337.073892324
 21
217.02
 31
0.0
  0
LINE
  5
165
330
1F
100
AcDbEntity
  8
0
  6
Continuous
 62
     2
100
AcDbLine
 10
337.073892324
 20
216.02
 30
0.0
 11
339.073892324
 21
216.02
 31
0.0
  0
LINE
  5
166
330
1F
100
AcDbEntity
  8
0
  6
Continuous
 62
     2
100
AcDbLine
 10
339.073892324
 20
215.02
 30
0.0
 11
337.073892324
 21
215.02
 31
0.0
  0
LINE
  5
167
330
1F
100
AcDbEntity
  8
0
  6
Continuous
 62
     2
100
AcDbLine
 10
337.073892324
 20
214.02
 30
0.0
 11
339.073892324
 21
214.02
 31
0.0
  0
LINE
  5
168
330
1F
100
AcDbEntity
  8
0
  6
Continuous
 62
     2
100
AcDbLine
 10
339.073892324
 20
213.02
 30
0.0
 11
337.073892324
 21
213.02
 31
0.0
  0
LINE
  5
169
330
1F
100
AcDbEntity
  8
0
  6
Continuous
 62
     2
100
AcDbLine
 10
337.073892324
 20
212.02
 30
0.0
 11
339.073892324
 21
212.02
 31
0.0
  0
LINE
  5
16A
330
1F
100
AcDbEntity
  8
0
  6
Continuous
 62
     2
100
AcDbLine
 10
339.073892324
 20
211.12
 30
0.0
 11
337.073892324
 21
211.12
 31
0.0
  0
LINE
  5
16B
330
1F
100
AcDbEntity
  8
0
  6
Continuous
 62
     2
100
AcDbLine
 10
337.073892324
 20
210.22
 30
0.0
 11
339.073892324
 21
210.22
 31
0.0
  0
LINE
  5
16C
330
1F
100
AcDbEntity
  8
0
  6
Continuous
 62
     2
100
AcDbLine
 10
339.073892324
 20
209.42
 30
0.0
 11
337.073892324
 21
209.42
 31
0.0
  0
LINE
  5
16D
330
1F
100
AcDbEntity
  8
0
  6
Continuous
 62
     2
100
AcDbLine
 10
337.073892324
 20
208.72
 30
0.0
 11
339.073892324
 21
208.72
 31
0.0
  0
LINE
  5
16E
330
1F
100
AcDbEntity
  8
0
  6
Continuous
 62
     2
100
AcDbLine
 10
339.073892324
 20
208.02
 30
0.0
 11
337.073892324
 21
208.02
 31
0.0
  0
LINE
  5
16F
330
1F
100
AcDbEntity
  8
0
  6
Continuous
 62
     2
100
AcDbLine
 10
337.073892324
 20
207.42
 30
0.0
 11
339.073892324
 21
207.42
 31
0.0
  0
LINE
  5
170
330
1F
100
AcDbEntity
  8
0
  6
Continuous
 62
     2
100
AcDbLine
 10
339.073892324
 20
207.12
 30
0.0
 11
337.073892324
 21
207.12
 31
0.0
  0
LINE
  5
171
330
1F
100
AcDbEntity
  8
0
  6
LTYPE3
 62
     2
100
AcDbLine
 10
334.073892324
 20
219.02
 30
0.0
 11
334.073892324
 21
211.02
 31
0.0
  0
LINE
  5
172
330
1F
100
AcDbEntity
  8
0
  6
Continuous
 62
     2
100
AcDbLine
 10
339.073892324
 20
219.02
 30
0.0
 11
337.073892324
 21
219.02
 31
0.0
  0
LINE
  5
173
330
1F
100
AcDbEntity
  8
0
  6
LTYPE1
 62
     2
100
AcDbLine
 10
283.573892324
 20
232.02
 30
0.0
 11
303.573892324
 21
232.02
 31
0.0
  0
LINE
  5
174
330
1F
100
AcDbEntity
  8
0
  6
LTYPE1
 62
     2
100
AcDbLine
 10
304.573892324
 20
232.02
 30
0.0
 11
324.573892324
 21
232.02
 31
0.0
  0
LINE
  5
175
330
1F
100
AcDbEntity
  8
0
  6
LTYPE1
 62
     2
100
AcDbLine
 10
336.573892324
 20
229.02
 30
0.0
 11
334.573892324
 21
227.02
 31
0.0
  0
LINE
  5
176
330
1F
100
AcDbEntity
  8
0
  6
LTYPE1
 62
     2
100
AcDbLine
 10
328.573892324
 20
227.02
 30
0.0
 11
328.573892324
 21
228.52
 31
0.0
  0
LINE
  5
177
330
1F
100
AcDbEntity
  8
0
  6
LTYPE1
 62
     2
100
AcDbLine
 10
327.573892324
 20
227.02
 30
0.0
 11
334.073892324
 21
227.02
 31
0.0
  0
LINE
  5
178
330
1F
100
AcDbEntity
  8
0
  6
LTYPE1
 62
     2
100
AcDbLine
 10
327.573892324
 20
227.02
 30
0.0
 11
326.573892324
 21
226.02
 31
0.0
  0
LINE
  5
179
330
1F
100
AcDbEntity
  8
0
  6
LTYPE1
 62
     2
100
AcDbLine
 10
326.573892324
 20
226.02
 30
0.0
 11
326.573892324
 21
219.02
 31
0.0
  0
LINE
  5
17A
330
1F
100
AcDbEntity
  8
0
  6
LTYPE1
 62
     2
100
AcDbLine
 10
327.073892324
 20
226.52
 30
0.0
 11
336.573892324
 21
226.52
 31
0.0
  0
LINE
  5
17B
330
1F
100
AcDbEntity
  8
0
  6
LTYPE1
 62
     2
100
AcDbLine
 10
327.573892324
 20
219.02
 30
0.0
 11
327.573892324
 21
227.02
 31
0.0
  0
LINE
  5
17C
330
1F
100
AcDbEntity
  8
0
  6
LTYPE1
 62
     2
100
AcDbLine
 10
334.073892324
 20
227.02
 30
0.0
 11
334.573892324
 21
226.52
 31
0.0
  0
LINE
  5
17D
330
1F
100
AcDbEntity
  8
0
  6
LTYPE1
 62
     2
100
AcDbLine
 10
334.573892324
 20
226.52
 30
0.0
 11
334.573892324
 21
219.02
 31
0.0
  0
LINE
  5
17E
330
1F
100
AcDbEntity
  8
0
  6
LTYPE1
 62
     2
100
AcDbLine
 10
334.073892324
 20
219.02
 30
0.0
 11
334.073892324
 21
227.02
 31
0.0
  0
LINE
  5
17F
330
1F
100
AcDbEntity
  8
0
  6
LTYPE1
 62
     2
100
AcDbLine
 10
328.573892324
 20
228.52
 30
0.0
 11
282.573892324
 21
230.02
 31
0.0
  0
LINE
  5
180
330
1F
100
AcDbEntity
  8
0
  6
LTYPE1
 62
     2
100
AcDbLine
 10
328.573892324
 20
211.02
 30
0.0
 11
328.573892324
 21
209.52
 31
0.0
  0
LINE
  5
181
330
1F
100
AcDbEntity
  8
0
  6
LTYPE1
 62
     2
100
AcDbLine
 10
328.573892324
 20
209.52
 30
0.0
 11
282.573892324
 21
208.02
 31
0.0
  0
LINE
  5
182
330
1F
100
AcDbEntity
  8
0
  6
LTYPE1
 62
     2
100
AcDbLine
 10
327.573892324
 20
211.02
 30
0.0
 11
334.073892324
 21
211.02
 31
0.0
  0
LINE
  5
183
330
1F
100
AcDbEntity
  8
0
  6
LTYPE1
 62
     2
100
AcDbLine
 10
327.573892324
 20
211.02
 30
0.0
 11
326.573892324
 21
212.02
 31
0.0
  0
LINE
  5
184
330
1F
100
AcDbEntity
  8
0
  6
LTYPE1
 62
     2
100
AcDbLine
 10
327.073892324
 20
211.52
 30
0.0
 11
336.573892324
 21
211.52
 31
0.0
  0
LINE
  5
185
330
1F
100
AcDbEntity
  8
0
  6
LTYPE1
 62
     2
100
AcDbLine
 10
327.573892324
 20
219.02
 30
0.0
 11
327.573892324
 21
211.02
 31
0.0
  0
LINE
  5
186
330
1F
100
AcDbEntity
  8
0
  6
LTYPE1
 62
     2
100
AcDbLine
 10
324.573892324
 20
206.02
 30
0.0
 11
304.573892324
 21
206.02
 31
0.0
  0
LINE
  5
187
330
1F
100
AcDbEntity
  8
0
  6
LTYPE1
 62
     2
100
AcDbLine
 10
317.573892324
 20
237.52
 30
0.0
 11
317.573892324
 21
195.12
 31
0.0
  0
LINE
  5
188
330
1F
100
AcDbEntity
  8
0
  6
LTYPE1
 62
     2
100
AcDbLine
 10
311.573892324
 20
195.02
 30
0.0
 11
311.573892324
 21
237.52
 31
0.0
  0
LINE
  5
189
330
1F
100
AcDbEntity
  8
0
  6
LTYPE1
 62
     2
100
AcDbLine
 10
303.573892324
 20
206.02
 30
0.0
 11
283.573892324
 21
206.02
 31
0.0
  0
LINE
  5
18A
330
1F
100
AcDbEntity
  8
0
  6
LTYPE1
 62
     2
100
AcDbLine
 10
296.573892324
 20
236.02
 30
0.0
 11
296.573892324
 21
202.02
 31
0.0
  0
LINE
  5
18B
330
1F
100
AcDbEntity
  8
0
  6
LTYPE1
 62
     2
100
AcDbLine
 10
290.573892324
 20
202.02
 30
0.0
 11
290.573892324
 21
236.02
 31
0.0
  0
LINE
  5
18C
330
1F
100
AcDbEntity
  8
0
  6
Continuous
 62
     2
100
AcDbLine
 10
273.573892324
 20
216.52
 30
0.0
 11
264.573892324
 21
216.52
 31
0.0
  0
LINE
  5
18D
330
1F
100
AcDbEntity
  8
0
  6
Continuous
 62
     2
100
AcDbLine
 10
264.573892324
 20
216.52
 30
0.0
 11
263.573892324
 21
217.52
 31
0.0
  0
LINE
  5
18E
330
1F
100
AcDbEntity
  8
0
  6
Continuous
 62
     2
100
AcDbLine
 10
263.573892324
 20
217.52
 30
0.0
 11
263.573892324
 21
220.52
 31
0.0
  0
LINE
  5
18F
330
1F
100
AcDbEntity
  8
0
  6
Continuous
 62
     2
100
AcDbLine
 10
263.573892324
 20
220.52
 30
0.0
 11
264.573892324
 21
221.52
 31
0.0
  0
LINE
  5
190
330
1F
100
AcDbEntity
  8
0
  6
Continuous
 62
     2
100
AcDbLine
 10
264.573892324
 20
221.52
 30
0.0
 11
273.573892324
 21
221.52
 31
0.0
  0
LINE
  5
191
330
1F
100
AcDbEntity
  8
0
  6
Continuous
 62
     2
100
AcDbLine
 10
264.573892324
 20
221.52
 30
0.0
 11
264.573892324
 21
216.52
 31
0.0
  0
CIRCLE
  5
192
330
1F
100
AcDbEntity
  8
0
  6
Continuous
 62
     1
100
AcDbCircle
 10
168.708136062
 20
89.82
 30
0.0
 40
3.1
  0
CIRCLE
  5
193
330
1F
100
AcDbEntity
  8
0
  6
Continuous
 62
     1
100
AcDbCircle
 10
168.708136062
 20
89.82
 30
0.0
 40
5.0
  0
LINE
  5
194
330
1F
100
AcDbEntity
  8
0
  6
Continuous
 62
     1
100
AcDbLine
 10
166.908136062
 20
94.82
 30
0.0
 11
167.508136062
 21
96.82
 31
0.0
  0
LINE
  5
195
330
1F
100
AcDbEntity
  8
0
  6
Continuous
 62
     1
100
AcDbLine
 10
169.908136062
 20
96.82
 30
0.0
 11
170.508136062
 21
94.82
 31
0.0
  0
ARC
  5
196
330
1F
100
AcDbEntity
  8
0
  6
Continuous
 62
     1
100
AcDbCircle
 10
169.408136062
 20
105.32
 30
0.0
 40
0.5
100
AcDbArc
 50
0.0
 51
90.0
  0
LINE
  5
197
330
1F
100
AcDbEntity
  8
0
  6
Continuous
 62
     1
100
AcDbLine
 10
169.908136062
 20
105.32
 30
0.0
 11
169.908136062
 21
96.82
 31
0.0
  0
LINE
  5
198
330
1F
100
AcDbEntity
  8
0
  6
Continuous
 62
     1
100
AcDbLine
 10
167.508136062
 20
96.82
 30
0.0
 11
167.508136062
 21
105.32
 31
0.0
  0
ARC
  5
199
330
1F
100
AcDbEntity
  8
0
  6
Continuous
 62
     1
100
AcDbCircle
 10
168.008136062
 20
105.32
 30
0.0
 40
0.5
100
AcDbArc
 50
90.0
 51
180.0
  0
LINE
  5
19A
330
1F
100
AcDbEntity
  8
0
  6
Continuous
 62
     1
100
AcDbLine
 10
168.008136062
 20
105.82
 30
0.0
 11
169.408136062
 21
105.82
 31
0.0
  0
LINE
  5
19B
330
1F
100
AcDbEntity
  8
0
  6
Continuous
 62
     1
100
AcDbLine
 10
168.008136062
 20
73.82
 30
0.0
 11
169.408136062
 21
73.82
 31
0.0
  0
ARC
  5
19C
330
1F
100
AcDbEntity
  8
0
  6
Continuous
 62
     1
100
AcDbCircle
 10
168.008136062
 20
74.32
 30
0.0
 40
0.5
100
AcDbArc
 50
180.0
 51
270.0
  0
LINE
  5
19D
330
1F
100
AcDbEntity
  8
0
  6
Continuous
 62
     1
100
AcDbLine
 10
167.508136062
 20
82.82
 30
0.0
 11
167.508136062
 21
74.32
 31
0.0
  0
LINE
  5
19E
330
1F
100
AcDbEntity
  8
0
  6
Continuous
 62
     1
100
AcDbLine
 10
169.908136062
 20
74.32
 30
0.0
 11
169.908136062
 21
82.82
 31
0.0
  0
ARC
  5
19F
330
1F
100
AcDbEntity
  8
0
  6
Continuous
 62
     1
100
AcDbCircle
 10
169.408136062
 20
74.32
 30
0.0
 40
0.5
100
AcDbArc
 50
270.0
 51
0.0
  0
LINE
  5
1A0
330
1F
100
AcDbEntity
  8
0
  6
Continuous
 62
     1
100
AcDbLine
 10
169.908136062
 20
82.82
 30
0.0
 11
170.508136062
 21
84.82
 31
0.0
  0
LINE
  5
1A1
330
1F
100
AcDbEntity
  8
0
  6
Continuous
 62
     1
100
AcDbLine
 10
166.908136062
 20
84.82
 30
0.0
 11
167.508136062
 21
82.82
 31
0.0
  0
ARC
  5
1A2
330
1F
100
AcDbEntity
  8
0
  6
Continuous
 62
     1
100
AcDbCircle
 10
168.708136062
 20
89.82
 30
0.0
 40
6.7
100
AcDbArc
 50
103.0
 51
257.0
  0
ARC
  5
1A3
330
1F
100
AcDbEntity
  8
0
  6
Continuous
 62
     1
100
AcDbCircle
 10
168.708136062
 20
89.82
 30
0.0
 40
8.0
100
AcDbArc
 50
100.0
 51
260.0
  0
ARC
  5
1A4
330
1F
100
AcDbEntity
  8
0
  6
Continuous
 62
     1
100
AcDbCircle
 10
168.708136062
 20
89.82
 30
0.0
 40
8.0
100
AcDbArc
 50
280.0
 51
80.0
  0
ARC
  5
1A5
330
1F
100
AcDbEntity
  8
0
  6
Continuous
 62
     1
100
AcDbCircle
 10
168.708136062
 20
89.82
 30
0.0
 40
6.7
100
AcDbArc
 50
283.0
 51
77.0
  0
ARC
  5
1A6
330
1F
100
AcDbEntity
  8
0
  6
Continuous
 62
     1
100
AcDbCircle
 10
168.708136062
 20
110.82
 30
0.0
 40
6.0
100
AcDbArc
 50
0.0
 51
258.0
  0
ARC
  5
1A7
330
1F
100
AcDbEntity
  8
0
  6
Continuous
 62
     1
100
AcDbCircle
 10
168.708136062
 20
110.82
 30
0.0
 40
6.0
100
AcDbArc
 50
282.0
 51
0.0
  0
ARC
  5
1A8
330
1F
100
AcDbEntity
  8
0
  6
Continuous
 62
     1
100
AcDbCircle
 10
168.708136062
 20
110.82
 30
0.0
 40
31.0
100
AcDbArc
 50
272.2
 51
316.0
  0
ARC
  5
1A9
330
1F
100
AcDbEntity
  8
0
  6
Continuous
 62
     1
100
AcDbCircle
 10
185.208136062
 20
94.82
 30
0.0
 40
8.0
100
AcDbArc
 50
315.0
 51
45.0
  0
ARC
  5
1AA
330
1F
100
AcDbEntity
  8
0
  6
Continuous
 62
     1
100
AcDbCircle
 10
183.508136062
 20
96.02
 30
0.0
 40
3.5
100
AcDbArc
 50
315.0
 51
135.0
  0
ARC
  5
1AB
330
1F
100
AcDbEntity
  8
0
  6
Continuous
 62
     1
100
AcDbCircle
 10
188.708136062
 20
117.82
 30
0.0
 40
5.0
100
AcDbArc
 50
90.0
 51
180.0
  0
LINE
  5
1AC
330
1F
100
AcDbEntity
  8
0
  6
Continuous
 62
     1
100
AcDbLine
 10
188.708136062
 20
122.82
 30
0.0
 11
213.508136062
 21
122.82
 31
0.0
  0
LINE
  5
1AD
330
1F
100
AcDbEntity
  8
0
  6
Continuous
 62
     1
100
AcDbLine
 10
191.608136062
 20
99.62
 30
0.0
 11
185.108136062
 21
106.32
 31
0.0
  0
ARC
  5
1AE
330
1F
100
AcDbEntity
  8
0
  6
Continuous
 62
     1
100
AcDbCircle
 10
188.708136062
 20
109.82
 30
0.0
 40
5.0
100
AcDbArc
 50
180.0
 51
223.9
  0
LINE
  5
1AF
330
1F
100
AcDbEntity
  8
0
  6
Continuous
 62
     1
100
AcDbLine
 10
183.708136062
 20
109.82
 30
0.0
 11
183.708136062
 21
117.82
 31
0.0
  0
ARC
  5
1B0
330
1F
100
AcDbEntity
  8
0
  6
Continuous
 62
     1
100
AcDbCircle
 10
168.708136062
 20
110.82
 30
0.0
 40
31.0
100
AcDbArc
 50
224.0
 51
267.8
  0
ARC
  5
1B1
330
1F
100
AcDbEntity
  8
0
  6
Continuous
 62
     1
100
AcDbCircle
 10
152.208136062
 20
94.82
 30
0.0
 40
8.0
100
AcDbArc
 50
135.0
 51
225.0
  0
ARC
  5
1B2
330
1F
100
AcDbEntity
  8
0
  6
Continuous
 62
     1
100
AcDbCircle
 10
153.908136062
 20
96.02
 30
0.0
 40
3.5
100
AcDbArc
 50
45.0
 51
225.0
  0
ARC
  5
1B3
330
1F
100
AcDbEntity
  8
0
  6
Continuous
 62
     1
100
AcDbCircle
 10
148.708136062
 20
117.82
 30
0.0
 40
5.0
100
AcDbArc
 50
0.0
 51
90.0
  0
LINE
  5
1B4
330
1F
100
AcDbEntity
  8
0
  6
Continuous
 62
     1
100
AcDbLine
 10
123.508136062
 20
122.82
 30
0.0
 11
148.708136062
 21
122.82
 31
0.0
  0
LINE
  5
1B5
330
1F
100
AcDbEntity
  8
0
  6
Continuous
 62
     1
100
AcDbLine
 10
145.808136062
 20
99.62
 30
0.0
 11
152.308136062
 21
106.32
 31
0.0
  0
ARC
  5
1B6
330
1F
100
AcDbEntity
  8
0
  6
Continuous
 62
     1
100
AcDbCircle
 10
148.708136062
 20
109.82
 30
0.0
 40
5.0
100
AcDbArc
 50
316.1
 51
0.0
  0
LINE
  5
1B7
330
1F
100
AcDbEntity
  8
0
  6
Continuous
 62
     1
100
AcDbLine
 10
153.708136062
 20
109.82
 30
0.0
 11
153.708136062
 21
117.82
 31
0.0
  0
LINE
  5
1B8
330
1F
100
AcDbEntity
  8
0
  6
Continuous
 62
     1
100
AcDbLine
 10
118.508136062
 20
130.82
 30
0.0
 11
218.508136062
 21
130.82
 31
0.0
  0
ARC
  5
1B9
330
1F
100
AcDbEntity
  8
0
  6
Continuous
 62
     1
100
AcDbCircle
 10
168.708136062
 20
110.82
 30
0.0
 40
17.5
100
AcDbArc
 50
225.0
 51
248.4
  0
ARC
  5
1BA
330
1F
100
AcDbEntity
  8
0
  6
Continuous
 62
     1
100
AcDbCircle
 10
168.708136062
 20
110.82
 30
0.0
 40
17.5
100
AcDbArc
 50
291.3
 51
315.0
  0
ARC
  5
1BB
330
1F
100
AcDbEntity
  8
0
  6
Continuous
 62
     1
100
AcDbCircle
 10
168.708136062
 20
110.82
 30
0.0
 40
24.5
100
AcDbArc
 50
225.0
 51
251.6
  0
ARC
  5
1BC
330
1F
100
AcDbEntity
  8
0
  6
Continuous
 62
     1
100
AcDbCircle
 10
168.708136062
 20
110.82
 30
0.0
 40
24.5
100
AcDbArc
 50
288.1
 51
315.0
  0
ELLIPSE
  5
1BD
330
1F
100
AcDbEntity
  8
0
  6
Continuous
 62
     1
100
AcDbEllipse
 10
138.708136062
 20
120.32
 30
0.0
 11
7.5
 21
0.0
 31
0.0
 40
0.76
 41
3.141592654
 42
0.0
  0
ELLIPSE
  5
1BE
330
1F
100
AcDbEntity
  8
0
  6
Continuous
 62
     1
100
AcDbEllipse
 10
198.708136062
 20
120.32
 30
0.0
 11
7.5
 21
0.0
 31
0.0
 40
0.76
 41
3.141592654
 42
0.0
  0
LINE
  5
1BF
330
1F
100
AcDbEntity
  8
0
  6
Continuous
 62
     1
100
AcDbLine
 10
155.708136062
 20
68.82
 30
0.0
 11
167.008136062
 21
68.82
 31
0.0
  0
LINE
  5
1C0
330
1F
100
AcDbEntity
  8
0
  6
Continuous
 62
     1
100
AcDbLine
 10
155.708136062
 20
68.82
 30
0.0
 11
156.708136062
 21
67.82
 31
0.0
  0
LINE
  5
1C1
330
1F
100
AcDbEntity
  8
0
  6
Continuous
 62
     1
100
AcDbLine
 10
156.708136062
 20
67.82
 30
0.0
 11
166.708136062
 21
67.82
 31
0.0
  0
LINE
  5
1C2
330
1F
100
AcDbEntity
  8
0
  6
Continuous
 62
     1
100
AcDbLine
 10
180.708136062
 20
67.82
 30
0.0
 11
181.708136062
 21
68.82
 31
0.0
  0
LINE
  5
1C3
330
1F
100
AcDbEntity
  8
0
  6
Continuous
 62
     1
100
AcDbLine
 10
181.708136062
 20
68.82
 30
0.0
 11
181.708136062
 21
82.72
 31
0.0
  0
LINE
  5
1C4
330
1F
100
AcDbEntity
  8
0
  6
Continuous
 62
     1
100
AcDbLine
 10
155.708136062
 20
82.72
 30
0.0
 11
155.708136062
 21
68.82
 31
0.0
  0
ARC
  5
1C5
330
1F
100
AcDbEntity
  8
0
  6
Continuous
 62
     1
100
AcDbCircle
 10
168.708136062
 20
67.82
 30
0.0
 40
2.0
100
AcDbArc
 50
0.0
 51
180.0
  0
LINE
  5
1C6
330
1F
100
AcDbEntity
  8
0
  6
Continuous
 62
     1
100
AcDbLine
 10
180.708136062
 20
67.82
 30
0.0
 11
170.708136062
 21
67.82
 31
0.0
  0
LINE
  5
1C7
330
1F
100
AcDbEntity
  8
0
  6
Continuous
 62
     1
100
AcDbLine
 10
181.708136062
 20
68.82
 30
0.0
 11
170.408136062
 21
68.82
 31
0.0
  0
LINE
  5
1C8
330
1F
100
AcDbEntity
  8
0
  6
Continuous
 62
     1
100
AcDbLine
 10
180.208136062
 20
64.82
 30
0.0
 11
180.708136062
 21
65.32
 31
0.0
  0
LINE
  5
1C9
330
1F
100
AcDbEntity
  8
0
  6
Continuous
 62
     1
100
AcDbLine
 10
180.708136062
 20
65.32
 30
0.0
 11
180.708136062
 21
67.32
 31
0.0
  0
LINE
  5
1CA
330
1F
100
AcDbEntity
  8
0
  6
Continuous
 62
     1
100
AcDbLine
 10
180.708136062
 20
67.32
 30
0.0
 11
180.208136062
 21
67.82
 31
0.0
  0
LINE
  5
1CB
330
1F
100
AcDbEntity
  8
0
  6
Continuous
 62
     1
100
AcDbLine
 10
180.208136062
 20
67.82
 30
0.0
 11
168.708136062
 21
67.82
 31
0.0
  0
LINE
  5
1CC
330
1F
100
AcDbEntity
  8
0
  6
Continuous
 62
     1
100
AcDbLine
 10
180.208136062
 20
64.82
 30
0.0
 11
168.708136062
 21
64.82
 31
0.0
  0
LINE
  5
1CD
330
1F
100
AcDbEntity
  8
0
  6
Continuous
 62
     1
100
AcDbLine
 10
157.208136062
 20
64.82
 30
0.0
 11
156.708136062
 21
65.32
 31
0.0
  0
LINE
  5
1CE
330
1F
100
AcDbEntity
  8
0
  6
Continuous
 62
     1
100
AcDbLine
 10
156.708136062
 20
65.32
 30
0.0
 11
156.708136062
 21
67.32
 31
0.0
  0
LINE
  5
1CF
330
1F
100
AcDbEntity
  8
0
  6
Continuous
 62
     1
100
AcDbLine
 10
156.708136062
 20
67.32
 30
0.0
 11
157.208136062
 21
67.82
 31
0.0
  0
LINE
  5
1D0
330
1F
100
AcDbEntity
  8
0
  6
Continuous
 62
     1
100
AcDbLine
 10
157.208136062
 20
67.82
 30
0.0
 11
168.708136062
 21
67.82
 31
0.0
  0
LINE
  5
1D1
330
1F
100
AcDbEntity
  8
0
  6
Continuous
 62
     1
100
AcDbLine
 10
157.208136062
 20
64.82
 30
0.0
 11
168.708136062
 21
64.82
 31
0.0
  0
LINE
  5
1D2
330
1F
100
AcDbEntity
  8
0
  6
LTYPE1
 62
     2
100
AcDbLine
 10
181.708136062
 20
82.72
 30
0.0
 11
181.708136062
 21
90.22
 31
0.0
  0
LINE
  5
1D3
330
1F
100
AcDbEntity
  8
0
  6
Continuous
 62
     2
100
AcDbLine
 10
180.708136062
 20
65.32
 30
0.0
 11
168.708136062
 21
65.32
 31
0.0
  0
LINE
  5
1D4
330
1F
100
AcDbEntity
  8
0
  6
Continuous
 62
     2
100
AcDbLine
 10
168.708136062
 20
67.32
 30
0.0
 11
180.708136062
 21
67.32
 31
0.0
  0
LINE
  5
1D5
330
1F
100
AcDbEntity
  8
0
  6
Continuous
 62
     2
100
AcDbLine
 10
169.708136062
 20
67.32
 30
0.0
 11
169.708136062
 21
65.32
 31
0.0
  0
LINE
  5
1D6
330
1F
100
AcDbEntity
  8
0
  6
Continuous
 62
     2
100
AcDbLine
 10
170.708136062
 20
65.32
 30
0.0
 11
170.708136062
 21
67.32
 31
0.0
  0
LINE
  5
1D7
330
1F
100
AcDbEntity
  8
0
  6
Continuous
 62
     2
100
AcDbLine
 10
171.708136062
 20
67.32
 30
0.0
 11
171.708136062
 21
65.32
 31
0.0
  0
LINE
  5
1D8
330
1F
100
AcDbEntity
  8
0
  6
Continuous
 62
     2
100
AcDbLine
 10
172.708136062
 20
65.32
 30
0.0
 11
172.708136062
 21
67.32
 31
0.0
  0
LINE
  5
1D9
330
1F
100
AcDbEntity
  8
0
  6
Continuous
 62
     2
100
AcDbLine
 10
173.708136062
 20
67.32
 30
0.0
 11
173.708136062
 21
65.32
 31
0.0
  0
LINE
  5
1DA
330
1F
100
AcDbEntity
  8
0
  6
Continuous
 62
     2
100
AcDbLine
 10
174.708136062
 20
65.32
 30
0.0
 11
174.708136062
 21
67.32
 31
0.0
  0
LINE
  5
1DB
330
1F
100
AcDbEntity
  8
0
  6
Continuous
 62
     2
100
AcDbLine
 10
175.708136062
 20
67.32
 30
0.0
 11
175.708136062
 21
65.32
 31
0.0
  0
LINE
  5
1DC
330
1F
100
AcDbEntity
  8
0
  6
Continuous
 62
     2
100
AcDbLine
 10
176.608136062
 20
65.32
 30
0.0
 11
176.608136062
 21
67.32
 31
0.0
  0
LINE
  5
1DD
330
1F
100
AcDbEntity
  8
0
  6
Continuous
 62
     2
100
AcDbLine
 10
177.508136062
 20
67.32
 30
0.0
 11
177.508136062
 21
65.32
 31
0.0
  0
LINE
  5
1DE
330
1F
100
AcDbEntity
  8
0
  6
Continuous
 62
     2
100
AcDbLine
 10
178.308136062
 20
65.32
 30
0.0
 11
178.308136062
 21
67.32
 31
0.0
  0
LINE
  5
1DF
330
1F
100
AcDbEntity
  8
0
  6
Continuous
 62
     2
100
AcDbLine
 10
179.008136062
 20
67.32
 30
0.0
 11
179.008136062
 21
65.32
 31
0.0
  0
LINE
  5
1E0
330
1F
100
AcDbEntity
  8
0
  6
Continuous
 62
     2
100
AcDbLine
 10
179.708136062
 20
65.32
 30
0.0
 11
179.708136062
 21
67.32
 31
0.0
  0
LINE
  5
1E1
330
1F
100
AcDbEntity
  8
0
  6
Continuous
 62
     2
100
AcDbLine
 10
180.308136062
 20
67.32
 30
0.0
 11
180.308136062
 21
65.32
 31
0.0
  0
LINE
  5
1E2
330
1F
100
AcDbEntity
  8
0
  6
Continuous
 62
     2
100
AcDbLine
 10
180.608136062
 20
65.32
 30
0.0
 11
180.608136062
 21
67.32
 31
0.0
  0
LINE
  5
1E3
330
1F
100
AcDbEntity
  8
0
  6
Continuous
 62
     2
100
AcDbLine
 10
156.708136062
 20
65.32
 30
0.0
 11
168.708136062
 21
65.32
 31
0.0
  0
LINE
  5
1E4
330
1F
100
AcDbEntity
  8
0
  6
Continuous
 62
     2
100
AcDbLine
 10
168.708136062
 20
67.32
 30
0.0
 11
156.708136062
 21
67.32
 31
0.0
  0
LINE
  5
1E5
330
1F
100
AcDbEntity
  8
0
  6
Continuous
 62
     2
100
AcDbLine
 10
167.708136062
 20
67.32
 30
0.0
 11
167.708136062
 21
65.32
 31
0.0
  0
LINE
  5
1E6
330
1F
100
AcDbEntity
  8
0
  6
Continuous
 62
     2
100
AcDbLine
 10
166.708136062
 20
65.32
 30
0.0
 11
166.708136062
 21
67.32
 31
0.0
  0
LINE
  5
1E7
330
1F
100
AcDbEntity
  8
0
  6
Continuous
 62
     2
100
AcDbLine
 10
165.708136062
 20
67.32
 30
0.0
 11
165.708136062
 21
65.32
 31
0.0
  0
LINE
  5
1E8
330
1F
100
AcDbEntity
  8
0
  6
Continuous
 62
     2
100
AcDbLine
 10
164.708136062
 20
65.32
 30
0.0
 11
164.708136062
 21
67.32
 31
0.0
  0
LINE
  5
1E9
330
1F
100
AcDbEntity
  8
0
  6
Continuous
 62
     2
100
AcDbLine
 10
163.708136062
 20
67.32
 30
0.0
 11
163.708136062
 21
65.32
 31
0.0
  0
LINE
  5
1EA
330
1F
100
AcDbEntity
  8
0
  6
Continuous
 62
     2
100
AcDbLine
 10
162.708136062
 20
65.32
 30
0.0
 11
162.708136062
 21
67.32
 31
0.0
  0
LINE
  5
1EB
330
1F
100
AcDbEntity
  8
0
  6
Continuous
 62
     2
100
AcDbLine
 10
161.708136062
 20
67.32
 30
0.0
 11
161.708136062
 21
65.32
 31
0.0
  0
LINE
  5
1EC
330
1F
100
AcDbEntity
  8
0
  6
Continuous
 62
     2
100
AcDbLine
 10
160.808136062
 20
65.32
 30
0.0
 11
160.808136062
 21
67.32
 31
0.0
  0
LINE
  5
1ED
330
1F
100
AcDbEntity
  8
0
  6
Continuous
 62
     2
100
AcDbLine
 10
159.908136062
 20
67.32
 30
0.0
 11
159.908136062
 21
65.32
 31
0.0
  0
LINE
  5
1EE
330
1F
100
AcDbEntity
  8
0
  6
Continuous
 62
     2
100
AcDbLine
 10
159.108136062
 20
65.32
 30
0.0
 11
159.108136062
 21
67.32
 31
0.0
  0
LINE
  5
1EF
330
1F
100
AcDbEntity
  8
0
  6
Continuous
 62
     2
100
AcDbLine
 10
158.408136062
 20
67.32
 30
0.0
 11
158.408136062
 21
65.32
 31
0.0
  0
LINE
  5
1F0
330
1F
100
AcDbEntity
  8
0
  6
Continuous
 62
     2
100
AcDbLine
 10
157.708136062
 20
65.32
 30
0.0
 11
157.708136062
 21
67.32
 31
0.0
  0
LINE
  5
1F1
330
1F
100
AcDbEntity
  8
0
  6
Continuous
 62
     2
100
AcDbLine
 10
157.108136062
 20
67.32
 30
0.0
 11
157.108136062
 21
65.32
 31
0.0
  0
LINE
  5
1F2
330
1F
100
AcDbEntity
  8
0
  6
Continuous
 62
     2
100
AcDbLine
 10
156.808136062
 20
65.32
 30
0.0
 11
156.808136062
 21
67.32
 31
0.0
  0
LINE
  5
1F3
330
1F
100
AcDbEntity
  8
0
  6
Continuous
 62
     2
100
AcDbLine
 10
168.708136062
 20
65.32
 30
0.0
 11
168.708136062
 21
67.32
 31
0.0
  0
LINE
  5
1F4
330
1F
100
AcDbEntity
  8
0
  6
LTYPE1
 62
     2
100
AcDbLine
 10
129.708136062
 20
128.82
 30
0.0
 11
131.708136062
 21
126.82
 31
0.0
  0
LINE
  5
1F5
330
1F
100
AcDbEntity
  8
0
  6
LTYPE1
 62
     2
100
AcDbLine
 10
131.708136062
 20
126.82
 30
0.0
 11
145.708136062
 21
126.82
 31
0.0
  0
LINE
  5
1F6
330
1F
100
AcDbEntity
  8
0
  6
LTYPE1
 62
     2
100
AcDbLine
 10
145.708136062
 20
126.82
 30
0.0
 11
147.708136062
 21
128.82
 31
0.0
  0
LINE
  5
1F7
330
1F
100
AcDbEntity
  8
0
  6
LTYPE1
 62
     2
100
AcDbLine
 10
147.708136062
 20
130.82
 30
0.0
 11
145.708136062
 21
128.82
 31
0.0
  0
LINE
  5
1F8
330
1F
100
AcDbEntity
  8
0
  6
LTYPE1
 62
     2
100
AcDbLine
 10
131.708136062
 20
128.82
 30
0.0
 11
129.708136062
 21
130.82
 31
0.0
  0
LINE
  5
1F9
330
1F
100
AcDbEntity
  8
0
  6
LTYPE1
 62
     2
100
AcDbLine
 10
141.808136062
 20
126.82
 30
0.0
 11
141.808136062
 21
128.82
 31
0.0
  0
LINE
  5
1FA
330
1F
100
AcDbEntity
  8
0
  6
LTYPE1
 62
     2
100
AcDbLine
 10
135.608136062
 20
128.82
 30
0.0
 11
135.608136062
 21
126.82
 31
0.0
  0
LINE
  5
1FB
330
1F
100
AcDbEntity
  8
0
  6
LTYPE1
 62
     2
100
AcDbLine
 10
132.708136062
 20
126.82
 30
0.0
 11
132.708136062
 21
125.82
 31
0.0
  0
LINE
  5
1FC
330
1F
100
AcDbEntity
  8
0
  6
LTYPE1
 62
     2
100
AcDbLine
 10
132.708136062
 20
125.82
 30
0.0
 11
144.708136062
 21
125.82
 31
0.0
  0
LINE
  5
1FD
330
1F
100
AcDbEntity
  8
0
  6
LTYPE1
 62
     2
100
AcDbLine
 10
144.708136062
 20
125.82
 30
0.0
 11
144.708136062
 21
126.82
 31
0.0
  0
LINE
  5
1FE
330
1F
100
AcDbEntity
  8
0
  6
LTYPE1
 62
     2
100
AcDbLine
 10
136.208136062
 20
125.82
 30
0.0
 11
136.208136062
 21
130.82
 31
0.0
  0
LINE
  5
1FF
330
1F
100
AcDbEntity
  8
0
  6
LTYPE1
 62
     2
100
AcDbLine
 10
141.208136062
 20
130.82
 30
0.0
 11
141.208136062
 21
125.82
 31
0.0
  0
ELLIPSE
  5
200
330
1F
100
AcDbEntity
  8
0
  6
LTYPE1
 62
     2
100
AcDbEllipse
 10
138.708136062
 20
120.32
 30
0.0
 11
7.5
 21
0.0
 31
0.0
 40
0.76
 41
0.45403634
 42
2.687556314
  0
ELLIPSE
  5
201
330
1F
100
AcDbEntity
  8
0
  6
Continuous
 62
     1
100
AcDbEllipse
 10
138.708136062
 20
120.32
 30
0.0
 11
7.5
 21
0.0
 31
0.0
 40
0.76
 41
0.0
 42
0.45403634
  0
ELLIPSE
  5
202
330
1F
100
AcDbEntity
  8
0
  6
Continuous
 62
     1
100
AcDbEllipse
 10
138.708136062
 20
120.32
 30
0.0
 11
7.5
 21
0.0
 31
0.0
 40
0.76
 41
2.683450171
 42
3.141592654
  0
LINE
  5
203
330
1F
100
AcDbEntity
  8
0
  6
LTYPE1
 62
     2
100
AcDbLine
 10
155.708136062
 20
120.82
 30
0.0
 11
155.708136062
 21
98.82
 31
0.0
  0
LINE
  5
204
330
1F
100
AcDbEntity
  8
0
  6
LTYPE1
 62
     2
100
AcDbLine
 10
155.708136062
 20
120.82
 30
0.0
 11
156.708136062
 21
121.82
 31
0.0
  0
CIRCLE
  5
205
330
1F
100
AcDbEntity
  8
0
  6
LTYPE1
 62
     2
100
AcDbCircle
 10
168.708136062
 20
110.82
 30
0.0
 40
3.1
  0
LINE
  5
206
330
1F
100
AcDbEntity
  8
0
  6
LTYPE1
 62
     2
100
AcDbLine
 10
181.708136062
 20
120.82
 30
0.0
 11
181.708136062
 21
98.82
 31
0.0
  0
LINE
  5
207
330
1F
100
AcDbEntity
  8
0
  6
LTYPE1
 62
     2
100
AcDbLine
 10
180.708136062
 20
121.82
 30
0.0
 11
180.708136062
 21
121.82
 31
0.0
  0
LINE
  5
208
330
1F
100
AcDbEntity
  8
0
  6
LTYPE1
 62
     2
100
AcDbLine
 10
180.708136062
 20
121.82
 30
0.0
 11
181.708136062
 21
120.82
 31
0.0
  0
LINE
  5
209
330
1F
100
AcDbEntity
  8
0
  6
LTYPE1
 62
     2
100
AcDbLine
 10
155.708136062
 20
120.82
 30
0.0
 11
181.708136062
 21
120.82
 31
0.0
  0
LINE
  5
20A
330
1F
100
AcDbEntity
  8
0
  6
LTYPE1
 62
     2
100
AcDbLine
 10
156.708136062
 20
121.82
 30
0.0
 11
180.708136062
 21
121.82
 31
0.0
  0
CIRCLE
  5
20B
330
1F
100
AcDbEntity
  8
0
  6
LTYPE1
 62
     2
100
AcDbCircle
 10
168.708136062
 20
110.82
 30
0.0
 40
10.0
  0
CIRCLE
  5
20C
330
1F
100
AcDbEntity
  8
0
  6
LTYPE1
 62
     2
100
AcDbCircle
 10
168.708136062
 20
89.82
 30
0.0
 40
10.0
  0
LINE
  5
20D
330
1F
100
AcDbEntity
  8
0
  6
LTYPE1
 62
     2
100
AcDbLine
 10
191.708136062
 20
128.82
 30
0.0
 11
189.708136062
 21
130.82
 31
0.0
  0
LINE
  5
20E
330
1F
100
AcDbEntity
  8
0
  6
LTYPE1
 62
     2
100
AcDbLine
 10
189.708136062
 20
128.82
 30
0.0
 11
191.708136062
 21
126.82
 31
0.0
  0
LINE
  5
20F
330
1F
100
AcDbEntity
  8
0
  6
LTYPE1
 62
     2
100
AcDbLine
 10
191.708136062
 20
126.82
 30
0.0
 11
205.708136062
 21
126.82
 31
0.0
  0
LINE
  5
210
330
1F
100
AcDbEntity
  8
0
  6
LTYPE1
 62
     2
100
AcDbLine
 10
201.808136062
 20
126.82
 30
0.0
 11
201.808136062
 21
128.82
 31
0.0
  0
LINE
  5
211
330
1F
100
AcDbEntity
  8
0
  6
LTYPE1
 62
     2
100
AcDbLine
 10
195.608136062
 20
128.82
 30
0.0
 11
195.608136062
 21
126.82
 31
0.0
  0
LINE
  5
212
330
1F
100
AcDbEntity
  8
0
  6
LTYPE1
 62
     2
100
AcDbLine
 10
192.708136062
 20
125.82
 30
0.0
 11
192.708136062
 21
126.82
 31
0.0
  0
LINE
  5
213
330
1F
100
AcDbEntity
  8
0
  6
LTYPE1
 62
     2
100
AcDbLine
 10
201.208136062
 20
125.82
 30
0.0
 11
201.208136062
 21
130.82
 31
0.0
  0
LINE
  5
214
330
1F
100
AcDbEntity
  8
0
  6
LTYPE1
 62
     2
100
AcDbLine
 10
196.208136062
 20
130.82
 30
0.0
 11
196.208136062
 21
125.82
 31
0.0
  0
LINE
  5
215
330
1F
100
AcDbEntity
  8
0
  6
LTYPE1
 62
     2
100
AcDbLine
 10
207.708136062
 20
130.82
 30
0.0
 11
205.708136062
 21
128.82
 31
0.0
  0
LINE
  5
216
330
1F
100
AcDbEntity
  8
0
  6
LTYPE1
 62
     2
100
AcDbLine
 10
207.708136062
 20
128.82
 30
0.0
 11
207.708136062
 21
128.82
 31
0.0
  0
LINE
  5
217
330
1F
100
AcDbEntity
  8
0
  6
LTYPE1
 62
     2
100
AcDbLine
 10
207.708136062
 20
128.82
 30
0.0
 11
205.708136062
 21
126.82
 31
0.0
  0
ELLIPSE
  5
218
330
1F
100
AcDbEntity
  8
0
  6
LTYPE1
 62
     2
100
AcDbEllipse
 10
198.708136062
 20
120.32
 30
0.0
 11
7.5
 21
0.0
 31
0.0
 40
0.76
 41
0.45403634
 42
2.687556314
  0
ELLIPSE
  5
219
330
1F
100
AcDbEntity
  8
0
  6
Continuous
 62
     1
100
AcDbEllipse
 10
198.708136062
 20
120.32
 30
0.0
 11
7.5
 21
0.0
 31
0.0
 40
0.76
 41
0.0
 42
0.45403634
  0
ELLIPSE
  5
21A
330
1F
100
AcDbEntity
  8
0
  6
Continuous
 62
     1
100
AcDbEllipse
 10
198.708136062
 20
120.32
 30
0.0
 11
7.5
 21
0.0
 31
0.0
 40
0.76
 41
2.687556314
 42
3.141592654
  0
LINE
  5
21B
330
1F
100
AcDbEntity
  8
0
  6
LTYPE1
 62
     2
100
AcDbLine
 10
204.708136062
 20
126.82
 30
0.0
 11
204.708136062
 21
125.82
 31
0.0
  0
LINE
  5
21C
330
1F
100
AcDbEntity
  8
0
  6
LTYPE1
 62
     2
100
AcDbLine
 10
204.708136062
 20
125.82
 30
0.0
 11
192.708136062
 21
125.82
 31
0.0
  0
LINE
  5
21D
330
1F
100
AcDbEntity
  8
0
  6
Continuous
 62
     1
100
AcDbLine
 10
181.708136062
 20
90.053440343
 30
0.0
 11
181.708136062
 21
98.82
 31
0.0
  0
LINE
  5
21E
330
1F
100
AcDbEntity
  8
0
  6
LTYPE1
 62
     2
100
AcDbLine
 10
155.708136062
 20
82.72
 30
0.0
 11
155.708136062
 21
90.053440343
 31
0.0
  0
LINE
  5
21F
330
1F
100
AcDbEntity
  8
0
  6
Continuous
 62
     1
100
AcDbLine
 10
155.708136062
 20
98.82
 30
0.0
 11
155.708136062
 21
90.053440343
 31
0.0
  0
LINE
  5
220
330
1F
100
AcDbEntity
  8
0
  6
Continuous
 62
     2
100
AcDbLine
 10
141.208136062
 20
130.82
 30
0.0
 11
141.208136062
 21
139.82
 31
0.0
  0
LINE
  5
221
330
1F
100
AcDbEntity
  8
0
  6
Continuous
 62
     2
100
AcDbLine
 10
141.208136062
 20
139.82
 30
0.0
 11
140.208136062
 21
140.82
 31
0.0
  0
LINE
  5
222
330
1F
100
AcDbEntity
  8
0
  6
Continuous
 62
     2
100
AcDbLine
 10
140.208136062
 20
140.82
 30
0.0
 11
137.208136062
 21
140.82
 31
0.0
  0
LINE
  5
223
330
1F
100
AcDbEntity
  8
0
  6
Continuous
 62
     2
100
AcDbLine
 10
137.208136062
 20
140.82
 30
0.0
 11
136.208136062
 21
139.82
 31
0.0
  0
LINE
  5
224
330
1F
100
AcDbEntity
  8
0
  6
Continuous
 62
     2
100
AcDbLine
 10
136.208136062
 20
139.82
 30
0.0
 11
136.208136062
 21
130.82
 31
0.0
  0
LINE
  5
225
330
1F
100
AcDbEntity
  8
0
  6
Continuous
 62
     2
100
AcDbLine
 10
196.208136062
 20
130.82
 30
0.0
 11
196.208136062
 21
139.82
 31
0.0
  0
LINE
  5
226
330
1F
100
AcDbEntity
  8
0
  6
Continuous
 62
     2
100
AcDbLine
 10
196.208136062
 20
139.82
 30
0.0
 11
197.208136062
 21
140.82
 31
0.0
  0
LINE
  5
227
330
1F
100
AcDbEntity
  8
0
  6
Continuous
 62
     2
100
AcDbLine
 10
197.208136062
 20
140.82
 30
0.0
 11
200.208136062
 21
140.82
 31
0.0
  0
LINE
  5
228
330
1F
100
AcDbEntity
  8
0
  6
Continuous
 62
     2
100
AcDbLine
 10
200.208136062
 20
140.82
 30
0.0
 11
201.208136062
 21
139.82
 31
0.0
  0
LINE
  5
229
330
1F
100
AcDbEntity
  8
0
  6
Continuous
 62
     2
100
AcDbLine
 10
201.208136062
 20
139.82
 30
0.0
 11
201.208136062
 21
130.82
 31
0.0
  0
LINE
  5
22A
330
1F
100
AcDbEntity
  8
0
  6
Continuous
 62
     1
100
AcDbLine
 10
118.508136062
 20
130.82
 30
0.0
 11
118.508136062
 21
127.82
 31
0.0
  0
ARC
  5
22B
330
1F
100
AcDbEntity
  8
0
  6
Continuous
 62
     1
100
AcDbCircle
 10
123.508136062
 20
127.82
 30
0.0
 40
5.0
100
AcDbArc
 50
180.0
 51
270.0
  0
LINE
  5
22C
330
1F
100
AcDbEntity
  8
0
  6
Continuous
 62
     1
100
AcDbLine
 10
218.508136062
 20
130.82
 30
0.0
 11
218.508136062
 21
127.82
 31
0.0
  0
ARC
  5
22D
330
1F
100
AcDbEntity
  8
0
  6
Continuous
 62
     1
100
AcDbCircle
 10
213.508136062
 20
127.82
 30
0.0
 40
5.0
100
AcDbArc
 50
270.0
 51
0.0
  0
LINE
  5
22E
330
1F
100
AcDbEntity
  8
0
  6
LTYPE1
 62
     2
100
AcDbLine
 10
118.508136062
 20
128.82
 30
0.0
 11
218.508136062
 21
128.82
 31
0.0
  0
LINE
  5
230
330
1F
100
AcDbEntity
  8
0
  6
LTYPE4
 62
     2
100
AcDbLine
 10
138.708136062
 20
139.82
 30
0.0
 11
138.708136062
 21
130.82
 31
0.0
  0
LINE
  5
231
330
1F
100
AcDbEntity
  8
0
  6
LTYPE4
 62
     2
100
AcDbLine
 10
198.708136062
 20
130.82
 30
0.0
 11
198.708136062
 21
139.82
 31
0.0
  0
LINE
  5
232
330
1F
100
AcDbEntity
  8
7
  6
Continuous
 62
     2
100
AcDbLine
 10
138.708136062
 20
145.22
 30
0.0
 11
138.708136062
 21
156.62
 31
0.0
  0
LINE
  5
233
330
1F
100
AcDbEntity
  8
7
  6
Continuous
 62
     2
100
AcDbLine
 10
138.708136062
 20
153.62
 30
0.0
 11
142.33035791
 21
152.649428581
 31
0.0
  0
LINE
  5
234
330
1F
100
AcDbEntity
  8
7
  6
Continuous
 62
     2
100
AcDbLine
 10
138.708136062
 20
153.62
 30
0.0
 11
142.33035791
 21
154.590571419
 31
0.0
  0
LINE
  5
235
330
1F
100
AcDbEntity
  8
7
  6
Continuous
 62
     2
100
AcDbLine
 10
138.708136062
 20
153.62
 30
0.0
 11
198.708136062
 21
153.62
 31
0.0
  0
LINE
  5
236
330
1F
100
AcDbEntity
  8
7
  6
Continuous
 62
     2
100
AcDbLine
 10
198.708136062
 20
153.62
 30
0.0
 11
195.085914213
 21
154.590571419
 31
0.0
  0
LINE
  5
237
330
1F
100
AcDbEntity
  8
7
  6
Continuous
 62
     2
100
AcDbLine
 10
198.708136062
 20
153.62
 30
0.0
 11
195.085914213
 21
152.649428581
 31
0.0
  0
LINE
  5
238
330
1F
100
AcDbEntity
  8
7
  6
Continuous
 62
     2
100
AcDbLine
 10
198.708136062
 20
145.22
 30
0.0
 11
198.708136062
 21
156.62
 31
0.0
  0
TEXT
  5
239
330
1F
100
AcDbEntity
  8
7
  6
Continuous
 62
     2
100
AcDbText
 10
165.783136062
 20
155.12
 30
0.0
 40
4.5
  1
60
 41
0.6
  7
KANJI1
 72
     5
 11
171.633136062
 21
155.12
 31
0.0
100
AcDbText
  0
LINE
  5
23B
330
1F
100
AcDbEntity
  8
7
  6
Continuous
 62
     2
100
AcDbLine
 10
203.700136062
 20
138.47
 30
0.0
 11
206.947731326
 21
140.345
 31
0.0
  0
LINE
  5
23C
330
1F
100
AcDbEntity
  8
7
  6
Continuous
 62
     2
100
AcDbLine
 10
203.700136062
 20
138.47
 30
0.0
 11
205.575136062
 21
141.717595264
 31
0.0
  0
LINE
  5
23D
330
1F
100
AcDbEntity
  8
7
  6
Continuous
 62
     2
100
AcDbLine
 10
203.700136062
 20
138.47
 30
0.0
 11
216.300136062
 21
151.07
 31
0.0
  0
LINE
  5
23E
330
1F
100
AcDbEntity
  8
7
  6
Continuous
 62
     2
100
AcDbLine
 10
216.300136062
 20
151.07
 30
0.0
 11
247.350136062
 21
151.07
 31
0.0
  0
TEXT
  5
23F
330
1F
100
AcDbEntity
  8
7
  6
Continuous
 62
     2
100
AcDbText
 10
216.300136062
 20
152.57
 30
0.0
 40
4.5
  1
M5つまみねじ
 41
0.9
  7
KANJI0
 72
     5
 11
247.350136062
 21
152.57
 31
0.0
100
AcDbText
  0
LINE
  5
240
330
1F
100
AcDbEntity
  8
7
  6
Continuous
 62
     2
100
AcDbLine
 10
220.208136062
 20
130.82
 30
0.0
 11
233.708136062
 21
130.82
 31
0.0
  0
LINE
  5
241
330
1F
100
AcDbEntity
  8
7
  6
Continuous
 62
     2
100
AcDbLine
 10
230.708136062
 20
130.82
 30
0.0
 11
229.737564643
 21
127.197778151
 31
0.0
  0
LINE
  5
242
330
1F
100
AcDbEntity
  8
7
  6
Continuous
 62
     2
100
AcDbLine
 10
230.708136062
 20
130.82
 30
0.0
 11
231.678707481
 21
127.197778151
 31
0.0
  0
LINE
  5
243
330
1F
100
AcDbEntity
  8
7
  6
Continuous
 62
     2
100
AcDbLine
 10
230.708136062
 20
130.82
 30
0.0
 11
230.708136062
 21
64.82
 31
0.0
  0
LINE
  5
244
330
1F
100
AcDbEntity
  8
7
  6
Continuous
 62
     2
100
AcDbLine
 10
230.708136062
 20
64.82
 30
0.0
 11
231.678707481
 21
68.442221849
 31
0.0
  0
LINE
  5
245
330
1F
100
AcDbEntity
  8
7
  6
Continuous
 62
     2
100
AcDbLine
 10
230.708136062
 20
64.82
 30
0.0
 11
229.737564643
 21
68.442221849
 31
0.0
  0
LINE
  5
246
330
1F
100
AcDbEntity
  8
7
  6
Continuous
 62
     2
100
AcDbLine
 10
182.208136062
 20
64.82
 30
0.0
 11
233.708136062
 21
64.82
 31
0.0
  0
TEXT
  5
247
330
1F
100
AcDbEntity
  8
7
  6
Continuous
 62
     2
100
AcDbText
 10
229.208136062
 20
91.745
 30
0.0
 40
4.5
  1
(66)
 50
90.0
 41
0.6
  7
KANJI1
 72
     5
 11
229.208136062
 21
103.895
 31
0.0
100
AcDbText
  0
LINE
  5
248
330
1F
100
AcDbEntity
  8
7
  6
Continuous
 62
     2
100
AcDbLine
 10
118.708136062
 20
200.52
 30
0.0
 11
118.708136062
 21
167.02
 31
0.0
  0
LINE
  5
249
330
1F
100
AcDbEntity
  8
7
  6
Continuous
 62
     2
100
AcDbLine
 10
118.708136062
 20
170.02
 30
0.0
 11
122.33035791
 21
169.049428581
 31
0.0
  0
LINE
  5
24A
330
1F
100
AcDbEntity
  8
7
  6
Continuous
 62
     2
100
AcDbLine
 10
118.708136062
 20
170.02
 30
0.0
 11
122.33035791
 21
170.990571419
 31
0.0
  0
LWPOLYLINE
  5
24C
330
1F
100
AcDbEntity
  8
7
  6
Continuous
 62
     2
100
AcDbPolyline
 90
     3
 70
   128
 43
0.0
 10
118.708136062
 20
170.02
 10
218.708136062
 20
170.02
 10
215.085914213
 20
170.990571419
  0
LINE
  5
24D
330
1F
100
AcDbEntity
  8
7
  6
Continuous
 62
     2
100
AcDbLine
 10
218.708136062
 20
170.02
 30
0.0
 11
215.085914213
 21
169.049428581
 31
0.0
  0
LINE
  5
24E
330
1F
100
AcDbEntity
  8
7
  6
Continuous
 62
     2
100
AcDbLine
 10
218.708136062
 20
200.52
 30
0.0
 11
218.708136062
 21
167.02
 31
0.0
  0
TEXT
  5
24F
330
1F
100
AcDbEntity
  8
7
  6
Continuous
 62
     2
100
AcDbText
 10
164.208136062
 20
171.52
 30
0.0
 40
4.5
  1
100
 41
0.6
  7
KANJI2
 72
     5
 11
173.208136062
 21
171.52
 31
0.0
100
AcDbText
  0
LINE
  5
251
330
1F
100
AcDbEntity
  8
7
  6
Continuous
 62
     2
100
AcDbLine
 10
220.208136062
 20
236.02
 30
0.0
 11
233.708136062
 21
236.02
 31
0.0
  0
LINE
  5
252
330
1F
100
AcDbEntity
  8
7
  6
Continuous
 62
     2
100
AcDbLine
 10
230.708136062
 20
236.02
 30
0.0
 11
229.737564643
 21
232.397778151
 31
0.0
  0
LINE
  5
253
330
1F
100
AcDbEntity
  8
7
  6
Continuous
 62
     2
100
AcDbLine
 10
230.708136062
 20
236.02
 30
0.0
 11
231.678707481
 21
232.397778151
 31
0.0
  0
LWPOLYLINE
  5
255
330
1F
100
AcDbEntity
  8
7
  6
Continuous
 62
     2
100
AcDbPolyline
 90
     3
 70
   128
 43
0.0
 10
230.708136062
 20
236.02
 10
230.708136062
 20
202.02
 10
231.678707481
 20
205.642221849
  0
LINE
  5
256
330
1F
100
AcDbEntity
  8
7
  6
Continuous
 62
     2
100
AcDbLine
 10
230.708136062
 20
202.02
 30
0.0
 11
229.737564643
 21
205.642221849
 31
0.0
  0
LINE
  5
257
330
1F
100
AcDbEntity
  8
7
  6
Continuous
 62
     2
100
AcDbLine
 10
220.208136062
 20
202.02
 30
0.0
 11
233.708136062
 21
202.02
 31
0.0
  0
TEXT
  5
258
330
1F
100
AcDbEntity
  8
7
  6
Continuous
 62
     2
100
AcDbText
 10
229.208136062
 20
216.095
 30
0.0
 40
4.5
  1
34
 50
90.0
 41
0.6
  7
KANJI2
 72
     5
 11
229.208136062
 21
221.945
 31
0.0
100
AcDbText
  0
LINE
  5
259
330
1F
100
AcDbEntity
  8
3
  6
LTYPE4
 62
     2
100
AcDbLine
 10
168.708136062
 20
110.82
 30
0.0
 11
153.908136062
 21
96.02
 31
0.0
  0
LINE
  5
25A
330
1F
100
AcDbEntity
  8
3
  6
LTYPE4
 62
     2
100
AcDbLine
 10
168.708136062
 20
110.82
 30
0.0
 11
183.508136062
 21
96.02
 31
0.0
  0
LINE
  5
25B
330
1F
100
AcDbEntity
  8
7
  6
Continuous
 62
     2
100
AcDbLine
 10
152.84747589
 20
94.959339828
 30
0.0
 11
125.574622409
 21
67.686486348
 31
0.0
  0
LINE
  5
25C
330
1F
100
AcDbEntity
  8
7
  6
Continuous
 62
     2
100
AcDbLine
 10
127.695942753
 20
69.807806691
 30
0.0
 11
130.943538017
 21
67.932806691
 31
0.0
  0
LINE
  5
25D
330
1F
100
AcDbEntity
  8
7
  6
Continuous
 62
     2
100
AcDbLine
 10
127.695942753
 20
69.807806691
 30
0.0
 11
129.570942753
 21
66.560211427
 31
0.0
  0
LWPOLYLINE
  5
25F
330
1F
100
AcDbEntity
  8
7
  6
Continuous
 62
     2
100
AcDbPolyline
 90
     3
 70
   128
 43
0.0
 10
127.695942753
 20
69.807806691
 42
0.414213562
 10
209.720329371
 20
69.807806691
 42
0.0
 10
207.845329371
 20
66.560211427
 42
0.0
  0
LINE
  5
260
330
1F
100
AcDbEntity
  8
7
  6
Continuous
 62
     2
100
AcDbLine
 10
209.720329371
 20
69.807806691
 30
0.0
 11
206.472734106
 21
67.932806691
 31
0.0
  0
LINE
  5
261
330
1F
100
AcDbEntity
  8
7
  6
Continuous
 62
     2
100
AcDbLine
 10
184.568796234
 20
94.959339828
 30
0.0
 11
211.841649714
 21
67.686486348
 31
0.0
  0
TEXT
  5
262
330
1F
100
AcDbEntity
  8
7
  6
Continuous
 62
     2
100
AcDbText
 10
164.208136062
 20
54.494832469
 30
0.0
 40
4.5
  1
90゜
 41
0.6
  7
KANJI2
 72
     5
 11
173.208136062
 21
54.494832469
 31
0.0
100
AcDbText
  0
LINE
  5
263
330
1F
100
AcDbEntity
  8
0
  6
LTYPE1
 62
     2
100
AcDbLine
 10
326.573892324
 20
215.02
 30
0.0
 11
339.573892324
 21
215.02
 31
0.0
  0
LINE
  5
264
330
1F
100
AcDbEntity
  8
0
  6
LTYPE1
 62
     2
100
AcDbLine
 10
326.573892324
 20
223.02
 30
0.0
 11
339.573892324
 21
223.02
 31
0.0
  0
LINE
  5
265
330
1F
100
AcDbEntity
  8
7
  6
Continuous
 62
     2
100
AcDbLine
 10
330.132892324
 20
214.392
 30
0.0
 11
330.780208224
 21
210.698291548
 31
0.0
  0
LINE
  5
266
330
1F
100
AcDbEntity
  8
7
  6
Continuous
 62
     2
100
AcDbLine
 10
330.132892324
 20
214.392
 30
0.0
 11
332.540338564
 21
211.516812597
 31
0.0
  0
LWPOLYLINE
  5
268
330
1F
100
AcDbEntity
  8
7
  6
Continuous
 62
     2
100
AcDbPolyline
 90
     3
 70
   128
 43
0.0
 10
330.132892324
 20
214.392
 10
337.919892324
 20
197.647
 10
359.969892324
 20
197.647
  0
TEXT
  5
269
330
1F
100
AcDbEntity
  8
7
  6
Continuous
 62
     2
100
AcDbText
 10
337.919892324
 20
199.147
 30
0.0
 40
4.5
  1
"3/8"
 41
0.9
  7
KANJI0
 72
     5
 11
359.969892324
 21
199.147
 31
0.0
100
AcDbText
  0
LINE
  5
26A
330
1F
100
AcDbEntity
  8
7
  6
Continuous
 62
     2
100
AcDbLine
 10
331.304892324
 20
227.537
 30
0.0
 11
333.998242525
 21
230.146284326
 31
0.0
  0
LINE
  5
26B
330
1F
100
AcDbEntity
  8
7
  6
Continuous
 62
     2
100
AcDbLine
 10
331.304892324
 20
227.537
 30
0.0
 11
332.332759856
 21
231.143381613
 31
0.0
  0
LWPOLYLINE
  5
26D
330
1F
100
AcDbEntity
  8
7
  6
Continuous
 62
     2
100
AcDbPolyline
 90
     3
 70
   128
 43
0.0
 10
331.304892324
 20
227.537
 10
338.672892324
 20
239.844
 10
360.722892324
 20
239.844
  0
TEXT
  5
26E
330
1F
100
AcDbEntity
  8
7
  6
Continuous
 62
     2
100
AcDbText
 10
338.672892324
 20
241.344
 30
0.0
 40
4.5
  1
"5/8"
 41
0.9
  7
KANJI0
 72
     5
 11
360.722892324
 21
241.344
 31
0.0
100
AcDbText
  0
TEXT
  5
26F
330
1F
100
AcDbEntity
  8
2
  6
Continuous
 62
     2
100
AcDbText
 10
326.25
 20
61.5
 30
0.0
 40
6.0
  1
MFH-2AB
 41
0.9
  7
KANJI3
 72
     5
 11
367.65
 21
61.5
 31
0.0
100
AcDbText
  0
TEXT
  5
271
330
1F
100
AcDbEntity
  8
2
  6
Continuous
 62
     2
100
AcDbText
 10
326.25
 20
53.25
 30
0.0
 40
4.5
  1
マイクスタンド用スピーカー取付金具(縦向き)
 41
0.9
  7
KANJI0
 72
     5
 11
420.75
 21
53.25
 31
0.0
100
AcDbText
  0
TEXT
  5
272
330
1F
100
AcDbEntity
  8
2
  6
Continuous
 62
     2
100
AcDbText
 10
326.25
 20
35.25
 30
0.0
 40
4.5
  1
自重  0.24kg
 41
0.9
  7
KANJI0
 72
     5
 11
370.8
 21
35.25
 31
0.0
100
AcDbText
  0
TEXT
  5
273
330
1F
100
AcDbEntity
  8
2
  6
Continuous
 62
     2
100
AcDbText
 10
376.25
 20
17.25
 30
0.0
 40
4.5
  1
用紙  A4
 41
0.9
  7
KANJI0
 72
     5
 11
402.8
 21
17.25
 31
0.0
100
AcDbText
  0
ENDSEC
  0
SECTION
  2
OBJECTS
  0
DICTIONARY
  5
C
330
0
100
AcDbDictionary
280
     0
281
     1
  3
ACAD_GROUP
350
D
  3
ACAD_LAYOUT
350
1A
  3
ACAD_MLINESTYLE
350
17
  3
ACAD_PLOTSETTINGS
350
19
  3
ACAD_PLOTSTYLENAME
350
E
  0
DICTIONARY
  5
D
102
{ACAD_REACTORS
330
C
102
}
330
C
100
AcDbDictionary
280
     0
281
     1
  0
DICTIONARY
  5
1A
102
{ACAD_REACTORS
330
C
102
}
330
C
100
AcDbDictionary
280
     0
281
     1
  3
Model
350
22
  3
ﾚｲｱｳﾄ1
350
1E
  3
ﾚｲｱｳﾄ2
350
26
  0
LAYOUT
  5
22
102
{ACAD_REACTORS
330
1A
102
}
330
1A
100
AcDbPlotSettings
  1

  2

  4

  6

 40
0.0
 41
0.0
 42
0.0
 43
0.0
 44
0.0
 45
0.0
 46
0.0
 47
0.0
 48
0.0
 49
0.0
140
0.0
141
0.0
142
1.0
143
1.0
 70
  1712
 72
     0
 73
     0
 74
     0
  7

 75
     0
147
1.0
148
0.0
149
0.0
100
AcDbLayout
  1
Model
 70
     1
 71
     0
 10
0.0
 20
0.0
 11
0.0
 21
0.0
 12
0.0
 22
0.0
 32
0.0
 14
0.0
 24
0.0
 34
0.0
 15
0.0
 25
0.0
 35
0.0
146
0.0
 13
0.0
 23
0.0
 33
0.0
 16
1.0
 26
0.0
 36
0.0
 17
0.0
 27
1.0
 37
0.0
 76
     0
330
1F
331
0
345
0
346
0
  0
LAYOUT
  5
1E
102
{ACAD_REACTORS
330
1A
102
}
330
1A
100
AcDbPlotSettings
  1

  2

  4

  6

 40
0.0
 41
0.0
 42
0.0
 43
0.0
 44
0.0
 45
0.0
 46
0.0
 47
0.0
 48
0.0
 49
0.0
140
0.0
141
0.0
142
1.0
143
1.0
 70
   688
 72
     0
 73
     0
 74
     5
  7

 75
    16
147
1.0
148
0.0
149
0.0
100
AcDbLayout
  1
ﾚｲｱｳﾄ1
 70
     1
 71
     1
 10
0.0
 20
0.0
 11
0.0
 21
0.0
 12
0.0
 22
0.0
 32
0.0
 14
0.0
 24
0.0
 34
0.0
 15
0.0
 25
0.0
 35
0.0
146
0.0
 13
0.0
 23
0.0
 33
0.0
 16
1.0
 26
0.0
 36
0.0
 17
0.0
 27
1.0
 37
0.0
 76
     0
330
1B
331
0
345
0
346
0
  0
LAYOUT
  5
26
102
{ACAD_REACTORS
330
1A
102
}
330
1A
100
AcDbPlotSettings
  1

  2

  4

  6

 40
0.0
 41
0.0
 42
0.0
 43
0.0
 44
0.0
 45
0.0
 46
0.0
 47
0.0
 48
0.0
 49
0.0
140
0.0
141
0.0
142
1.0
143
1.0
 70
   688
 72
     0
 73
     0
 74
     5
  7

 75
    16
147
1.0
148
0.0
149
0.0
100
AcDbLayout
  1
ﾚｲｱｳﾄ2
 70
     1
 71
     2
 10
0.0
 20
0.0
 11
0.0
 21
0.0
 12
0.0
 22
0.0
 32
0.0
 14
0.0
 24
0.0
 34
0.0
 15
0.0
 25
0.0
 35
0.0
146
0.0
 13
0.0
 23
0.0
 33
0.0
 16
1.0
 26
0.0
 36
0.0
 17
0.0
 27
1.0
 37
0.0
 76
     0
330
23
331
0
345
0
346
0
  0
DICTIONARY
  5
17
102
{ACAD_REACTORS
330
C
102
}
330
C
100
AcDbDictionary
280
     0
281
     1
  3
Standard
350
18
  0
MLINESTYLE
  5
18
102
{ACAD_REACTORS
330
17
102
}
330
17
100
AcDbMlineStyle
  2
STANDARD
 70
     0
  3

 62
   256
 51
90.0
 52
90.0
 71
     2
 49
0.5
 62
   256
  6
ByLayer
 49
-0.5
 62
   256
  6
ByLayer
  0
DICTIONARY
  5
19
102
{ACAD_REACTORS
330
C
102
}
330
C
100
AcDbDictionary
280
     0
281
     1
  0
ACDBDICTIONARYWDFLT
  5
E
330
C
100
AcDbDictionary
281
     0
  3
Normal
350
F
100
AcDbDictionaryWithDefault
340
F
  0
ACDBPLACEHOLDER
  5
F
102
{ACAD_REACTORS
330
E
102
}
330
E
  0
ENDSEC
  0
EOF
