  0
SECTION
  2
HEADER
  9
$ACADVER
  1
AC1015
  9
$ACADMAINTVER
 70
     6
  9
$DWGCODEPAGE
  3
ANSI_932
  9
$INSBASE
 10
0.0
 20
0.0
 30
0.0
  9
$EXTMIN
 10
0.0
 20
0.0
 30
0.0
  9
$EXTMAX
 10
445.5
 20
315.0
 30
0.0
  9
$LIMMIN
 10
0.0
 20
0.0
  9
$LIMMAX
 10
445.5
 20
315.0
  9
$ORTHOMODE
 70
     0
  9
$REGENMODE
 70
     1
  9
$FILLMODE
 70
     1
  9
$QTEXTMODE
 70
     0
  9
$MIRRTEXT
 70
     1
  9
$LTSCALE
 40
1.5
  9
$ATTMODE
 70
     1
  9
$TEXTSIZE
 40
2.5
  9
$TRACEWID
 40
1.0
  9
$TEXTSTYLE
  7
Standard
  9
$CLAYER
  8
0
  9
$CELTYPE
  6
ByLayer
  9
$CECOLOR
 62
   256
  9
$CELTSCALE
 40
1.0
  9
$DISPSILH
 70
     0
  9
$DIMSCALE
 40
1.0
  9
$DIMASZ
 40
2.5
  9
$DIMEXO
 40
0.625
  9
$DIMDLI
 40
3.75
  9
$DIMRND
 40
0.0
  9
$DIMDLE
 40
0.0
  9
$DIMEXE
 40
1.25
  9
$DIMTP
 40
0.0
  9
$DIMTM
 40
0.0
  9
$DIMTXT
 40
2.5
  9
$DIMCEN
 40
2.5
  9
$DIMTSZ
 40
0.0
  9
$DIMTOL
 70
     0
  9
$DIMLIM
 70
     0
  9
$DIMTIH
 70
     0
  9
$DIMTOH
 70
     0
  9
$DIMSE1
 70
     0
  9
$DIMSE2
 70
     0
  9
$DIMTAD
 70
     1
  9
$DIMZIN
 70
     8
  9
$DIMBLK
  1

  9
$DIMASO
 70
     1
  9
$DIMSHO
 70
     1
  9
$DIMPOST
  1

  9
$DIMAPOST
  1

  9
$DIMALT
 70
     0
  9
$DIMALTD
 70
     3
  9
$DIMALTF
 40
0.03937007874016
  9
$DIMLFAC
 40
1.0
  9
$DIMTOFL
 70
     1
  9
$DIMTVP
 40
0.0
  9
$DIMTIX
 70
     0
  9
$DIMSOXD
 70
     0
  9
$DIMSAH
 70
     0
  9
$DIMBLK1
  1

  9
$DIMBLK2
  1

  9
$DIMSTYLE
  2
ISO-25
  9
$DIMCLRD
 70
     0
  9
$DIMCLRE
 70
     0
  9
$DIMCLRT
 70
     0
  9
$DIMTFAC
 40
1.0
  9
$DIMGAP
 40
0.625
  9
$DIMJUST
 70
     0
  9
$DIMSD1
 70
     0
  9
$DIMSD2
 70
     0
  9
$DIMTOLJ
 70
     0
  9
$DIMTZIN
 70
     8
  9
$DIMALTZ
 70
     0
  9
$DIMALTTZ
 70
     0
  9
$DIMUPT
 70
     0
  9
$DIMDEC
 70
     2
  9
$DIMTDEC
 70
     2
  9
$DIMALTU
 70
     2
  9
$DIMALTTD
 70
     3
  9
$DIMTXSTY
  7
Standard
  9
$DIMAUNIT
 70
     0
  9
$DIMADEC
 70
     0
  9
$DIMALTRND
 40
0.0
  9
$DIMAZIN
 70
     0
  9
$DIMDSEP
 70
    46
  9
$DIMATFIT
 70
     3
  9
$DIMFRAC
 70
     0
  9
$DIMLDRBLK
  1

  9
$DIMLUNIT
 70
     2
  9
$DIMLWD
 70
    -2
  9
$DIMLWE
 70
    -2
  9
$DIMTMOVE
 70
     0
  9
$LUNITS
 70
     2
  9
$LUPREC
 70
     4
  9
$SKETCHINC
 40
1.0
  9
$FILLETRAD
 40
10.0
  9
$AUNITS
 70
     0
  9
$AUPREC
 70
     0
  9
$MENU
  1
.
  9
$ELEVATION
 40
0.0
  9
$PELEVATION
 40
0.0
  9
$THICKNESS
 40
0.0
  9
$LIMCHECK
 70
     0
  9
$CHAMFERA
 40
10.0
  9
$CHAMFERB
 40
10.0
  9
$CHAMFERC
 40
20.0
  9
$CHAMFERD
 40
0.0
  9
$SKPOLY
 70
     0
  9
$TDCREATE
 40
2459047.000000
  9
$TDUCREATE
 40
0.000000000
  9
$TDUPDATE
 40
2459047.000000
  9
$TDUUPDATE
 40
2459047.000000
  9
$TDINDWG
 40
0.0
  9
$TDUSRTIMER
 40
0.0
  9
$USRTIMER
 70
     1
  9
$ANGBASE
 50
0.0
  9
$ANGDIR
 70
     0
  9
$PDMODE
 70
     0
  9
$PDSIZE
 40
0.0
  9
$PLINEWID
 40
0.0
  9
$SPLFRAME
 70
     0
  9
$SPLINETYPE
 70
     6
  9
$SPLINESEGS
 70
     8
  9
$HANDSEED
  5
0235
  9
$SURFTAB1
 70
     6
  9
$SURFTAB2
 70
     6
  9
$SURFTYPE
 70
     6
  9
$SURFU
 70
     6
  9
$SURFV
 70
     6
  9
$UCSBASE
  2

  9
$UCSNAME
  2

  9
$UCSORG
 10
0.0
 20
0.0
 30
0.0
  9
$UCSXDIR
 10
1.0
 20
0.0
 30
0.0
  9
$UCSYDIR
 10
0.0
 20
1.0
 30
0.0
  9
$UCSORTHOREF
  2

  9
$UCSORTHOVIEW
 70
     0
  9
$UCSORGTOP
 10
0.0
 20
0.0
 30
0.0
  9
$UCSORGBOTTOM
 10
0.0
 20
0.0
 30
0.0
  9
$UCSORGLEFT
 10
0.0
 20
0.0
 30
0.0
  9
$UCSORGRIGHT
 10
0.0
 20
0.0
 30
0.0
  9
$UCSORGFRONT
 10
0.0
 20
0.0
 30
0.0
  9
$UCSORGBACK
 10
0.0
 20
0.0
 30
0.0
  9
$PUCSBASE
  2

  9
$PUCSNAME
  2

  9
$PUCSORG
 10
0.0
 20
0.0
 30
0.0
  9
$PUCSXDIR
 10
1.0
 20
0.0
 30
0.0
  9
$PUCSYDIR
 10
0.0
 20
1.0
 30
0.0
  9
$PUCSORTHOREF
  2

  9
$PUCSORTHOVIEW
 70
     0
  9
$PUCSORGTOP
 10
0.0
 20
0.0
 30
0.0
  9
$PUCSORGBOTTOM
 10
0.0
 20
0.0
 30
0.0
  9
$PUCSORGLEFT
 10
0.0
 20
0.0
 30
0.0
  9
$PUCSORGRIGHT
 10
0.0
 20
0.0
 30
0.0
  9
$PUCSORGFRONT
 10
0.0
 20
0.0
 30
0.0
  9
$PUCSORGBACK
 10
0.0
 20
0.0
 30
0.0
  9
$USERI1
 70
     0
  9
$USERI2
 70
     0
  9
$USERI3
 70
     0
  9
$USERI4
 70
     0
  9
$USERI5
 70
     0
  9
$USERR1
 40
0.0
  9
$USERR2
 40
0.0
  9
$USERR3
 40
0.0
  9
$USERR4
 40
0.0
  9
$USERR5
 40
0.0
  9
$WORLDVIEW
 70
     1
  9
$SHADEDGE
 70
     3
  9
$SHADEDIF
 70
    70
  9
$TILEMODE
 70
     1
  9
$MAXACTVP
 70
    64
  9
$PINSBASE
 10
0.0
 20
0.0
 30
0.0
  9
$PLIMCHECK
 70
     0
  9
$PEXTMIN
 10
1.000000E+20
 20
1.000000E+20
 30
1.000000E+20
  9
$PEXTMAX
 10
-1.000000E+20
 20
-1.000000E+20
 30
-1.000000E+20
  9
$PLIMMIN
 10
0.0
 20
0.0
  9
$PLIMMAX
 10
0.0
 20
0.0
  9
$UNITMODE
 70
     0
  9
$VISRETAIN
 70
     0
  9
$PLINEGEN
 70
     0
  9
$PSLTSCALE
 70
     1
  9
$TREEDEPTH
 70
  3020
  9
$CMLSTYLE
  2
STANDARD
  9
$CMLJUST
 70
     0
  9
$CMLSCALE
 40
20.0
  9
$PROXYGRAPHICS
 70
     1
  9
$MEASUREMENT
 70
     1
  9
$CELWEIGHT
370
    -1
  9
$ENDCAPS
280
     0
  9
$JOINSTYLE
280
     0
  9
$LWDISPLAY
290
     0
  9
$INSUNITS
 70
     4
  9
$HYPERLINKBASE
  1

  9
$STYLESHEET
  1

  9
$XEDIT
290
     1
  9
$CEPSNTYPE
380
     0
  9
$PSTYLEMODE
290
     1
  9
$FINGERPRINTGUID
  2
{6A996567-E3D8-EB4D-0823-1AD187C32723}
  9
$VERSIONGUID
  2
{062C8C26-9929-B0A9-815F-8AE7A3A9D9B4}
  9
$EXTNAMES
290
     1
  9
$PSVPSCALE
 40
0.0
  0
ENDSEC
  0
SECTION
  2
CLASSES
  0
ENDSEC
  0
SECTION
  2
TABLES
  0
TABLE
  2
VPORT
  5
8
330
0
100
AcDbSymbolTable
 70
     3
  0
VPORT
  5
29
330
8
100
AcDbSymbolTableRecord
100
AcDbViewportTableRecord
  2
*Active
 70
     0
 10
0.0
 20
0.0
 11
1.0
 21
1.0
 12
222.75
 22
157.5
 13
0.0
 23
0.0
 14
10.0
 24
10.0
 15
0.0
 25
0.0
 16
0.0
 26
0.0
 36
1.0
 17
0.0
 27
0.0
 37
0.0
 40
315.0
 41
1.414285714
 42
50.0
 43
0.0
 44
0.0
 50
0.0
 51
0.0
 71
     0
 72
  1000
 73
     1
 74
     3
 75
     0
 76
     0
 77
     0
 78
     0
281
     0
 65
     0
110
0.0
120
0.0
130
0.0
111
1.0
121
0.0
131
0.0
112
0.0
122
1.0
132
0.0
 79
     0
146
0.0
  0
ENDTAB
  0
TABLE
  2
LTYPE
  5
5
330
0
100
AcDbSymbolTable
 70
     6
  0
LTYPE
  5
14
330
5
100
AcDbSymbolTableRecord
100
AcDbLinetypeTableRecord
  2
ByBlock
 70
     0
  3

 72
    65
 73
     0
 40
0.0
  0
LTYPE
  5
15
330
5
100
AcDbSymbolTableRecord
100
AcDbLinetypeTableRecord
  2
ByLayer
 70
     0
  3

 72
    65
 73
     0
 40
0.0
  0
LTYPE
  5
16
330
5
100
AcDbSymbolTableRecord
100
AcDbLinetypeTableRecord
  2
Continuous
 70
     0
  3
Solid line
 72
    65
 73
     0
 40
0.0
  0
LTYPE
  5
C7
330
5
100
AcDbSymbolTableRecord
100
AcDbLinetypeTableRecord
  2
LTYPE1
 70
     0
  3
CENTER
 72
    65
 73
     4
 40
10.0
 49
7.0
 74
     0
 49
-1.0
 74
     0
 49
1.0
 74
     0
 49
-1.0
 74
     0
  0
LTYPE
  5
EB
330
5
100
AcDbSymbolTableRecord
100
AcDbLinetypeTableRecord
  2
LTYPE2
 70
     0
  3
HIDDEN
 72
    65
 73
     2
 40
2.0
 49
1.2
 74
     0
 49
-0.8
 74
     0
  0
LTYPE
  5
F6
330
5
100
AcDbSymbolTableRecord
100
AcDbLinetypeTableRecord
  2
LTYPE3
 70
     0
  3
CENTER
 72
    65
 73
     4
 40
12.0
 49
8.4
 74
     0
 49
-1.2
 74
     0
 49
1.2
 74
     0
 49
-1.2
 74
     0
  0
ENDTAB
  0
TABLE
  2
LAYER
  5
2
330
0
100
AcDbSymbolTable
 70
   128
  0
LAYER
  5
10
330
2
100
AcDbSymbolTableRecord
100
AcDbLayerTableRecord
  2
0
 70
     0
 62
     7
  6
Continuous
290
     1
370
    -3
390
F
  0
LAYER
  5
2A
330
2
100
AcDbSymbolTableRecord
100
AcDbLayerTableRecord
  2
2
 70
     0
 62
     7
  6
Continuous
290
     1
370
    -3
390
F
  0
LAYER
  5
2B
330
2
100
AcDbSymbolTableRecord
100
AcDbLayerTableRecord
  2
3
 70
     0
 62
     7
  6
Continuous
290
     1
370
    -3
390
F
  0
LAYER
  5
2C
330
2
100
AcDbSymbolTableRecord
100
AcDbLayerTableRecord
  2
4
 70
     0
 62
     7
  6
Continuous
290
     1
370
    -3
390
F
  0
LAYER
  5
2D
330
2
100
AcDbSymbolTableRecord
100
AcDbLayerTableRecord
  2
5
 70
     0
 62
     7
  6
Continuous
290
     1
370
    -3
390
F
  0
LAYER
  5
2E
330
2
100
AcDbSymbolTableRecord
100
AcDbLayerTableRecord
  2
6
 70
     0
 62
     7
  6
Continuous
290
     1
370
    -3
390
F
  0
LAYER
  5
2F
330
2
100
AcDbSymbolTableRecord
100
AcDbLayerTableRecord
  2
7
 70
     0
 62
     7
  6
Continuous
290
     1
370
    -3
390
F
  0
LAYER
  5
30
330
2
100
AcDbSymbolTableRecord
100
AcDbLayerTableRecord
  2
8
 70
     0
 62
     7
  6
Continuous
290
     1
370
    -3
390
F
  0
LAYER
  5
31
330
2
100
AcDbSymbolTableRecord
100
AcDbLayerTableRecord
  2
9
 70
     0
 62
     7
  6
Continuous
290
     1
370
    -3
390
F
  0
LAYER
  5
32
330
2
100
AcDbSymbolTableRecord
100
AcDbLayerTableRecord
  2
10
 70
     0
 62
     7
  6
Continuous
290
     1
370
    -3
390
F
  0
LAYER
  5
33
330
2
100
AcDbSymbolTableRecord
100
AcDbLayerTableRecord
  2
11
 70
     0
 62
     7
  6
Continuous
290
     1
370
    -3
390
F
  0
LAYER
  5
34
330
2
100
AcDbSymbolTableRecord
100
AcDbLayerTableRecord
  2
12
 70
     0
 62
     7
  6
Continuous
290
     1
370
    -3
390
F
  0
LAYER
  5
35
330
2
100
AcDbSymbolTableRecord
100
AcDbLayerTableRecord
  2
13
 70
     0
 62
     7
  6
Continuous
290
     1
370
    -3
390
F
  0
LAYER
  5
36
330
2
100
AcDbSymbolTableRecord
100
AcDbLayerTableRecord
  2
14
 70
     0
 62
     7
  6
Continuous
290
     1
370
    -3
390
F
  0
LAYER
  5
37
330
2
100
AcDbSymbolTableRecord
100
AcDbLayerTableRecord
  2
15
 70
     0
 62
     7
  6
Continuous
290
     1
370
    -3
390
F
  0
LAYER
  5
38
330
2
100
AcDbSymbolTableRecord
100
AcDbLayerTableRecord
  2
16
 70
     0
 62
     7
  6
Continuous
290
     1
370
    -3
390
F
  0
LAYER
  5
39
330
2
100
AcDbSymbolTableRecord
100
AcDbLayerTableRecord
  2
17
 70
     0
 62
     7
  6
Continuous
290
     1
370
    -3
390
F
  0
LAYER
  5
3A
330
2
100
AcDbSymbolTableRecord
100
AcDbLayerTableRecord
  2
18
 70
     0
 62
     7
  6
Continuous
290
     1
370
    -3
390
F
  0
LAYER
  5
3B
330
2
100
AcDbSymbolTableRecord
100
AcDbLayerTableRecord
  2
19
 70
     0
 62
     7
  6
Continuous
290
     1
370
    -3
390
F
  0
LAYER
  5
3C
330
2
100
AcDbSymbolTableRecord
100
AcDbLayerTableRecord
  2
20
 70
     0
 62
     7
  6
Continuous
290
     1
370
    -3
390
F
  0
LAYER
  5
3D
330
2
100
AcDbSymbolTableRecord
100
AcDbLayerTableRecord
  2
21
 70
     0
 62
     7
  6
Continuous
290
     1
370
    -3
390
F
  0
LAYER
  5
3E
330
2
100
AcDbSymbolTableRecord
100
AcDbLayerTableRecord
  2
22
 70
     0
 62
     7
  6
Continuous
290
     1
370
    -3
390
F
  0
LAYER
  5
3F
330
2
100
AcDbSymbolTableRecord
100
AcDbLayerTableRecord
  2
23
 70
     0
 62
     7
  6
Continuous
290
     1
370
    -3
390
F
  0
LAYER
  5
40
330
2
100
AcDbSymbolTableRecord
100
AcDbLayerTableRecord
  2
24
 70
     0
 62
     7
  6
Continuous
290
     1
370
    -3
390
F
  0
LAYER
  5
41
330
2
100
AcDbSymbolTableRecord
100
AcDbLayerTableRecord
  2
25
 70
     0
 62
     7
  6
Continuous
290
     1
370
    -3
390
F
  0
LAYER
  5
42
330
2
100
AcDbSymbolTableRecord
100
AcDbLayerTableRecord
  2
26
 70
     0
 62
     7
  6
Continuous
290
     1
370
    -3
390
F
  0
LAYER
  5
43
330
2
100
AcDbSymbolTableRecord
100
AcDbLayerTableRecord
  2
27
 70
     0
 62
     7
  6
Continuous
290
     1
370
    -3
390
F
  0
LAYER
  5
44
330
2
100
AcDbSymbolTableRecord
100
AcDbLayerTableRecord
  2
28
 70
     0
 62
     7
  6
Continuous
290
     1
370
    -3
390
F
  0
LAYER
  5
45
330
2
100
AcDbSymbolTableRecord
100
AcDbLayerTableRecord
  2
29
 70
     0
 62
     7
  6
Continuous
290
     1
370
    -3
390
F
  0
LAYER
  5
46
330
2
100
AcDbSymbolTableRecord
100
AcDbLayerTableRecord
  2
30
 70
     0
 62
     7
  6
Continuous
290
     1
370
    -3
390
F
  0
LAYER
  5
47
330
2
100
AcDbSymbolTableRecord
100
AcDbLayerTableRecord
  2
31
 70
     0
 62
     7
  6
Continuous
290
     1
370
    -3
390
F
  0
LAYER
  5
48
330
2
100
AcDbSymbolTableRecord
100
AcDbLayerTableRecord
  2
32
 70
     0
 62
     7
  6
Continuous
290
     1
370
    -3
390
F
  0
LAYER
  5
49
330
2
100
AcDbSymbolTableRecord
100
AcDbLayerTableRecord
  2
33
 70
     0
 62
     7
  6
Continuous
290
     1
370
    -3
390
F
  0
LAYER
  5
4A
330
2
100
AcDbSymbolTableRecord
100
AcDbLayerTableRecord
  2
34
 70
     0
 62
     7
  6
Continuous
290
     1
370
    -3
390
F
  0
LAYER
  5
4B
330
2
100
AcDbSymbolTableRecord
100
AcDbLayerTableRecord
  2
35
 70
     0
 62
     7
  6
Continuous
290
     1
370
    -3
390
F
  0
LAYER
  5
4C
330
2
100
AcDbSymbolTableRecord
100
AcDbLayerTableRecord
  2
36
 70
     0
 62
     7
  6
Continuous
290
     1
370
    -3
390
F
  0
LAYER
  5
4D
330
2
100
AcDbSymbolTableRecord
100
AcDbLayerTableRecord
  2
37
 70
     0
 62
     7
  6
Continuous
290
     1
370
    -3
390
F
  0
LAYER
  5
4E
330
2
100
AcDbSymbolTableRecord
100
AcDbLayerTableRecord
  2
38
 70
     0
 62
     7
  6
Continuous
290
     1
370
    -3
390
F
  0
LAYER
  5
4F
330
2
100
AcDbSymbolTableRecord
100
AcDbLayerTableRecord
  2
39
 70
     0
 62
     7
  6
Continuous
290
     1
370
    -3
390
F
  0
LAYER
  5
50
330
2
100
AcDbSymbolTableRecord
100
AcDbLayerTableRecord
  2
40
 70
     0
 62
     7
  6
Continuous
290
     1
370
    -3
390
F
  0
LAYER
  5
51
330
2
100
AcDbSymbolTableRecord
100
AcDbLayerTableRecord
  2
41
 70
     0
 62
     7
  6
Continuous
290
     1
370
    -3
390
F
  0
LAYER
  5
52
330
2
100
AcDbSymbolTableRecord
100
AcDbLayerTableRecord
  2
42
 70
     0
 62
     7
  6
Continuous
290
     1
370
    -3
390
F
  0
LAYER
  5
53
330
2
100
AcDbSymbolTableRecord
100
AcDbLayerTableRecord
  2
43
 70
     0
 62
     7
  6
Continuous
290
     1
370
    -3
390
F
  0
LAYER
  5
54
330
2
100
AcDbSymbolTableRecord
100
AcDbLayerTableRecord
  2
44
 70
     0
 62
     7
  6
Continuous
290
     1
370
    -3
390
F
  0
LAYER
  5
55
330
2
100
AcDbSymbolTableRecord
100
AcDbLayerTableRecord
  2
45
 70
     0
 62
     7
  6
Continuous
290
     1
370
    -3
390
F
  0
LAYER
  5
56
330
2
100
AcDbSymbolTableRecord
100
AcDbLayerTableRecord
  2
46
 70
     0
 62
     7
  6
Continuous
290
     1
370
    -3
390
F
  0
LAYER
  5
57
330
2
100
AcDbSymbolTableRecord
100
AcDbLayerTableRecord
  2
47
 70
     0
 62
     7
  6
Continuous
290
     1
370
    -3
390
F
  0
LAYER
  5
58
330
2
100
AcDbSymbolTableRecord
100
AcDbLayerTableRecord
  2
48
 70
     0
 62
     7
  6
Continuous
290
     1
370
    -3
390
F
  0
LAYER
  5
59
330
2
100
AcDbSymbolTableRecord
100
AcDbLayerTableRecord
  2
49
 70
     0
 62
     7
  6
Continuous
290
     1
370
    -3
390
F
  0
LAYER
  5
5A
330
2
100
AcDbSymbolTableRecord
100
AcDbLayerTableRecord
  2
50
 70
     0
 62
     7
  6
Continuous
290
     1
370
    -3
390
F
  0
LAYER
  5
5B
330
2
100
AcDbSymbolTableRecord
100
AcDbLayerTableRecord
  2
51
 70
     0
 62
     7
  6
Continuous
290
     1
370
    -3
390
F
  0
LAYER
  5
5C
330
2
100
AcDbSymbolTableRecord
100
AcDbLayerTableRecord
  2
52
 70
     0
 62
     7
  6
Continuous
290
     1
370
    -3
390
F
  0
LAYER
  5
5D
330
2
100
AcDbSymbolTableRecord
100
AcDbLayerTableRecord
  2
53
 70
     0
 62
     7
  6
Continuous
290
     1
370
    -3
390
F
  0
LAYER
  5
5E
330
2
100
AcDbSymbolTableRecord
100
AcDbLayerTableRecord
  2
54
 70
     0
 62
     7
  6
Continuous
290
     1
370
    -3
390
F
  0
LAYER
  5
5F
330
2
100
AcDbSymbolTableRecord
100
AcDbLayerTableRecord
  2
55
 70
     0
 62
     7
  6
Continuous
290
     1
370
    -3
390
F
  0
LAYER
  5
60
330
2
100
AcDbSymbolTableRecord
100
AcDbLayerTableRecord
  2
56
 70
     0
 62
     7
  6
Continuous
290
     1
370
    -3
390
F
  0
LAYER
  5
61
330
2
100
AcDbSymbolTableRecord
100
AcDbLayerTableRecord
  2
57
 70
     0
 62
     7
  6
Continuous
290
     1
370
    -3
390
F
  0
LAYER
  5
62
330
2
100
AcDbSymbolTableRecord
100
AcDbLayerTableRecord
  2
58
 70
     0
 62
     7
  6
Continuous
290
     1
370
    -3
390
F
  0
LAYER
  5
63
330
2
100
AcDbSymbolTableRecord
100
AcDbLayerTableRecord
  2
59
 70
     0
 62
     7
  6
Continuous
290
     1
370
    -3
390
F
  0
LAYER
  5
64
330
2
100
AcDbSymbolTableRecord
100
AcDbLayerTableRecord
  2
60
 70
     0
 62
     7
  6
Continuous
290
     1
370
    -3
390
F
  0
LAYER
  5
65
330
2
100
AcDbSymbolTableRecord
100
AcDbLayerTableRecord
  2
61
 70
     0
 62
     7
  6
Continuous
290
     1
370
    -3
390
F
  0
LAYER
  5
66
330
2
100
AcDbSymbolTableRecord
100
AcDbLayerTableRecord
  2
62
 70
     0
 62
     7
  6
Continuous
290
     1
370
    -3
390
F
  0
LAYER
  5
67
330
2
100
AcDbSymbolTableRecord
100
AcDbLayerTableRecord
  2
63
 70
     0
 62
     7
  6
Continuous
290
     1
370
    -3
390
F
  0
LAYER
  5
68
330
2
100
AcDbSymbolTableRecord
100
AcDbLayerTableRecord
  2
64
 70
     0
 62
     7
  6
Continuous
290
     1
370
    -3
390
F
  0
LAYER
  5
69
330
2
100
AcDbSymbolTableRecord
100
AcDbLayerTableRecord
  2
65
 70
     0
 62
     7
  6
Continuous
290
     1
370
    -3
390
F
  0
LAYER
  5
6A
330
2
100
AcDbSymbolTableRecord
100
AcDbLayerTableRecord
  2
66
 70
     0
 62
     7
  6
Continuous
290
     1
370
    -3
390
F
  0
LAYER
  5
6B
330
2
100
AcDbSymbolTableRecord
100
AcDbLayerTableRecord
  2
67
 70
     0
 62
     7
  6
Continuous
290
     1
370
    -3
390
F
  0
LAYER
  5
6C
330
2
100
AcDbSymbolTableRecord
100
AcDbLayerTableRecord
  2
68
 70
     0
 62
     7
  6
Continuous
290
     1
370
    -3
390
F
  0
LAYER
  5
6D
330
2
100
AcDbSymbolTableRecord
100
AcDbLayerTableRecord
  2
69
 70
     0
 62
     7
  6
Continuous
290
     1
370
    -3
390
F
  0
LAYER
  5
6E
330
2
100
AcDbSymbolTableRecord
100
AcDbLayerTableRecord
  2
70
 70
     0
 62
     7
  6
Continuous
290
     1
370
    -3
390
F
  0
LAYER
  5
6F
330
2
100
AcDbSymbolTableRecord
100
AcDbLayerTableRecord
  2
71
 70
     0
 62
     7
  6
Continuous
290
     1
370
    -3
390
F
  0
LAYER
  5
70
330
2
100
AcDbSymbolTableRecord
100
AcDbLayerTableRecord
  2
72
 70
     0
 62
     7
  6
Continuous
290
     1
370
    -3
390
F
  0
LAYER
  5
71
330
2
100
AcDbSymbolTableRecord
100
AcDbLayerTableRecord
  2
73
 70
     0
 62
     7
  6
Continuous
290
     1
370
    -3
390
F
  0
LAYER
  5
72
330
2
100
AcDbSymbolTableRecord
100
AcDbLayerTableRecord
  2
74
 70
     0
 62
     7
  6
Continuous
290
     1
370
    -3
390
F
  0
LAYER
  5
73
330
2
100
AcDbSymbolTableRecord
100
AcDbLayerTableRecord
  2
75
 70
     0
 62
     7
  6
Continuous
290
     1
370
    -3
390
F
  0
LAYER
  5
74
330
2
100
AcDbSymbolTableRecord
100
AcDbLayerTableRecord
  2
76
 70
     0
 62
     7
  6
Continuous
290
     1
370
    -3
390
F
  0
LAYER
  5
75
330
2
100
AcDbSymbolTableRecord
100
AcDbLayerTableRecord
  2
77
 70
     0
 62
     7
  6
Continuous
290
     1
370
    -3
390
F
  0
LAYER
  5
76
330
2
100
AcDbSymbolTableRecord
100
AcDbLayerTableRecord
  2
78
 70
     0
 62
     7
  6
Continuous
290
     1
370
    -3
390
F
  0
LAYER
  5
77
330
2
100
AcDbSymbolTableRecord
100
AcDbLayerTableRecord
  2
79
 70
     0
 62
     7
  6
Continuous
290
     1
370
    -3
390
F
  0
LAYER
  5
78
330
2
100
AcDbSymbolTableRecord
100
AcDbLayerTableRecord
  2
80
 70
     0
 62
     7
  6
Continuous
290
     1
370
    -3
390
F
  0
LAYER
  5
79
330
2
100
AcDbSymbolTableRecord
100
AcDbLayerTableRecord
  2
81
 70
     0
 62
     7
  6
Continuous
290
     1
370
    -3
390
F
  0
LAYER
  5
7A
330
2
100
AcDbSymbolTableRecord
100
AcDbLayerTableRecord
  2
82
 70
     0
 62
     7
  6
Continuous
290
     1
370
    -3
390
F
  0
LAYER
  5
7B
330
2
100
AcDbSymbolTableRecord
100
AcDbLayerTableRecord
  2
83
 70
     0
 62
     7
  6
Continuous
290
     1
370
    -3
390
F
  0
LAYER
  5
7C
330
2
100
AcDbSymbolTableRecord
100
AcDbLayerTableRecord
  2
84
 70
     0
 62
     7
  6
Continuous
290
     1
370
    -3
390
F
  0
LAYER
  5
7D
330
2
100
AcDbSymbolTableRecord
100
AcDbLayerTableRecord
  2
85
 70
     0
 62
     7
  6
Continuous
290
     1
370
    -3
390
F
  0
LAYER
  5
7E
330
2
100
AcDbSymbolTableRecord
100
AcDbLayerTableRecord
  2
86
 70
     0
 62
     7
  6
Continuous
290
     1
370
    -3
390
F
  0
LAYER
  5
7F
330
2
100
AcDbSymbolTableRecord
100
AcDbLayerTableRecord
  2
87
 70
     0
 62
     7
  6
Continuous
290
     1
370
    -3
390
F
  0
LAYER
  5
80
330
2
100
AcDbSymbolTableRecord
100
AcDbLayerTableRecord
  2
88
 70
     0
 62
     7
  6
Continuous
290
     1
370
    -3
390
F
  0
LAYER
  5
81
330
2
100
AcDbSymbolTableRecord
100
AcDbLayerTableRecord
  2
89
 70
     0
 62
     7
  6
Continuous
290
     1
370
    -3
390
F
  0
LAYER
  5
82
330
2
100
AcDbSymbolTableRecord
100
AcDbLayerTableRecord
  2
90
 70
     0
 62
     7
  6
Continuous
290
     1
370
    -3
390
F
  0
LAYER
  5
83
330
2
100
AcDbSymbolTableRecord
100
AcDbLayerTableRecord
  2
91
 70
     0
 62
     7
  6
Continuous
290
     1
370
    -3
390
F
  0
LAYER
  5
84
330
2
100
AcDbSymbolTableRecord
100
AcDbLayerTableRecord
  2
92
 70
     0
 62
     7
  6
Continuous
290
     1
370
    -3
390
F
  0
LAYER
  5
85
330
2
100
AcDbSymbolTableRecord
100
AcDbLayerTableRecord
  2
93
 70
     0
 62
     7
  6
Continuous
290
     1
370
    -3
390
F
  0
LAYER
  5
86
330
2
100
AcDbSymbolTableRecord
100
AcDbLayerTableRecord
  2
94
 70
     0
 62
     7
  6
Continuous
290
     1
370
    -3
390
F
  0
LAYER
  5
87
330
2
100
AcDbSymbolTableRecord
100
AcDbLayerTableRecord
  2
95
 70
     0
 62
     7
  6
Continuous
290
     1
370
    -3
390
F
  0
LAYER
  5
88
330
2
100
AcDbSymbolTableRecord
100
AcDbLayerTableRecord
  2
96
 70
     0
 62
     7
  6
Continuous
290
     1
370
    -3
390
F
  0
LAYER
  5
89
330
2
100
AcDbSymbolTableRecord
100
AcDbLayerTableRecord
  2
97
 70
     0
 62
     7
  6
Continuous
290
     1
370
    -3
390
F
  0
LAYER
  5
8A
330
2
100
AcDbSymbolTableRecord
100
AcDbLayerTableRecord
  2
98
 70
     0
 62
     7
  6
Continuous
290
     1
370
    -3
390
F
  0
LAYER
  5
8B
330
2
100
AcDbSymbolTableRecord
100
AcDbLayerTableRecord
  2
99
 70
     0
 62
     7
  6
Continuous
290
     1
370
    -3
390
F
  0
LAYER
  5
8C
330
2
100
AcDbSymbolTableRecord
100
AcDbLayerTableRecord
  2
100
 70
     0
 62
     7
  6
Continuous
290
     1
370
    -3
390
F
  0
LAYER
  5
8D
330
2
100
AcDbSymbolTableRecord
100
AcDbLayerTableRecord
  2
101
 70
     0
 62
     7
  6
Continuous
290
     1
370
    -3
390
F
  0
LAYER
  5
8E
330
2
100
AcDbSymbolTableRecord
100
AcDbLayerTableRecord
  2
102
 70
     0
 62
     7
  6
Continuous
290
     1
370
    -3
390
F
  0
LAYER
  5
8F
330
2
100
AcDbSymbolTableRecord
100
AcDbLayerTableRecord
  2
103
 70
     0
 62
     7
  6
Continuous
290
     1
370
    -3
390
F
  0
LAYER
  5
90
330
2
100
AcDbSymbolTableRecord
100
AcDbLayerTableRecord
  2
104
 70
     0
 62
     7
  6
Continuous
290
     1
370
    -3
390
F
  0
LAYER
  5
91
330
2
100
AcDbSymbolTableRecord
100
AcDbLayerTableRecord
  2
105
 70
     0
 62
     7
  6
Continuous
290
     1
370
    -3
390
F
  0
LAYER
  5
92
330
2
100
AcDbSymbolTableRecord
100
AcDbLayerTableRecord
  2
106
 70
     0
 62
     7
  6
Continuous
290
     1
370
    -3
390
F
  0
LAYER
  5
93
330
2
100
AcDbSymbolTableRecord
100
AcDbLayerTableRecord
  2
107
 70
     0
 62
     7
  6
Continuous
290
     1
370
    -3
390
F
  0
LAYER
  5
94
330
2
100
AcDbSymbolTableRecord
100
AcDbLayerTableRecord
  2
108
 70
     0
 62
     7
  6
Continuous
290
     1
370
    -3
390
F
  0
LAYER
  5
95
330
2
100
AcDbSymbolTableRecord
100
AcDbLayerTableRecord
  2
109
 70
     0
 62
     7
  6
Continuous
290
     1
370
    -3
390
F
  0
LAYER
  5
96
330
2
100
AcDbSymbolTableRecord
100
AcDbLayerTableRecord
  2
110
 70
     0
 62
     7
  6
Continuous
290
     1
370
    -3
390
F
  0
LAYER
  5
97
330
2
100
AcDbSymbolTableRecord
100
AcDbLayerTableRecord
  2
111
 70
     0
 62
     7
  6
Continuous
290
     1
370
    -3
390
F
  0
LAYER
  5
98
330
2
100
AcDbSymbolTableRecord
100
AcDbLayerTableRecord
  2
112
 70
     0
 62
     7
  6
Continuous
290
     1
370
    -3
390
F
  0
LAYER
  5
99
330
2
100
AcDbSymbolTableRecord
100
AcDbLayerTableRecord
  2
113
 70
     0
 62
     7
  6
Continuous
290
     1
370
    -3
390
F
  0
LAYER
  5
9A
330
2
100
AcDbSymbolTableRecord
100
AcDbLayerTableRecord
  2
114
 70
     0
 62
     7
  6
Continuous
290
     1
370
    -3
390
F
  0
LAYER
  5
9B
330
2
100
AcDbSymbolTableRecord
100
AcDbLayerTableRecord
  2
115
 70
     0
 62
     7
  6
Continuous
290
     1
370
    -3
390
F
  0
LAYER
  5
9C
330
2
100
AcDbSymbolTableRecord
100
AcDbLayerTableRecord
  2
116
 70
     0
 62
     7
  6
Continuous
290
     1
370
    -3
390
F
  0
LAYER
  5
9D
330
2
100
AcDbSymbolTableRecord
100
AcDbLayerTableRecord
  2
117
 70
     0
 62
     7
  6
Continuous
290
     1
370
    -3
390
F
  0
LAYER
  5
9E
330
2
100
AcDbSymbolTableRecord
100
AcDbLayerTableRecord
  2
118
 70
     0
 62
     7
  6
Continuous
290
     1
370
    -3
390
F
  0
LAYER
  5
9F
330
2
100
AcDbSymbolTableRecord
100
AcDbLayerTableRecord
  2
119
 70
     0
 62
     7
  6
Continuous
290
     1
370
    -3
390
F
  0
LAYER
  5
A0
330
2
100
AcDbSymbolTableRecord
100
AcDbLayerTableRecord
  2
120
 70
     0
 62
     7
  6
Continuous
290
     1
370
    -3
390
F
  0
LAYER
  5
A1
330
2
100
AcDbSymbolTableRecord
100
AcDbLayerTableRecord
  2
121
 70
     0
 62
     7
  6
Continuous
290
     1
370
    -3
390
F
  0
LAYER
  5
A2
330
2
100
AcDbSymbolTableRecord
100
AcDbLayerTableRecord
  2
122
 70
     0
 62
     7
  6
Continuous
290
     1
370
    -3
390
F
  0
LAYER
  5
A3
330
2
100
AcDbSymbolTableRecord
100
AcDbLayerTableRecord
  2
123
 70
     0
 62
     7
  6
Continuous
290
     1
370
    -3
390
F
  0
LAYER
  5
A4
330
2
100
AcDbSymbolTableRecord
100
AcDbLayerTableRecord
  2
124
 70
     0
 62
     7
  6
Continuous
290
     1
370
    -3
390
F
  0
LAYER
  5
A5
330
2
100
AcDbSymbolTableRecord
100
AcDbLayerTableRecord
  2
125
 70
     0
 62
     7
  6
Continuous
290
     1
370
    -3
390
F
  0
LAYER
  5
A6
330
2
100
AcDbSymbolTableRecord
100
AcDbLayerTableRecord
  2
126
 70
     0
 62
     7
  6
Continuous
290
     1
370
    -3
390
F
  0
LAYER
  5
A7
330
2
100
AcDbSymbolTableRecord
100
AcDbLayerTableRecord
  2
127
 70
     0
 62
     7
  6
Continuous
290
     1
370
    -3
390
F
  0
LAYER
  5
A8
330
2
100
AcDbSymbolTableRecord
100
AcDbLayerTableRecord
  2
128
 70
     0
 62
     7
  6
Continuous
290
     1
370
    -3
390
F
  0
ENDTAB
  0
TABLE
  2
STYLE
  5
3
330
0
100
AcDbSymbolTable
 70
     4
  0
STYLE
  5
11
330
3
100
AcDbSymbolTableRecord
100
AcDbTextStyleTableRecord
  2
Standard
 70
     0
 40
0.0
 41
1.0
 50
0.0
 71
     0
 42
2.5
  3
txt.shx
  4
extfont.shx
  0
STYLE
  5
15B
330
3
100
AcDbSymbolTableRecord
100
AcDbTextStyleTableRecord
  2
KANJI0
 70
     0
 40
4.5
 41
0.6
 50
0.0
 71
     0
 42
4.5
  3
txt.shx
  4
extfont.shx
  0
STYLE
  5
161
330
3
100
AcDbSymbolTableRecord
100
AcDbTextStyleTableRecord
  2
KANJI1
 70
     0
 40
4.5
 41
0.9
 50
0.0
 71
     0
 42
4.5
  3
txt.shx
  4
extfont.shx
  0
STYLE
  5
173
330
3
100
AcDbSymbolTableRecord
100
AcDbTextStyleTableRecord
  2
KANJI2
 70
     0
 40
6.0
 41
0.9
 50
0.0
 71
     0
 42
6.0
  3
txt.shx
  4
extfont.shx
  0
ENDTAB
  0
TABLE
  2
VIEW
  5
6
330
0
100
AcDbSymbolTable
 70
     0
  0
ENDTAB
  0
TABLE
  2
UCS
  5
7
330
0
100
AcDbSymbolTable
 70
     0
  0
ENDTAB
  0
TABLE
  2
APPID
  5
9
330
0
100
AcDbSymbolTable
 70
     1
  0
APPID
  5
12
330
9
100
AcDbSymbolTableRecord
100
AcDbRegAppTableRecord
  2
ACAD
 70
     0
  0
ENDTAB
  0
TABLE
  2
DIMSTYLE
  5
A
330
0
100
AcDbSymbolTable
 70
     1
100
AcDbDimStyleTable
 71
     0
  0
DIMSTYLE
105
27
330
A
100
AcDbSymbolTableRecord
100
AcDbDimStyleTableRecord
  2
ISO-25
 70
    64
  3

  4

 40
1.0
 41
2.5
 42
0.625
 43
3.75
 44
1.25
 45
0.0
 46
0.0
 47
0.0
 48
0.0
 71
     0
 72
     0
 73
     0
 74
     0
 75
     0
 76
     0
 77
     1
 78
     8
 79
     0
140
2.5
141
2.5
142
0.0
143
0.039370079
144
1.0
145
0.0
146
1.0
147
0.625
148
0.0
170
     0
171
     3
172
     1
173
     0
174
     0
175
     0
176
     0
177
     0
178
     0
179
     0
270
     2
271
     2
272
     2
273
     2
274
     3
275
     0
276
     0
277
     2
278
    46
279
     0
280
     0
281
     0
282
     0
283
     1
284
     8
285
     0
286
     0
288
     0
289
     3
340
11
341
0
342
0
343
0
344
0
371
    -2
372
    -2
  0
ENDTAB
  0
TABLE
  2
BLOCK_RECORD
  5
1
330
0
100
AcDbSymbolTable
 70
     3
  0
BLOCK_RECORD
  5
1F
330
1
100
AcDbSymbolTableRecord
100
AcDbBlockTableRecord
  2
*Model_Space
340
22
  0
BLOCK_RECORD
  5
1B
330
1
100
AcDbSymbolTableRecord
100
AcDbBlockTableRecord
  2
*Paper_Space
340
1E
  0
BLOCK_RECORD
  5
23
330
1
100
AcDbSymbolTableRecord
100
AcDbBlockTableRecord
  2
*Paper_Space0
340
26
  0
ENDTAB
  0
ENDSEC
  0
SECTION
  2
BLOCKS
  0
BLOCK
  5
1C
330
1B
100
AcDbEntity
 67
     1
  8
0
100
AcDbBlockBegin
  2
*Paper_Space
 70
     0
 10
0.0
 20
0.0
 30
0.0
  3
*Paper_Space
  1

  0
ENDBLK
  5
1D
330
1B
100
AcDbEntity
  8
0
100
AcDbBlockEnd
  0
BLOCK
  5
20
330
1F
100
AcDbEntity
  8
0
100
AcDbBlockBegin
  2
*Model_Space
 70
     0
 10
0.0
 20
0.0
 30
0.0
  3
*Model_Space
  1

  0
ENDBLK
  5
21
330
1F
100
AcDbEntity
  8
0
100
AcDbBlockEnd
  0
BLOCK
  5
24
330
23
100
AcDbEntity
 67
     1
  8
0
100
AcDbBlockBegin
  2
*Paper_Space0
 70
     0
 10
0.0
 20
0.0
 30
0.0
  3
*Paper_Space0
  1

  0
ENDBLK
  5
25
330
23
100
AcDbEntity
  8
0
100
AcDbBlockEnd
  0
ENDSEC
  0
SECTION
  2
ENTITIES
  0
LINE
  5
A9
330
1F
100
AcDbEntity
  8
0
  6
Continuous
 62
     1
100
AcDbLine
 10
181.708136062
 20
100.82
 30
0.0
 11
181.708136062
 21
99.82
 31
0.0
  0
LINE
  5
AA
330
1F
100
AcDbEntity
  8
0
  6
Continuous
 62
     1
100
AcDbLine
 10
155.708136062
 20
100.82
 30
0.0
 11
155.708136062
 21
99.82
 31
0.0
  0
LINE
  5
AB
330
1F
100
AcDbEntity
  8
0
  6
Continuous
 62
     2
100
AcDbLine
 10
179.708136062
 20
64.82
 30
0.0
 11
179.708136062
 21
67.82
 31
0.0
  0
LINE
  5
AC
330
1F
100
AcDbEntity
  8
0
  6
Continuous
 62
     2
100
AcDbLine
 10
178.708136062
 20
67.82
 30
0.0
 11
178.708136062
 21
64.82
 31
0.0
  0
LINE
  5
AD
330
1F
100
AcDbEntity
  8
0
  6
Continuous
 62
     2
100
AcDbLine
 10
177.708136062
 20
64.82
 30
0.0
 11
177.708136062
 21
67.82
 31
0.0
  0
LINE
  5
AE
330
1F
100
AcDbEntity
  8
0
  6
Continuous
 62
     2
100
AcDbLine
 10
176.708136062
 20
67.82
 30
0.0
 11
176.708136062
 21
64.82
 31
0.0
  0
LINE
  5
AF
330
1F
100
AcDbEntity
  8
0
  6
Continuous
 62
     2
100
AcDbLine
 10
175.708136062
 20
64.82
 30
0.0
 11
175.708136062
 21
67.82
 31
0.0
  0
LINE
  5
B0
330
1F
100
AcDbEntity
  8
0
  6
Continuous
 62
     2
100
AcDbLine
 10
174.708136062
 20
67.82
 30
0.0
 11
174.708136062
 21
64.82
 31
0.0
  0
LINE
  5
B1
330
1F
100
AcDbEntity
  8
0
  6
Continuous
 62
     2
100
AcDbLine
 10
173.708136062
 20
64.82
 30
0.0
 11
173.708136062
 21
67.82
 31
0.0
  0
LINE
  5
B2
330
1F
100
AcDbEntity
  8
0
  6
Continuous
 62
     2
100
AcDbLine
 10
172.708136062
 20
67.82
 30
0.0
 11
172.708136062
 21
64.82
 31
0.0
  0
LINE
  5
B3
330
1F
100
AcDbEntity
  8
0
  6
Continuous
 62
     2
100
AcDbLine
 10
171.708136062
 20
64.82
 30
0.0
 11
171.708136062
 21
67.82
 31
0.0
  0
LINE
  5
B4
330
1F
100
AcDbEntity
  8
0
  6
Continuous
 62
     2
100
AcDbLine
 10
170.708136062
 20
67.82
 30
0.0
 11
170.708136062
 21
64.82
 31
0.0
  0
LINE
  5
B5
330
1F
100
AcDbEntity
  8
0
  6
Continuous
 62
     2
100
AcDbLine
 10
169.708136062
 20
64.82
 30
0.0
 11
169.708136062
 21
67.82
 31
0.0
  0
LINE
  5
B6
330
1F
100
AcDbEntity
  8
0
  6
Continuous
 62
     2
100
AcDbLine
 10
168.708136062
 20
67.82
 30
0.0
 11
168.708136062
 21
64.82
 31
0.0
  0
LINE
  5
B7
330
1F
100
AcDbEntity
  8
0
  6
Continuous
 62
     2
100
AcDbLine
 10
167.708136062
 20
64.82
 30
0.0
 11
167.708136062
 21
67.82
 31
0.0
  0
LINE
  5
B8
330
1F
100
AcDbEntity
  8
0
  6
Continuous
 62
     2
100
AcDbLine
 10
166.708136062
 20
67.82
 30
0.0
 11
166.708136062
 21
64.82
 31
0.0
  0
LINE
  5
B9
330
1F
100
AcDbEntity
  8
0
  6
Continuous
 62
     2
100
AcDbLine
 10
165.708136062
 20
64.82
 30
0.0
 11
165.708136062
 21
67.82
 31
0.0
  0
LINE
  5
BA
330
1F
100
AcDbEntity
  8
0
  6
Continuous
 62
     2
100
AcDbLine
 10
164.708136062
 20
67.82
 30
0.0
 11
164.708136062
 21
64.82
 31
0.0
  0
LINE
  5
BB
330
1F
100
AcDbEntity
  8
0
  6
Continuous
 62
     2
100
AcDbLine
 10
163.708136062
 20
64.82
 30
0.0
 11
163.708136062
 21
67.82
 31
0.0
  0
LINE
  5
BC
330
1F
100
AcDbEntity
  8
0
  6
Continuous
 62
     2
100
AcDbLine
 10
162.708136062
 20
67.82
 30
0.0
 11
162.708136062
 21
64.82
 31
0.0
  0
LINE
  5
BD
330
1F
100
AcDbEntity
  8
0
  6
Continuous
 62
     2
100
AcDbLine
 10
161.708136062
 20
64.82
 30
0.0
 11
161.708136062
 21
67.82
 31
0.0
  0
LINE
  5
BE
330
1F
100
AcDbEntity
  8
0
  6
Continuous
 62
     2
100
AcDbLine
 10
159.708136062
 20
64.82
 30
0.0
 11
159.708136062
 21
67.82
 31
0.0
  0
LINE
  5
BF
330
1F
100
AcDbEntity
  8
0
  6
Continuous
 62
     2
100
AcDbLine
 10
158.708136062
 20
67.82
 30
0.0
 11
158.708136062
 21
64.82
 31
0.0
  0
LINE
  5
C0
330
1F
100
AcDbEntity
  8
0
  6
Continuous
 62
     2
100
AcDbLine
 10
157.708136062
 20
64.82
 30
0.0
 11
157.708136062
 21
67.82
 31
0.0
  0
LINE
  5
C1
330
1F
100
AcDbEntity
  8
0
  6
Continuous
 62
     1
100
AcDbLine
 10
181.708136062
 20
79.82
 30
0.0
 11
181.708136062
 21
68.82
 31
0.0
  0
LINE
  5
C2
330
1F
100
AcDbEntity
  8
0
  6
Continuous
 62
     1
100
AcDbLine
 10
180.708136062
 20
67.82
 30
0.0
 11
181.708136062
 21
68.82
 31
0.0
  0
LINE
  5
C3
330
1F
100
AcDbEntity
  8
0
  6
Continuous
 62
     1
100
AcDbLine
 10
155.708136062
 20
79.82
 30
0.0
 11
155.708136062
 21
68.82
 31
0.0
  0
LINE
  5
C4
330
1F
100
AcDbEntity
  8
0
  6
Continuous
 62
     1
100
AcDbLine
 10
180.708136062
 20
67.82
 30
0.0
 11
156.708136062
 21
67.82
 31
0.0
  0
LINE
  5
C5
330
1F
100
AcDbEntity
  8
0
  6
Continuous
 62
     1
100
AcDbLine
 10
155.708136062
 20
68.82
 30
0.0
 11
156.708136062
 21
67.82
 31
0.0
  0
LINE
  5
C6
330
1F
100
AcDbEntity
  8
0
  6
Continuous
 62
     2
100
AcDbLine
 10
155.708136062
 20
68.82
 30
0.0
 11
181.708136062
 21
68.82
 31
0.0
  0
LINE
  5
C8
330
1F
100
AcDbEntity
  8
0
  6
LTYPE1
 62
     2
100
AcDbLine
 10
168.708136062
 20
134.02
 30
0.0
 11
168.708136062
 21
60.82
 31
0.0
  0
LINE
  5
C9
330
1F
100
AcDbEntity
  8
0
  6
Continuous
 62
     2
100
AcDbLine
 10
187.308136062
 20
116.32
 30
0.0
 11
185.308136062
 21
116.32
 31
0.0
  0
LINE
  5
CA
330
1F
100
AcDbEntity
  8
0
  6
Continuous
 62
     2
100
AcDbLine
 10
187.308136062
 20
105.32
 30
0.0
 11
185.308136062
 21
105.32
 31
0.0
  0
LINE
  5
CB
330
1F
100
AcDbEntity
  8
0
  6
Continuous
 62
     2
100
AcDbLine
 10
187.308136062
 20
116.32
 30
0.0
 11
187.308136062
 21
105.32
 31
0.0
  0
LINE
  5
CC
330
1F
100
AcDbEntity
  8
0
  6
Continuous
 62
     2
100
AcDbLine
 10
186.308136062
 20
97.82
 30
0.0
 11
186.308136062
 21
81.82
 31
0.0
  0
LINE
  5
CD
330
1F
100
AcDbEntity
  8
0
  6
Continuous
 62
     2
100
AcDbLine
 10
186.308136062
 20
97.82
 30
0.0
 11
185.308136062
 21
97.82
 31
0.0
  0
LINE
  5
CE
330
1F
100
AcDbEntity
  8
0
  6
Continuous
 62
     2
100
AcDbLine
 10
186.308136062
 20
81.82
 30
0.0
 11
185.308136062
 21
81.82
 31
0.0
  0
LINE
  5
CF
330
1F
100
AcDbEntity
  8
0
  6
Continuous
 62
     2
100
AcDbLine
 10
186.308136062
 20
96.82
 30
0.0
 11
192.308136062
 21
94.82
 31
0.0
  0
LINE
  5
D0
330
1F
100
AcDbEntity
  8
0
  6
Continuous
 62
     2
100
AcDbLine
 10
186.308136062
 20
82.82
 30
0.0
 11
192.308136062
 21
84.82
 31
0.0
  0
LINE
  5
D1
330
1F
100
AcDbEntity
  8
0
  6
Continuous
 62
     2
100
AcDbLine
 10
192.308136062
 20
94.82
 30
0.0
 11
192.308136062
 21
84.82
 31
0.0
  0
LINE
  5
D2
330
1F
100
AcDbEntity
  8
0
  6
Continuous
 62
     2
100
AcDbLine
 10
196.308136062
 20
106.32
 30
0.0
 11
186.308136062
 21
96.82
 31
0.0
  0
LINE
  5
D3
330
1F
100
AcDbEntity
  8
0
  6
Continuous
 62
     2
100
AcDbLine
 10
186.308136062
 20
82.82
 30
0.0
 11
196.308136062
 21
73.32
 31
0.0
  0
LINE
  5
D4
330
1F
100
AcDbEntity
  8
0
  6
Continuous
 62
     2
100
AcDbLine
 10
196.308136062
 20
81.82
 30
0.0
 11
192.308136062
 21
84.82
 31
0.0
  0
LINE
  5
D5
330
1F
100
AcDbEntity
  8
0
  6
Continuous
 62
     2
100
AcDbLine
 10
192.308136062
 20
94.82
 30
0.0
 11
196.308136062
 21
97.82
 31
0.0
  0
ARC
  5
D6
330
1F
100
AcDbEntity
  8
0
  6
Continuous
 62
     2
100
AcDbCircle
 10
196.961970903
 20
102.07
 30
0.0
 40
4.3
100
AcDbArc
 50
261.253986717
 51
98.746013283
  0
ARC
  5
D7
330
1F
100
AcDbEntity
  8
0
  6
Continuous
 62
     2
100
AcDbCircle
 10
196.961970903
 20
77.57
 30
0.0
 40
4.3
100
AcDbArc
 50
261.253986717
 51
98.746013283
  0
LINE
  5
D8
330
1F
100
AcDbEntity
  8
0
  6
Continuous
 62
     2
100
AcDbLine
 10
152.108136062
 20
80.82
 30
0.0
 11
150.508136062
 21
80.82
 31
0.0
  0
LINE
  5
D9
330
1F
100
AcDbEntity
  8
0
  6
Continuous
 62
     2
100
AcDbLine
 10
150.508136062
 20
98.82
 30
0.0
 11
150.508136062
 21
80.82
 31
0.0
  0
LINE
  5
DA
330
1F
100
AcDbEntity
  8
0
  6
Continuous
 62
     2
100
AcDbLine
 10
152.108136062
 20
98.82
 30
0.0
 11
150.508136062
 21
98.82
 31
0.0
  0
ARC
  5
DB
330
1F
100
AcDbEntity
  8
0
  6
Continuous
 62
     2
100
AcDbCircle
 10
155.758136062
 20
89.82
 30
0.0
 40
8.75
100
AcDbArc
 50
126.869897646
 51
233.130102354
  0
LINE
  5
DC
330
1F
100
AcDbEntity
  8
0
  6
Continuous
 62
     2
100
AcDbLine
 10
152.108136062
 20
114.82
 30
0.0
 11
150.608136062
 21
110.82
 31
0.0
  0
LINE
  5
DD
330
1F
100
AcDbEntity
  8
0
  6
Continuous
 62
     2
100
AcDbLine
 10
150.608136062
 20
110.82
 30
0.0
 11
152.108136062
 21
106.82
 31
0.0
  0
LINE
  5
DE
330
1F
100
AcDbEntity
  8
0
  6
Continuous
 62
     1
100
AcDbLine
 10
185.308136062
 20
80.82
 30
0.0
 11
183.708136062
 21
80.82
 31
0.0
  0
LINE
  5
DF
330
1F
100
AcDbEntity
  8
0
  6
Continuous
 62
     1
100
AcDbLine
 10
152.108136062
 20
80.82
 30
0.0
 11
153.708136062
 21
80.82
 31
0.0
  0
LINE
  5
E0
330
1F
100
AcDbEntity
  8
0
  6
Continuous
 62
     2
100
AcDbLine
 10
152.108136062
 20
88.459320225
 30
0.0
 11
153.708136062
 21
88.459320225
 31
0.0
  0
LINE
  5
E1
330
1F
100
AcDbEntity
  8
0
  6
Continuous
 62
     2
100
AcDbLine
 10
185.308136062
 20
88.459320225
 30
0.0
 11
183.708136062
 21
88.459320225
 31
0.0
  0
LINE
  5
E2
330
1F
100
AcDbEntity
  8
0
  6
Continuous
 62
     2
100
AcDbLine
 10
183.708136062
 20
120.82
 30
0.0
 11
183.708136062
 21
80.82
 31
0.0
  0
LINE
  5
E3
330
1F
100
AcDbEntity
  8
0
  6
Continuous
 62
     2
100
AcDbLine
 10
155.708136062
 20
120.82
 30
0.0
 11
183.708136062
 21
120.82
 31
0.0
  0
LINE
  5
E4
330
1F
100
AcDbEntity
  8
0
  6
Continuous
 62
     2
100
AcDbLine
 10
153.708136062
 20
120.82
 30
0.0
 11
153.708136062
 21
80.82
 31
0.0
  0
LINE
  5
E5
330
1F
100
AcDbEntity
  8
0
  6
Continuous
 62
     1
100
AcDbLine
 10
218.708136062
 20
130.82
 30
0.0
 11
118.708136062
 21
130.82
 31
0.0
  0
LINE
  5
E6
330
1F
100
AcDbEntity
  8
0
  6
Continuous
 62
     1
100
AcDbLine
 10
118.708136062
 20
130.82
 30
0.0
 11
118.708136062
 21
126.82
 31
0.0
  0
ARC
  5
E7
330
1F
100
AcDbEntity
  8
0
  6
Continuous
 62
     1
100
AcDbCircle
 10
124.708136062
 20
126.82
 30
0.0
 40
6.0
100
AcDbArc
 50
180.0
 51
270.0
  0
LINE
  5
E8
330
1F
100
AcDbEntity
  8
0
  6
Continuous
 62
     1
100
AcDbLine
 10
218.708136062
 20
130.82
 30
0.0
 11
218.708136062
 21
126.82
 31
0.0
  0
LINE
  5
E9
330
1F
100
AcDbEntity
  8
0
  6
Continuous
 62
     1
100
AcDbLine
 10
212.708136062
 20
120.82
 30
0.0
 11
124.708136062
 21
120.82
 31
0.0
  0
ARC
  5
EA
330
1F
100
AcDbEntity
  8
0
  6
Continuous
 62
     1
100
AcDbCircle
 10
212.708136062
 20
126.82
 30
0.0
 40
6.0
100
AcDbArc
 50
270.0
 51
0.0
  0
LINE
  5
EC
330
1F
100
AcDbEntity
  8
0
  6
LTYPE2
 62
     2
100
AcDbLine
 10
180.708136062
 20
121.82
 30
0.0
 11
156.708136062
 21
121.82
 31
0.0
  0
LINE
  5
ED
330
1F
100
AcDbEntity
  8
0
  6
LTYPE2
 62
     2
100
AcDbLine
 10
155.708136062
 20
120.82
 30
0.0
 11
156.708136062
 21
121.82
 31
0.0
  0
LINE
  5
EE
330
1F
100
AcDbEntity
  8
0
  6
LTYPE2
 62
     2
100
AcDbLine
 10
180.708136062
 20
121.82
 30
0.0
 11
181.708136062
 21
120.82
 31
0.0
  0
LINE
  5
EF
330
1F
100
AcDbEntity
  8
0
  6
LTYPE2
 62
     2
100
AcDbLine
 10
155.708136062
 20
79.82
 30
0.0
 11
155.708136062
 21
99.82
 31
0.0
  0
LINE
  5
F0
330
1F
100
AcDbEntity
  8
0
  6
LTYPE2
 62
     2
100
AcDbLine
 10
181.708136062
 20
100.82
 30
0.0
 11
181.708136062
 21
120.82
 31
0.0
  0
LINE
  5
F1
330
1F
100
AcDbEntity
  8
0
  6
Continuous
 62
     1
100
AcDbLine
 10
185.308136062
 20
120.82
 30
0.0
 11
185.308136062
 21
80.82
 31
0.0
  0
LINE
  5
F2
330
1F
100
AcDbEntity
  8
0
  6
Continuous
 62
     1
100
AcDbLine
 10
183.708136062
 20
120.82
 30
0.0
 11
183.708136062
 21
80.82
 31
0.0
  0
LINE
  5
F3
330
1F
100
AcDbEntity
  8
0
  6
Continuous
 62
     1
100
AcDbLine
 10
153.708136062
 20
120.82
 30
0.0
 11
153.708136062
 21
80.82
 31
0.0
  0
LINE
  5
F4
330
1F
100
AcDbEntity
  8
0
  6
Continuous
 62
     1
100
AcDbLine
 10
152.108136062
 20
120.82
 30
0.0
 11
152.108136062
 21
80.82
 31
0.0
  0
LINE
  5
F5
330
1F
100
AcDbEntity
  8
0
  6
LTYPE2
 62
     2
100
AcDbLine
 10
191.608136062
 20
130.82
 30
0.0
 11
191.608136062
 21
129.22
 31
0.0
  0
LINE
  5
F7
330
1F
100
AcDbEntity
  8
0
  6
LTYPE3
 62
     2
100
AcDbLine
 10
198.708136062
 20
143.72
 30
0.0
 11
198.708136062
 21
112.97
 31
0.0
  0
LINE
  5
F8
330
1F
100
AcDbEntity
  8
0
  6
LTYPE3
 62
     2
100
AcDbLine
 10
138.708136062
 20
143.72
 30
0.0
 11
138.708136062
 21
112.97
 31
0.0
  0
LINE
  5
F9
330
1F
100
AcDbEntity
  8
0
  6
Continuous
 62
     2
100
AcDbLine
 10
194.508136062
 20
86.82
 30
0.0
 11
195.508136062
 21
87.82
 31
0.0
  0
LINE
  5
FA
330
1F
100
AcDbEntity
  8
0
  6
Continuous
 62
     2
100
AcDbLine
 10
195.508136062
 20
87.82
 30
0.0
 11
195.508136062
 21
91.82
 31
0.0
  0
LINE
  5
FB
330
1F
100
AcDbEntity
  8
0
  6
Continuous
 62
     2
100
AcDbLine
 10
195.508136062
 20
91.82
 30
0.0
 11
194.508136062
 21
92.82
 31
0.0
  0
LINE
  5
FC
330
1F
100
AcDbEntity
  8
0
  6
Continuous
 62
     2
100
AcDbLine
 10
194.508136062
 20
86.82
 30
0.0
 11
194.508136062
 21
92.82
 31
0.0
  0
LINE
  5
FD
330
1F
100
AcDbEntity
  8
0
  6
Continuous
 62
     2
100
AcDbLine
 10
194.508136062
 20
92.82
 30
0.0
 11
192.308136062
 21
92.82
 31
0.0
  0
LINE
  5
FE
330
1F
100
AcDbEntity
  8
0
  6
Continuous
 62
     2
100
AcDbLine
 10
192.308136062
 20
91.82
 30
0.0
 11
195.508136062
 21
91.82
 31
0.0
  0
LINE
  5
FF
330
1F
100
AcDbEntity
  8
0
  6
Continuous
 62
     2
100
AcDbLine
 10
195.508136062
 20
87.82
 30
0.0
 11
192.308136062
 21
87.82
 31
0.0
  0
LINE
  5
100
330
1F
100
AcDbEntity
  8
0
  6
Continuous
 62
     2
100
AcDbLine
 10
192.308136062
 20
86.82
 30
0.0
 11
194.508136062
 21
86.82
 31
0.0
  0
LINE
  5
101
330
1F
100
AcDbEntity
  8
0
  6
Continuous
 62
     2
100
AcDbLine
 10
160.708136062
 20
67.82
 30
0.0
 11
160.708136062
 21
64.82
 31
0.0
  0
LINE
  5
102
330
1F
100
AcDbEntity
  8
0
  6
Continuous
 62
     1
100
AcDbLine
 10
180.708136062
 20
64.82
 30
0.0
 11
156.708136062
 21
64.82
 31
0.0
  0
LINE
  5
103
330
1F
100
AcDbEntity
  8
0
  6
Continuous
 62
     1
100
AcDbLine
 10
180.708136062
 20
67.82
 30
0.0
 11
180.708136062
 21
64.82
 31
0.0
  0
LINE
  5
104
330
1F
100
AcDbEntity
  8
0
  6
Continuous
 62
     1
100
AcDbLine
 10
156.708136062
 20
67.82
 30
0.0
 11
156.708136062
 21
64.82
 31
0.0
  0
LINE
  5
105
330
1F
100
AcDbEntity
  8
0
  6
Continuous
 62
     1
100
AcDbLine
 10
153.708136062
 20
100.82
 30
0.0
 11
155.708136062
 21
100.82
 31
0.0
  0
LINE
  5
106
330
1F
100
AcDbEntity
  8
0
  6
Continuous
 62
     1
100
AcDbLine
 10
153.708136062
 20
99.82
 30
0.0
 11
155.708136062
 21
99.82
 31
0.0
  0
ARC
  5
107
330
1F
100
AcDbEntity
  8
0
  6
Continuous
 62
     1
100
AcDbCircle
 10
147.401512199
 20
110.82
 30
0.0
 40
13.0
100
AcDbArc
 50
309.715137232
 51
50.284862768
  0
ARC
  5
108
330
1F
100
AcDbEntity
  8
0
  6
Continuous
 62
     1
100
AcDbCircle
 10
147.401512199
 20
89.82
 30
0.0
 40
13.0
100
AcDbArc
 50
309.715137232
 51
50.284862768
  0
ARC
  5
109
330
1F
100
AcDbEntity
  8
0
  6
Continuous
 62
     1
100
AcDbCircle
 10
190.014759925
 20
110.82
 30
0.0
 40
13.0
100
AcDbArc
 50
129.715137232
 51
230.284862768
  0
ARC
  5
10A
330
1F
100
AcDbEntity
  8
0
  6
Continuous
 62
     1
100
AcDbCircle
 10
190.014759925
 20
89.82
 30
0.0
 40
13.0
100
AcDbArc
 50
129.715137232
 51
230.284862768
  0
LINE
  5
10B
330
1F
100
AcDbEntity
  8
0
  6
Continuous
 62
     1
100
AcDbLine
 10
183.708136062
 20
100.82
 30
0.0
 11
181.708136062
 21
100.82
 31
0.0
  0
LINE
  5
10C
330
1F
100
AcDbEntity
  8
0
  6
Continuous
 62
     1
100
AcDbLine
 10
183.708136062
 20
99.82
 30
0.0
 11
181.708136062
 21
99.82
 31
0.0
  0
LINE
  5
10D
330
1F
100
AcDbEntity
  8
0
  6
Continuous
 62
     1
100
AcDbLine
 10
153.708136062
 20
120.82
 30
0.0
 11
155.708136062
 21
120.82
 31
0.0
  0
LINE
  5
10E
330
1F
100
AcDbEntity
  8
0
  6
Continuous
 62
     1
100
AcDbLine
 10
183.708136062
 20
120.82
 30
0.0
 11
181.708136062
 21
120.82
 31
0.0
  0
LINE
  5
10F
330
1F
100
AcDbEntity
  8
0
  6
Continuous
 62
     1
100
AcDbLine
 10
153.708136062
 20
79.82
 30
0.0
 11
155.708136062
 21
79.82
 31
0.0
  0
LINE
  5
110
330
1F
100
AcDbEntity
  8
0
  6
Continuous
 62
     1
100
AcDbLine
 10
153.708136062
 20
80.82
 30
0.0
 11
153.708136062
 21
79.82
 31
0.0
  0
LINE
  5
111
330
1F
100
AcDbEntity
  8
0
  6
Continuous
 62
     1
100
AcDbLine
 10
183.708136062
 20
79.82
 30
0.0
 11
181.708136062
 21
79.82
 31
0.0
  0
LINE
  5
112
330
1F
100
AcDbEntity
  8
0
  6
Continuous
 62
     1
100
AcDbLine
 10
183.708136062
 20
80.82
 30
0.0
 11
183.708136062
 21
79.82
 31
0.0
  0
ELLIPSE
  5
113
330
1F
100
AcDbEntity
  8
0
  6
Continuous
 62
     2
100
AcDbEllipse
 10
138.708136062
 20
121.12
 30
0.0
 11
7.5
 21
0.0
 31
0.0
 40
0.76
 41
3.194248562
 42
6.230529399
  0
ELLIPSE
  5
114
330
1F
100
AcDbEntity
  8
0
  6
Continuous
 62
     2
100
AcDbEllipse
 10
198.708136062
 20
121.12
 30
0.0
 11
7.5
 21
0.0
 31
0.0
 40
0.76
 41
3.194248562
 42
6.230529399
  0
LINE
  5
115
330
1F
100
AcDbEntity
  8
0
  6
Continuous
 62
     2
100
AcDbLine
 10
137.208136062
 20
141.62
 30
0.0
 11
136.208136062
 21
140.62
 31
0.0
  0
LINE
  5
116
330
1F
100
AcDbEntity
  8
0
  6
Continuous
 62
     2
100
AcDbLine
 10
136.208136062
 20
140.62
 30
0.0
 11
136.208136062
 21
130.82
 31
0.0
  0
LINE
  5
117
330
1F
100
AcDbEntity
  8
0
  6
Continuous
 62
     2
100
AcDbLine
 10
137.208136062
 20
141.62
 30
0.0
 11
137.208136062
 21
130.82
 31
0.0
  0
LINE
  5
118
330
1F
100
AcDbEntity
  8
0
  6
Continuous
 62
     2
100
AcDbLine
 10
141.208136062
 20
140.62
 30
0.0
 11
140.208136062
 21
141.62
 31
0.0
  0
LINE
  5
119
330
1F
100
AcDbEntity
  8
0
  6
Continuous
 62
     2
100
AcDbLine
 10
141.208136062
 20
130.82
 30
0.0
 11
141.208136062
 21
140.62
 31
0.0
  0
LINE
  5
11A
330
1F
100
AcDbEntity
  8
0
  6
Continuous
 62
     2
100
AcDbLine
 10
140.208136062
 20
141.62
 30
0.0
 11
140.208136062
 21
130.82
 31
0.0
  0
LINE
  5
11B
330
1F
100
AcDbEntity
  8
0
  6
Continuous
 62
     2
100
AcDbLine
 10
140.208136062
 20
141.62
 30
0.0
 11
137.208136062
 21
141.62
 31
0.0
  0
LINE
  5
11C
330
1F
100
AcDbEntity
  8
0
  6
Continuous
 62
     2
100
AcDbLine
 10
136.208136062
 20
140.62
 30
0.0
 11
141.208136062
 21
140.62
 31
0.0
  0
LINE
  5
11D
330
1F
100
AcDbEntity
  8
0
  6
Continuous
 62
     2
100
AcDbLine
 10
196.208136062
 20
130.82
 30
0.0
 11
196.208136062
 21
140.62
 31
0.0
  0
LINE
  5
11E
330
1F
100
AcDbEntity
  8
0
  6
Continuous
 62
     2
100
AcDbLine
 10
196.208136062
 20
140.62
 30
0.0
 11
197.208136062
 21
141.62
 31
0.0
  0
LINE
  5
11F
330
1F
100
AcDbEntity
  8
0
  6
Continuous
 62
     2
100
AcDbLine
 10
197.208136062
 20
141.62
 30
0.0
 11
197.208136062
 21
130.82
 31
0.0
  0
LINE
  5
120
330
1F
100
AcDbEntity
  8
0
  6
Continuous
 62
     2
100
AcDbLine
 10
200.208136062
 20
141.62
 30
0.0
 11
201.208136062
 21
140.62
 31
0.0
  0
LINE
  5
121
330
1F
100
AcDbEntity
  8
0
  6
Continuous
 62
     2
100
AcDbLine
 10
201.208136062
 20
140.62
 30
0.0
 11
201.208136062
 21
130.82
 31
0.0
  0
LINE
  5
122
330
1F
100
AcDbEntity
  8
0
  6
Continuous
 62
     2
100
AcDbLine
 10
200.208136062
 20
141.62
 30
0.0
 11
200.208136062
 21
130.82
 31
0.0
  0
LINE
  5
123
330
1F
100
AcDbEntity
  8
0
  6
Continuous
 62
     2
100
AcDbLine
 10
197.208136062
 20
141.62
 30
0.0
 11
200.208136062
 21
141.62
 31
0.0
  0
LINE
  5
124
330
1F
100
AcDbEntity
  8
0
  6
Continuous
 62
     2
100
AcDbLine
 10
196.208136062
 20
140.62
 30
0.0
 11
201.208136062
 21
140.62
 31
0.0
  0
LINE
  5
125
330
1F
100
AcDbEntity
  8
0
  6
LTYPE2
 62
     2
100
AcDbLine
 10
131.608136062
 20
130.82
 30
0.0
 11
131.608136062
 21
129.22
 31
0.0
  0
LINE
  5
126
330
1F
100
AcDbEntity
  8
0
  6
LTYPE2
 62
     2
100
AcDbLine
 10
135.608136062
 20
129.22
 30
0.0
 11
135.608136062
 21
127.62
 31
0.0
  0
LINE
  5
127
330
1F
100
AcDbEntity
  8
0
  6
LTYPE2
 62
     2
100
AcDbLine
 10
132.708136062
 20
127.62
 30
0.0
 11
132.708136062
 21
126.62
 31
0.0
  0
ELLIPSE
  5
128
330
1F
100
AcDbEntity
  8
0
  6
LTYPE2
 62
     2
100
AcDbEllipse
 10
138.708136062
 20
121.12
 30
0.0
 11
7.5
 21
0.0
 31
0.0
 40
0.76
 41
1.910633236
 42
3.194248562
  0
LINE
  5
129
330
1F
100
AcDbEntity
  8
0
  6
LTYPE2
 62
     2
100
AcDbLine
 10
136.208136062
 20
130.82
 30
0.0
 11
136.208136062
 21
126.494011537
 31
0.0
  0
ARC
  5
12A
330
1F
100
AcDbEntity
  8
0
  6
LTYPE2
 62
     2
100
AcDbCircle
 10
150.108136062
 20
125.62
 30
0.0
 40
3.6
100
AcDbArc
 50
0.000030354
 51
90.0
  0
ARC
  5
12B
330
1F
100
AcDbEntity
  8
0
  6
LTYPE2
 62
     2
100
AcDbCircle
 10
150.108136062
 20
125.62
 30
0.0
 40
2.0
100
AcDbArc
 50
0.000054642
 51
90.0
  0
LINE
  5
12C
330
1F
100
AcDbEntity
  8
0
  6
LTYPE2
 62
     2
100
AcDbLine
 10
153.708136062
 20
125.620001907
 30
0.0
 11
153.708136062
 21
120.82
 31
0.0
  0
LINE
  5
12D
330
1F
100
AcDbEntity
  8
0
  6
LTYPE2
 62
     2
100
AcDbLine
 10
152.108136062
 20
125.620001907
 30
0.0
 11
152.108136062
 21
120.82
 31
0.0
  0
LINE
  5
12E
330
1F
100
AcDbEntity
  8
0
  6
LTYPE2
 62
     2
100
AcDbLine
 10
145.808136062
 20
130.82
 30
0.0
 11
145.808136062
 21
129.22
 31
0.0
  0
LINE
  5
12F
330
1F
100
AcDbEntity
  8
0
  6
LTYPE2
 62
     2
100
AcDbLine
 10
141.808136062
 20
129.22
 30
0.0
 11
141.808136062
 21
127.62
 31
0.0
  0
LINE
  5
130
330
1F
100
AcDbEntity
  8
0
  6
LTYPE2
 62
     2
100
AcDbLine
 10
144.708136062
 20
126.62
 30
0.0
 11
144.708136062
 21
127.62
 31
0.0
  0
ELLIPSE
  5
131
330
1F
100
AcDbEntity
  8
0
  6
LTYPE2
 62
     2
100
AcDbEllipse
 10
138.708136062
 20
121.12
 30
0.0
 11
7.5
 21
0.0
 31
0.0
 40
0.76
 41
6.230529399
 42
1.230959417
  0
LINE
  5
132
330
1F
100
AcDbEntity
  8
0
  6
LTYPE2
 62
     2
100
AcDbLine
 10
141.208136062
 20
126.494011537
 30
0.0
 11
141.208136062
 21
130.82
 31
0.0
  0
LINE
  5
133
330
1F
100
AcDbEntity
  8
0
  6
LTYPE2
 62
     2
100
AcDbLine
 10
118.708136062
 20
127.62
 30
0.0
 11
150.108136062
 21
127.62
 31
0.0
  0
LINE
  5
134
330
1F
100
AcDbEntity
  8
0
  6
LTYPE2
 62
     2
100
AcDbLine
 10
132.708136062
 20
126.62
 30
0.0
 11
144.708136062
 21
126.62
 31
0.0
  0
LINE
  5
135
330
1F
100
AcDbEntity
  8
0
  6
LTYPE2
 62
     2
100
AcDbLine
 10
155.708136062
 20
100.82
 30
0.0
 11
155.708136062
 21
120.82
 31
0.0
  0
LINE
  5
136
330
1F
100
AcDbEntity
  8
0
  6
LTYPE2
 62
     2
100
AcDbLine
 10
159.208136062
 20
75.82
 30
0.0
 11
157.708136062
 21
121.82
 31
0.0
  0
LINE
  5
137
330
1F
100
AcDbEntity
  8
0
  6
LTYPE2
 62
     2
100
AcDbLine
 10
185.308136062
 20
113.82
 30
0.0
 11
152.108136062
 21
113.82
 31
0.0
  0
LINE
  5
138
330
1F
100
AcDbEntity
  8
0
  6
LTYPE2
 62
     2
100
AcDbLine
 10
185.308136062
 20
107.82
 30
0.0
 11
152.108136062
 21
107.82
 31
0.0
  0
LINE
  5
139
330
1F
100
AcDbEntity
  8
0
  6
LTYPE2
 62
     2
100
AcDbLine
 10
161.858136062
 20
77.82
 30
0.0
 11
161.858136062
 21
67.82
 31
0.0
  0
LINE
  5
13A
330
1F
100
AcDbEntity
  8
0
  6
LTYPE2
 62
     2
100
AcDbLine
 10
164.708136062
 20
77.82
 30
0.0
 11
164.708136062
 21
64.82
 31
0.0
  0
LINE
  5
13B
330
1F
100
AcDbEntity
  8
0
  6
LTYPE2
 62
     2
100
AcDbLine
 10
172.708136062
 20
77.82
 30
0.0
 11
172.708136062
 21
64.82
 31
0.0
  0
LINE
  5
13C
330
1F
100
AcDbEntity
  8
0
  6
LTYPE2
 62
     2
100
AcDbLine
 10
178.208136062
 20
75.82
 30
0.0
 11
179.708136062
 21
121.82
 31
0.0
  0
LINE
  5
13D
330
1F
100
AcDbEntity
  8
0
  6
LTYPE2
 62
     2
100
AcDbLine
 10
175.558136062
 20
77.82
 30
0.0
 11
175.558136062
 21
67.82
 31
0.0
  0
LINE
  5
13E
330
1F
100
AcDbEntity
  8
0
  6
LTYPE2
 62
     2
100
AcDbLine
 10
175.558136062
 20
77.82
 30
0.0
 11
161.858136062
 21
77.82
 31
0.0
  0
LINE
  5
13F
330
1F
100
AcDbEntity
  8
0
  6
LTYPE2
 62
     2
100
AcDbLine
 10
159.208136062
 20
75.82
 30
0.0
 11
178.208136062
 21
75.82
 31
0.0
  0
LINE
  5
140
330
1F
100
AcDbEntity
  8
0
  6
LTYPE2
 62
     2
100
AcDbLine
 10
181.708136062
 20
79.82
 30
0.0
 11
181.708136062
 21
99.82
 31
0.0
  0
LINE
  5
141
330
1F
100
AcDbEntity
  8
0
  6
LTYPE2
 62
     2
100
AcDbLine
 10
185.308136062
 20
92.82
 30
0.0
 11
152.108136062
 21
92.82
 31
0.0
  0
LINE
  5
142
330
1F
100
AcDbEntity
  8
0
  6
LTYPE2
 62
     2
100
AcDbLine
 10
185.308136062
 20
86.82
 30
0.0
 11
152.108136062
 21
86.82
 31
0.0
  0
ARC
  5
143
330
1F
100
AcDbEntity
  8
0
  6
LTYPE2
 62
     2
100
AcDbCircle
 10
187.308136062
 20
125.62
 30
0.0
 40
2.0
100
AcDbArc
 50
90.0
 51
179.999945358
  0
ARC
  5
144
330
1F
100
AcDbEntity
  8
0
  6
LTYPE2
 62
     2
100
AcDbCircle
 10
187.308136062
 20
125.62
 30
0.0
 40
3.6
100
AcDbArc
 50
90.0
 51
179.999969646
  0
LINE
  5
145
330
1F
100
AcDbEntity
  8
0
  6
LTYPE2
 62
     2
100
AcDbLine
 10
185.308136062
 20
125.620001907
 30
0.0
 11
185.308136062
 21
120.82
 31
0.0
  0
LINE
  5
146
330
1F
100
AcDbEntity
  8
0
  6
LTYPE2
 62
     2
100
AcDbLine
 10
183.708136062
 20
125.620001907
 30
0.0
 11
183.708136062
 21
120.82
 31
0.0
  0
LINE
  5
147
330
1F
100
AcDbEntity
  8
0
  6
LTYPE2
 62
     2
100
AcDbLine
 10
195.608136062
 20
129.22
 30
0.0
 11
195.608136062
 21
127.62
 31
0.0
  0
LINE
  5
148
330
1F
100
AcDbEntity
  8
0
  6
LTYPE2
 62
     2
100
AcDbLine
 10
192.708136062
 20
126.62
 30
0.0
 11
192.708136062
 21
127.62
 31
0.0
  0
ELLIPSE
  5
149
330
1F
100
AcDbEntity
  8
0
  6
LTYPE2
 62
     2
100
AcDbEllipse
 10
198.708136062
 20
121.12
 30
0.0
 11
7.5
 21
0.0
 31
0.0
 40
0.76
 41
1.910633236
 42
3.194248562
  0
LINE
  5
14A
330
1F
100
AcDbEntity
  8
0
  6
LTYPE2
 62
     2
100
AcDbLine
 10
196.208136062
 20
126.494011537
 30
0.0
 11
196.208136062
 21
130.82
 31
0.0
  0
LINE
  5
14B
330
1F
100
AcDbEntity
  8
0
  6
LTYPE2
 62
     2
100
AcDbLine
 10
205.808136062
 20
130.82
 30
0.0
 11
205.808136062
 21
129.22
 31
0.0
  0
LINE
  5
14C
330
1F
100
AcDbEntity
  8
0
  6
LTYPE2
 62
     2
100
AcDbLine
 10
201.808136062
 20
129.22
 30
0.0
 11
201.808136062
 21
127.62
 31
0.0
  0
LINE
  5
14D
330
1F
100
AcDbEntity
  8
0
  6
LTYPE2
 62
     2
100
AcDbLine
 10
204.708136062
 20
127.62
 30
0.0
 11
204.708136062
 21
126.62
 31
0.0
  0
ELLIPSE
  5
14E
330
1F
100
AcDbEntity
  8
0
  6
LTYPE2
 62
     2
100
AcDbEllipse
 10
198.708136062
 20
121.12
 30
0.0
 11
7.5
 21
0.0
 31
0.0
 40
0.76
 41
6.230529399
 42
1.230959417
  0
LINE
  5
14F
330
1F
100
AcDbEntity
  8
0
  6
LTYPE2
 62
     2
100
AcDbLine
 10
201.208136062
 20
130.82
 30
0.0
 11
201.208136062
 21
126.494011537
 31
0.0
  0
LINE
  5
150
330
1F
100
AcDbEntity
  8
0
  6
LTYPE2
 62
     2
100
AcDbLine
 10
218.708136062
 20
129.22
 30
0.0
 11
118.708136062
 21
129.22
 31
0.0
  0
LINE
  5
151
330
1F
100
AcDbEntity
  8
0
  6
LTYPE2
 62
     2
100
AcDbLine
 10
218.708136062
 20
127.62
 30
0.0
 11
187.308136062
 21
127.62
 31
0.0
  0
LINE
  5
152
330
1F
100
AcDbEntity
  8
0
  6
LTYPE2
 62
     2
100
AcDbLine
 10
204.708136062
 20
126.62
 30
0.0
 11
192.708136062
 21
126.62
 31
0.0
  0
LINE
  5
153
330
1F
100
AcDbEntity
  8
7
  6
Continuous
 62
     2
100
AcDbLine
 10
220.208136062
 20
130.82
 30
0.0
 11
233.708136062
 21
130.82
 31
0.0
  0
LINE
  5
154
330
1F
100
AcDbEntity
  8
7
  6
Continuous
 62
     2
100
AcDbLine
 10
230.708136062
 20
130.82
 30
0.0
 11
229.737564643
 21
127.197778151
 31
0.0
  0
LINE
  5
155
330
1F
100
AcDbEntity
  8
7
  6
Continuous
 62
     2
100
AcDbLine
 10
230.708136062
 20
130.82
 30
0.0
 11
231.678707481
 21
127.197778151
 31
0.0
  0
LWPOLYLINE
  5
157
330
1F
100
AcDbEntity
  8
7
  6
Continuous
 62
     2
100
AcDbPolyline
 90
     3
 70
   128
 43
0.0
 10
230.708136062
 20
130.82
 10
230.708136062
 20
64.82
 10
231.678707481
 20
68.442221849
  0
LINE
  5
158
330
1F
100
AcDbEntity
  8
7
  6
Continuous
 62
     2
100
AcDbLine
 10
230.708136062
 20
64.82
 30
0.0
 11
229.737564643
 21
68.442221849
 31
0.0
  0
LINE
  5
159
330
1F
100
AcDbEntity
  8
7
  6
Continuous
 62
     2
100
AcDbLine
 10
182.208136062
 20
64.82
 30
0.0
 11
233.708136062
 21
64.82
 31
0.0
  0
TEXT
  5
15A
330
1F
100
AcDbEntity
  8
7
  6
Continuous
 62
     2
100
AcDbText
 10
229.208136062
 20
91.745
 30
0.0
 40
4.5
  1
(66)
 50
90.0
 41
0.6
  7
KANJI0
 72
     5
 11
229.208136062
 21
103.895
 31
0.0
100
AcDbText
  0
LINE
  5
15C
330
1F
100
AcDbEntity
  8
7
  6
Continuous
 62
     2
100
AcDbLine
 10
176.458136062
 20
72.084
 30
0.0
 11
178.047694544
 21
68.687560124
 31
0.0
  0
LINE
  5
15D
330
1F
100
AcDbEntity
  8
7
  6
Continuous
 62
     2
100
AcDbLine
 10
176.458136062
 20
72.084
 30
0.0
 11
179.532954026
 21
69.937376026
 31
0.0
  0
LWPOLYLINE
  5
15F
330
1F
100
AcDbEntity
  8
7
  6
Continuous
 62
     2
100
AcDbPolyline
 90
     3
 70
   128
 43
0.0
 10
176.458136062
 20
72.084
 10
190.833136062
 20
55.001
 10
212.883136062
 20
55.001
  0
TEXT
  5
160
330
1F
100
AcDbEntity
  8
7
  6
Continuous
 62
     2
100
AcDbText
 10
190.833136062
 20
56.501
 30
0.0
 40
4.5
  1
"5/8"
 41
0.9
  7
KANJI1
 72
     5
 11
212.883136062
 21
56.501
 31
0.0
100
AcDbText
  0
LINE
  5
162
330
1F
100
AcDbEntity
  8
7
  6
Continuous
 62
     2
100
AcDbLine
 10
165.208136062
 20
71.043
 30
0.0
 11
166.725995414
 21
67.613918055
 31
0.0
  0
LINE
  5
163
330
1F
100
AcDbEntity
  8
7
  6
Continuous
 62
     2
100
AcDbLine
 10
165.208136062
 20
71.043
 30
0.0
 11
168.237181793
 21
68.8322576
 31
0.0
  0
LWPOLYLINE
  5
165
330
1F
100
AcDbEntity
  8
7
  6
Continuous
 62
     2
100
AcDbPolyline
 90
     3
 70
   128
 43
0.0
 10
165.208136062
 20
71.043
 10
186.875136062
 20
44.168
 10
208.925136062
 20
44.168
  0
TEXT
  5
166
330
1F
100
AcDbEntity
  8
7
  6
Continuous
 62
     2
100
AcDbText
 10
186.875136062
 20
45.668
 30
0.0
 40
4.5
  1
"3/8"
 41
0.9
  7
KANJI1
 72
     5
 11
208.925136062
 21
45.668
 31
0.0
100
AcDbText
  0
LWPOLYLINE
  5
168
330
1F
100
AcDbEntity
  8
2
  6
Continuous
 62
     2
100
AcDbPolyline
 90
     4
 70
   129
 43
0.0
 10
15.0
 20
15.0
 10
427.5
 20
15.0
 10
427.5
 20
300.0
 10
15.0
 20
300.0
  0
LINE
  5
169
330
1F
100
AcDbEntity
  8
2
  6
Continuous
 62
     2
100
AcDbLine
 10
322.5
 20
24.0
 30
0.0
 11
427.5
 21
24.0
 31
0.0
  0
LINE
  5
16A
330
1F
100
AcDbEntity
  8
2
  6
Continuous
 62
     2
100
AcDbLine
 10
427.5
 20
33.0
 30
0.0
 11
322.5
 21
33.0
 31
0.0
  0
LINE
  5
16B
330
1F
100
AcDbEntity
  8
2
  6
Continuous
 62
     2
100
AcDbLine
 10
322.5
 20
42.0
 30
0.0
 11
427.5
 21
42.0
 31
0.0
  0
LINE
  5
16C
330
1F
100
AcDbEntity
  8
2
  6
Continuous
 62
     2
100
AcDbLine
 10
427.5
 20
51.0
 30
0.0
 11
322.5
 21
51.0
 31
0.0
  0
LINE
  5
16D
330
1F
100
AcDbEntity
  8
2
  6
Continuous
 62
     2
100
AcDbLine
 10
322.5
 20
60.0
 30
0.0
 11
427.5
 21
60.0
 31
0.0
  0
LWPOLYLINE
  5
16F
330
1F
100
AcDbEntity
  8
2
  6
Continuous
 62
     2
100
AcDbPolyline
 90
     3
 70
   128
 43
0.0
 10
427.5
 20
69.0
 10
322.5
 20
69.0
 10
322.5
 20
15.0
  0
TEXT
  5
170
330
1F
100
AcDbEntity
  8
2
  6
Continuous
 62
     2
100
AcDbText
 10
326.25
 20
44.25
 30
0.0
 40
4.5
  1
黒色半艶消し焼付け塗装
 41
0.9
  7
KANJI1
 72
     5
 11
375.3
 21
44.25
 31
0.0
100
AcDbText
  0
TEXT
  5
171
330
1F
100
AcDbEntity
  8
2
  6
Continuous
 62
     2
100
AcDbText
 10
326.25
 20
17.25
 30
0.0
 40
4.5
  1
尺度  2/3
 41
0.9
  7
KANJI1
 72
     5
 11
357.3
 21
17.25
 31
0.0
100
AcDbText
  0
TEXT
  5
172
330
1F
100
AcDbEntity
  8
2
  6
Continuous
 62
     2
100
AcDbText
 10
326.25
 20
61.5
 30
0.0
 40
6.0
  1
MFH-2A
 41
0.9
  7
KANJI2
 72
     5
 11
361.65
 21
61.5
 31
0.0
100
AcDbText
  0
TEXT
  5
174
330
1F
100
AcDbEntity
  8
2
  6
Continuous
 62
     2
100
AcDbText
 10
326.25
 20
53.25
 30
0.0
 40
4.5
  1
マイクスタンド用スピーカー取付金具(横向き)
 41
0.9
  7
KANJI1
 72
     5
 11
420.75
 21
53.25
 31
0.0
100
AcDbText
  0
TEXT
  5
175
330
1F
100
AcDbEntity
  8
2
  6
Continuous
 62
     2
100
AcDbText
 10
326.25
 20
35.25
 30
0.0
 40
4.5
  1
自重  0.28kg
 41
0.9
  7
KANJI1
 72
     5
 11
370.8
 21
35.25
 31
0.0
100
AcDbText
  0
TEXT
  5
176
330
1F
100
AcDbEntity
  8
2
  6
Continuous
 62
     2
100
AcDbText
 10
326.25
 20
26.25
 30
0.0
 40
4.5
  1
使用重  5~6kg(程度迄)
 41
0.9
  7
KANJI1
 72
     5
 11
393.3
 21
26.25
 31
0.0
100
AcDbText
  0
LINE
  5
177
330
1F
100
AcDbEntity
  8
7
  6
Continuous
 62
     2
100
AcDbLine
 10
138.708136062
 20
145.22
 30
0.0
 11
138.708136062
 21
156.62
 31
0.0
  0
LINE
  5
178
330
1F
100
AcDbEntity
  8
7
  6
Continuous
 62
     2
100
AcDbLine
 10
138.708136062
 20
153.62
 30
0.0
 11
142.33035791
 21
152.649428581
 31
0.0
  0
LINE
  5
179
330
1F
100
AcDbEntity
  8
7
  6
Continuous
 62
     2
100
AcDbLine
 10
138.708136062
 20
153.62
 30
0.0
 11
142.33035791
 21
154.590571419
 31
0.0
  0
LWPOLYLINE
  5
17B
330
1F
100
AcDbEntity
  8
7
  6
Continuous
 62
     2
100
AcDbPolyline
 90
     3
 70
   128
 43
0.0
 10
138.708136062
 20
153.62
 10
198.708136062
 20
153.62
 10
195.085914213
 20
154.590571419
  0
LINE
  5
17C
330
1F
100
AcDbEntity
  8
7
  6
Continuous
 62
     2
100
AcDbLine
 10
198.708136062
 20
153.62
 30
0.0
 11
195.085914213
 21
152.649428581
 31
0.0
  0
LINE
  5
17D
330
1F
100
AcDbEntity
  8
7
  6
Continuous
 62
     2
100
AcDbLine
 10
198.708136062
 20
145.22
 30
0.0
 11
198.708136062
 21
156.62
 31
0.0
  0
TEXT
  5
17E
330
1F
100
AcDbEntity
  8
7
  6
Continuous
 62
     2
100
AcDbText
 10
165.783136062
 20
155.12
 30
0.0
 40
4.5
  1
60
 41
0.6
  7
KANJI0
 72
     5
 11
171.633136062
 21
155.12
 31
0.0
100
AcDbText
  0
LINE
  5
17F
330
1F
100
AcDbEntity
  8
7
  6
Continuous
 62
     2
100
AcDbLine
 10
203.700136062
 20
138.47
 30
0.0
 11
206.947731326
 21
140.345
 31
0.0
  0
LINE
  5
180
330
1F
100
AcDbEntity
  8
7
  6
Continuous
 62
     2
100
AcDbLine
 10
203.700136062
 20
138.47
 30
0.0
 11
205.575136062
 21
141.717595264
 31
0.0
  0
LWPOLYLINE
  5
182
330
1F
100
AcDbEntity
  8
7
  6
Continuous
 62
     2
100
AcDbPolyline
 90
     3
 70
   128
 43
0.0
 10
203.700136062
 20
138.47
 10
216.300136062
 20
151.07
 10
247.350136062
 20
151.07
  0
TEXT
  5
183
330
1F
100
AcDbEntity
  8
7
  6
Continuous
 62
     2
100
AcDbText
 10
216.300136062
 20
152.57
 30
0.0
 40
4.5
  1
M5つまみねじ
 41
0.9
  7
KANJI1
 72
     5
 11
247.350136062
 21
152.57
 31
0.0
100
AcDbText
  0
LINE
  5
184
330
1F
100
AcDbEntity
  8
0
  6
LTYPE1
 62
     2
100
AcDbLine
 10
116.176085254
 20
219.02
 30
0.0
 11
221.376085254
 21
219.02
 31
0.0
  0
LINE
  5
185
330
1F
100
AcDbEntity
  8
0
  6
Continuous
 62
     1
100
AcDbLine
 10
218.708136062
 20
194.02
 30
0.0
 11
218.708136062
 21
244.02
 31
0.0
  0
LINE
  5
186
330
1F
100
AcDbEntity
  8
0
  6
Continuous
 62
     1
100
AcDbLine
 10
118.708136062
 20
194.02
 30
0.0
 11
218.708136062
 21
194.02
 31
0.0
  0
LINE
  5
187
330
1F
100
AcDbEntity
  8
0
  6
Continuous
 62
     1
100
AcDbLine
 10
118.708136062
 20
194.02
 30
0.0
 11
118.708136062
 21
244.02
 31
0.0
  0
LINE
  5
188
330
1F
100
AcDbEntity
  8
0
  6
Continuous
 62
     1
100
AcDbLine
 10
118.708136062
 20
244.02
 30
0.0
 11
218.708136062
 21
244.02
 31
0.0
  0
CIRCLE
  5
189
330
1F
100
AcDbEntity
  8
0
  6
Continuous
 62
     1
100
AcDbCircle
 10
193.708136062
 20
234.02
 30
0.0
 40
2.1
  0
CIRCLE
  5
18A
330
1F
100
AcDbEntity
  8
0
  6
Continuous
 62
     1
100
AcDbCircle
 10
193.708136062
 20
204.02
 30
0.0
 40
2.1
  0
CIRCLE
  5
18B
330
1F
100
AcDbEntity
  8
0
  6
Continuous
 62
     1
100
AcDbCircle
 10
143.708136062
 20
234.02
 30
0.0
 40
2.1
  0
CIRCLE
  5
18C
330
1F
100
AcDbEntity
  8
0
  6
Continuous
 62
     1
100
AcDbCircle
 10
143.708136062
 20
204.02
 30
0.0
 40
2.1
  0
CIRCLE
  5
18D
330
1F
100
AcDbEntity
  8
0
  6
Continuous
 62
     1
100
AcDbCircle
 10
198.708136062
 20
219.02
 30
0.0
 40
7.1
  0
CIRCLE
  5
18E
330
1F
100
AcDbEntity
  8
0
  6
Continuous
 62
     1
100
AcDbCircle
 10
198.708136062
 20
219.02
 30
0.0
 40
2.5
  0
CIRCLE
  5
18F
330
1F
100
AcDbEntity
  8
0
  6
Continuous
 62
     1
100
AcDbCircle
 10
198.708136062
 20
219.02
 30
0.0
 40
6.0
  0
LINE
  5
190
330
1F
100
AcDbEntity
  8
0
  6
Continuous
 62
     2
100
AcDbLine
 10
196.908136062
 20
220.82
 30
0.0
 11
194.508136062
 21
223.32
 31
0.0
  0
CIRCLE
  5
191
330
1F
100
AcDbEntity
  8
0
  6
Continuous
 62
     1
100
AcDbCircle
 10
138.708136062
 20
219.02
 30
0.0
 40
7.1
  0
CIRCLE
  5
192
330
1F
100
AcDbEntity
  8
0
  6
Continuous
 62
     1
100
AcDbCircle
 10
138.708136062
 20
219.02
 30
0.0
 40
2.5
  0
CIRCLE
  5
193
330
1F
100
AcDbEntity
  8
0
  6
Continuous
 62
     1
100
AcDbCircle
 10
138.708136062
 20
219.02
 30
0.0
 40
6.0
  0
LINE
  5
194
330
1F
100
AcDbEntity
  8
0
  6
Continuous
 62
     2
100
AcDbLine
 10
136.908136062
 20
220.82
 30
0.0
 11
134.508136062
 21
223.32
 31
0.0
  0
CIRCLE
  5
195
330
1F
100
AcDbEntity
  8
0
  6
LTYPE2
 62
     2
100
AcDbCircle
 10
138.708136062
 20
219.02
 30
0.0
 40
3.1
  0
ARC
  5
196
330
1F
100
AcDbEntity
  8
0
  6
Continuous
 62
     2
100
AcDbCircle
 10
314.573892324
 20
219.02
 30
0.0
 40
10.0
100
AcDbArc
 50
81.890150066
 51
123.98173366
  0
ARC
  5
197
330
1F
100
AcDbEntity
  8
0
  6
Continuous
 62
     2
100
AcDbCircle
 10
314.573892324
 20
219.02
 30
0.0
 40
10.0
100
AcDbArc
 50
236.01826634
 51
278.109849934
  0
CIRCLE
  5
198
330
1F
100
AcDbEntity
  8
0
  6
Continuous
 62
     2
100
AcDbCircle
 10
314.573892324
 20
219.02
 30
0.0
 40
3.1
  0
CIRCLE
  5
199
330
1F
100
AcDbEntity
  8
0
  6
Continuous
 62
     2
100
AcDbCircle
 10
314.573892324
 20
219.02
 30
0.0
 40
5.0
  0
LINE
  5
19A
330
1F
100
AcDbEntity
  8
0
  6
Continuous
 62
     2
100
AcDbLine
 10
298.073892324
 20
217.02
 30
0.0
 11
298.073892324
 21
221.02
 31
0.0
  0
LINE
  5
19B
330
1F
100
AcDbEntity
  8
0
  6
Continuous
 62
     2
100
AcDbLine
 10
298.073892324
 20
221.02
 30
0.0
 11
309.991316629
 21
221.02
 31
0.0
  0
LINE
  5
19C
330
1F
100
AcDbEntity
  8
0
  6
Continuous
 62
     2
100
AcDbLine
 10
319.156468019
 20
217.02
 30
0.0
 11
331.073892324
 21
217.02
 31
0.0
  0
LINE
  5
19D
330
1F
100
AcDbEntity
  8
0
  6
Continuous
 62
     2
100
AcDbLine
 10
298.073892324
 20
217.02
 30
0.0
 11
309.991316629
 21
217.02
 31
0.0
  0
ARC
  5
19E
330
1F
100
AcDbEntity
  8
0
  6
Continuous
 62
     2
100
AcDbCircle
 10
314.573892324
 20
219.02
 30
0.0
 40
7.0
100
AcDbArc
 50
16.601549599
 51
163.398450401
  0
ARC
  5
19F
330
1F
100
AcDbEntity
  8
0
  6
Continuous
 62
     2
100
AcDbCircle
 10
314.573892324
 20
219.02
 30
0.0
 40
7.0
100
AcDbArc
 50
196.601549599
 51
343.398450401
  0
ARC
  5
1A0
330
1F
100
AcDbEntity
  8
0
  6
Continuous
 62
     2
100
AcDbCircle
 10
314.573892324
 20
219.02
 30
0.0
 40
8.0
100
AcDbArc
 50
14.477512186
 51
165.522487814
  0
ARC
  5
1A1
330
1F
100
AcDbEntity
  8
0
  6
Continuous
 62
     2
100
AcDbCircle
 10
314.573892324
 20
219.02
 30
0.0
 40
8.0
100
AcDbArc
 50
194.477512186
 51
345.522487814
  0
ARC
  5
1A2
330
1F
100
AcDbEntity
  8
0
  6
Continuous
 62
     2
100
AcDbCircle
 10
314.573892324
 20
219.02
 30
0.0
 40
10.0
100
AcDbArc
 50
11.536959033
 51
31.266559004
  0
ARC
  5
1A3
330
1F
100
AcDbEntity
  8
0
  6
Continuous
 62
     2
100
AcDbCircle
 10
314.573892324
 20
219.02
 30
0.0
 40
10.0
100
AcDbArc
 50
328.733440996
 51
348.463040967
  0
LINE
  5
1A4
330
1F
100
AcDbEntity
  8
0
  6
Continuous
 62
     2
100
AcDbLine
 10
336.573892324
 20
208.02
 30
0.0
 11
339.573892324
 21
208.02
 31
0.0
  0
LINE
  5
1A5
330
1F
100
AcDbEntity
  8
0
  6
Continuous
 62
     2
100
AcDbLine
 10
339.573892324
 20
209.02
 30
0.0
 11
336.573892324
 21
209.02
 31
0.0
  0
LINE
  5
1A6
330
1F
100
AcDbEntity
  8
0
  6
Continuous
 62
     2
100
AcDbLine
 10
336.573892324
 20
210.02
 30
0.0
 11
339.573892324
 21
210.02
 31
0.0
  0
LINE
  5
1A7
330
1F
100
AcDbEntity
  8
0
  6
Continuous
 62
     2
100
AcDbLine
 10
339.573892324
 20
211.02
 30
0.0
 11
336.573892324
 21
211.02
 31
0.0
  0
LINE
  5
1A8
330
1F
100
AcDbEntity
  8
0
  6
Continuous
 62
     2
100
AcDbLine
 10
336.573892324
 20
212.02
 30
0.0
 11
339.573892324
 21
212.02
 31
0.0
  0
LINE
  5
1A9
330
1F
100
AcDbEntity
  8
0
  6
Continuous
 62
     2
100
AcDbLine
 10
339.573892324
 20
213.02
 30
0.0
 11
336.573892324
 21
213.02
 31
0.0
  0
LINE
  5
1AA
330
1F
100
AcDbEntity
  8
0
  6
Continuous
 62
     2
100
AcDbLine
 10
336.573892324
 20
214.02
 30
0.0
 11
339.573892324
 21
214.02
 31
0.0
  0
LINE
  5
1AB
330
1F
100
AcDbEntity
  8
0
  6
Continuous
 62
     2
100
AcDbLine
 10
339.573892324
 20
215.02
 30
0.0
 11
336.573892324
 21
215.02
 31
0.0
  0
LINE
  5
1AC
330
1F
100
AcDbEntity
  8
0
  6
Continuous
 62
     2
100
AcDbLine
 10
336.573892324
 20
216.02
 30
0.0
 11
339.573892324
 21
216.02
 31
0.0
  0
LINE
  5
1AD
330
1F
100
AcDbEntity
  8
0
  6
Continuous
 62
     2
100
AcDbLine
 10
339.573892324
 20
217.02
 30
0.0
 11
336.573892324
 21
217.02
 31
0.0
  0
LINE
  5
1AE
330
1F
100
AcDbEntity
  8
0
  6
Continuous
 62
     2
100
AcDbLine
 10
336.573892324
 20
218.02
 30
0.0
 11
339.573892324
 21
218.02
 31
0.0
  0
LINE
  5
1AF
330
1F
100
AcDbEntity
  8
0
  6
Continuous
 62
     2
100
AcDbLine
 10
339.573892324
 20
219.02
 30
0.0
 11
336.573892324
 21
219.02
 31
0.0
  0
LINE
  5
1B0
330
1F
100
AcDbEntity
  8
0
  6
Continuous
 62
     2
100
AcDbLine
 10
336.573892324
 20
220.02
 30
0.0
 11
339.573892324
 21
220.02
 31
0.0
  0
LINE
  5
1B1
330
1F
100
AcDbEntity
  8
0
  6
Continuous
 62
     2
100
AcDbLine
 10
339.573892324
 20
221.02
 30
0.0
 11
336.573892324
 21
221.02
 31
0.0
  0
LINE
  5
1B2
330
1F
100
AcDbEntity
  8
0
  6
Continuous
 62
     2
100
AcDbLine
 10
336.573892324
 20
222.02
 30
0.0
 11
339.573892324
 21
222.02
 31
0.0
  0
LINE
  5
1B3
330
1F
100
AcDbEntity
  8
0
  6
Continuous
 62
     2
100
AcDbLine
 10
339.573892324
 20
223.02
 30
0.0
 11
336.573892324
 21
223.02
 31
0.0
  0
LINE
  5
1B4
330
1F
100
AcDbEntity
  8
0
  6
Continuous
 62
     2
100
AcDbLine
 10
336.573892324
 20
224.02
 30
0.0
 11
339.573892324
 21
224.02
 31
0.0
  0
LINE
  5
1B5
330
1F
100
AcDbEntity
  8
0
  6
Continuous
 62
     2
100
AcDbLine
 10
339.573892324
 20
225.02
 30
0.0
 11
336.573892324
 21
225.02
 31
0.0
  0
LINE
  5
1B6
330
1F
100
AcDbEntity
  8
0
  6
Continuous
 62
     2
100
AcDbLine
 10
336.573892324
 20
226.02
 30
0.0
 11
339.573892324
 21
226.02
 31
0.0
  0
LINE
  5
1B7
330
1F
100
AcDbEntity
  8
0
  6
Continuous
 62
     2
100
AcDbLine
 10
336.573892324
 20
230.02
 30
0.0
 11
339.573892324
 21
230.02
 31
0.0
  0
ARC
  5
1B8
330
1F
100
AcDbEntity
  8
0
  6
Continuous
 62
     1
100
AcDbCircle
 10
336.573892324
 20
219.02
 30
0.0
 40
2.0
100
AcDbArc
 50
90.0
 51
270.0
  0
LINE
  5
1B9
330
1F
100
AcDbEntity
  8
0
  6
Continuous
 62
     1
100
AcDbLine
 10
335.573892324
 20
232.02
 30
0.0
 11
320.610903993
 21
232.02
 31
0.0
  0
LINE
  5
1BA
330
1F
100
AcDbEntity
  8
0
  6
Continuous
 62
     1
100
AcDbLine
 10
336.573892324
 20
231.02
 30
0.0
 11
335.573892324
 21
232.02
 31
0.0
  0
LINE
  5
1BB
330
1F
100
AcDbEntity
  8
0
  6
Continuous
 62
     1
100
AcDbLine
 10
320.610903993
 20
206.02
 30
0.0
 11
335.573892324
 21
206.02
 31
0.0
  0
LINE
  5
1BC
330
1F
100
AcDbEntity
  8
0
  6
Continuous
 62
     1
100
AcDbLine
 10
336.573892324
 20
207.02
 30
0.0
 11
336.573892324
 21
231.02
 31
0.0
  0
LINE
  5
1BD
330
1F
100
AcDbEntity
  8
0
  6
Continuous
 62
     1
100
AcDbLine
 10
335.573892324
 20
206.02
 30
0.0
 11
336.573892324
 21
207.02
 31
0.0
  0
LINE
  5
1BE
330
1F
100
AcDbEntity
  8
0
  6
Continuous
 62
     2
100
AcDbLine
 10
335.573892324
 20
220.752050808
 30
0.0
 11
335.573892324
 21
232.02
 31
0.0
  0
LINE
  5
1BF
330
1F
100
AcDbEntity
  8
0
  6
Continuous
 62
     2
100
AcDbLine
 10
335.573892324
 20
206.02
 30
0.0
 11
335.573892324
 21
217.287949192
 31
0.0
  0
LINE
  5
1C0
330
1F
100
AcDbEntity
  8
0
  6
Continuous
 62
     2
100
AcDbLine
 10
319.156468019
 20
221.02
 30
0.0
 11
331.073892324
 21
221.02
 31
0.0
  0
LINE
  5
1C1
330
1F
100
AcDbEntity
  8
0
  6
Continuous
 62
     2
100
AcDbLine
 10
331.073892324
 20
217.02
 30
0.0
 11
331.073892324
 21
221.02
 31
0.0
  0
LINE
  5
1C2
330
1F
100
AcDbEntity
  8
0
  6
LTYPE1
 62
     2
100
AcDbLine
 10
293.573892324
 20
219.02
 30
0.0
 11
308.423134729
 21
233.869242405
 31
0.0
  0
LINE
  5
1C3
330
1F
100
AcDbEntity
  8
0
  6
LTYPE1
 62
     2
100
AcDbLine
 10
293.573892324
 20
219.02
 30
0.0
 11
308.423134729
 21
204.170757595
 31
0.0
  0
ARC
  5
1C4
330
1F
100
AcDbEntity
  8
0
  6
Continuous
 62
     1
100
AcDbCircle
 10
293.573892324
 20
219.02
 30
0.0
 40
24.5
100
AcDbArc
 50
18.248293181
 51
45.000008921
  0
ARC
  5
1C5
330
1F
100
AcDbEntity
  8
0
  6
Continuous
 62
     1
100
AcDbCircle
 10
308.423134729
 20
233.869242405
 30
0.0
 40
3.5
100
AcDbArc
 50
45.000062447
 51
224.999937553
  0
ARC
  5
1C6
330
1F
100
AcDbEntity
  8
0
  6
Continuous
 62
     1
100
AcDbCircle
 10
293.573892324
 20
219.02
 30
0.0
 40
17.5
100
AcDbArc
 50
21.628721052
 51
45.000012489
  0
ARC
  5
1C7
330
1F
100
AcDbEntity
  8
0
  6
Continuous
 62
     1
100
AcDbCircle
 10
293.573892324
 20
219.02
 30
0.0
 40
17.5
100
AcDbArc
 50
315.000017663
 51
338.371278948
  0
ARC
  5
1C8
330
1F
100
AcDbEntity
  8
0
  6
Continuous
 62
     1
100
AcDbCircle
 10
308.423134729
 20
204.170757595
 30
0.0
 40
3.5
100
AcDbArc
 50
134.999911686
 51
315.000088314
  0
ARC
  5
1C9
330
1F
100
AcDbEntity
  8
0
  6
Continuous
 62
     1
100
AcDbCircle
 10
293.573892324
 20
219.02
 30
0.0
 40
24.5
100
AcDbArc
 50
315.000012616
 51
341.751706819
  0
ARC
  5
1CA
330
1F
100
AcDbEntity
  8
0
  6
Continuous
 62
     1
100
AcDbCircle
 10
293.573892324
 20
219.02
 30
0.0
 40
30.0
100
AcDbArc
 50
3.822553729
 51
44.427004001
  0
ARC
  5
1CB
330
1F
100
AcDbEntity
  8
0
  6
Continuous
 62
     1
100
AcDbCircle
 10
293.573892324
 20
219.02
 30
0.0
 40
30.0
100
AcDbArc
 50
315.572995999
 51
356.177446271
  0
LINE
  5
1CC
330
1F
100
AcDbEntity
  8
0
  6
Continuous
 62
     1
100
AcDbLine
 10
283.573892324
 20
242.42
 30
0.0
 11
283.573892324
 21
244.02
 31
0.0
  0
LINE
  5
1CD
330
1F
100
AcDbEntity
  8
0
  6
Continuous
 62
     1
100
AcDbLine
 10
277.173892324
 20
242.42
 30
0.0
 11
283.573892324
 21
242.42
 31
0.0
  0
ARC
  5
1CE
330
1F
100
AcDbEntity
  8
0
  6
Continuous
 62
     1
100
AcDbCircle
 10
277.173892324
 20
240.42
 30
0.0
 40
2.0
100
AcDbArc
 50
90.0
 51
180.0
  0
LINE
  5
1CF
330
1F
100
AcDbEntity
  8
0
  6
Continuous
 62
     1
100
AcDbLine
 10
277.173892324
 20
195.62
 30
0.0
 11
283.573892324
 21
195.62
 31
0.0
  0
LINE
  5
1D0
330
1F
100
AcDbEntity
  8
0
  6
Continuous
 62
     1
100
AcDbLine
 10
275.173892324
 20
197.62
 30
0.0
 11
275.173892324
 21
240.42
 31
0.0
  0
ARC
  5
1D1
330
1F
100
AcDbEntity
  8
0
  6
Continuous
 62
     1
100
AcDbCircle
 10
277.173892324
 20
197.62
 30
0.0
 40
2.0
100
AcDbArc
 50
180.0
 51
270.0
  0
LINE
  5
1D2
330
1F
100
AcDbEntity
  8
0
  6
Continuous
 62
     1
100
AcDbLine
 10
277.173892324
 20
244.02
 30
0.0
 11
283.573892324
 21
244.02
 31
0.0
  0
ARC
  5
1D3
330
1F
100
AcDbEntity
  8
0
  6
Continuous
 62
     1
100
AcDbCircle
 10
277.173892324
 20
240.42
 30
0.0
 40
3.6
100
AcDbArc
 50
90.0
 51
180.0
  0
LINE
  5
1D4
330
1F
100
AcDbEntity
  8
0
  6
Continuous
 62
     1
100
AcDbLine
 10
277.173892324
 20
194.02
 30
0.0
 11
283.573892324
 21
194.02
 31
0.0
  0
LINE
  5
1D5
330
1F
100
AcDbEntity
  8
0
  6
Continuous
 62
     1
100
AcDbLine
 10
273.573892324
 20
197.62
 30
0.0
 11
273.573892324
 21
240.42
 31
0.0
  0
ARC
  5
1D6
330
1F
100
AcDbEntity
  8
0
  6
Continuous
 62
     1
100
AcDbCircle
 10
277.173892324
 20
197.62
 30
0.0
 40
3.6
100
AcDbArc
 50
180.0
 51
270.0
  0
LINE
  5
1D7
330
1F
100
AcDbEntity
  8
0
  6
Continuous
 62
     1
100
AcDbLine
 10
276.773892324
 20
198.02
 30
0.0
 11
276.773892324
 21
240.02
 31
0.0
  0
LINE
  5
1D8
330
1F
100
AcDbEntity
  8
0
  6
Continuous
 62
     1
100
AcDbLine
 10
283.573892324
 20
194.02
 30
0.0
 11
283.573892324
 21
195.62
 31
0.0
  0
LINE
  5
1D9
330
1F
100
AcDbEntity
  8
0
  6
Continuous
 62
     1
100
AcDbLine
 10
275.173892324
 20
198.02
 30
0.0
 11
314.99817761
 21
198.02
 31
0.0
  0
LINE
  5
1DA
330
1F
100
AcDbEntity
  8
0
  6
Continuous
 62
     1
100
AcDbLine
 10
275.173892324
 20
240.02
 30
0.0
 11
314.99817761
 21
240.02
 31
0.0
  0
LINE
  5
1DB
330
1F
100
AcDbEntity
  8
0
  6
Continuous
 62
     1
100
AcDbLine
 10
314.340451982
 20
232.02
 30
0.0
 11
305.451552234
 21
232.02
 31
0.0
  0
LINE
  5
1DC
330
1F
100
AcDbEntity
  8
0
  6
Continuous
 62
     1
100
AcDbLine
 10
305.451552234
 20
206.02
 30
0.0
 11
314.340451982
 21
206.02
 31
0.0
  0
LINE
  5
1DD
330
1F
100
AcDbEntity
  8
0
  6
LTYPE2
 62
     2
100
AcDbLine
 10
273.573892324
 20
226.12
 30
0.0
 11
275.173892324
 21
226.12
 31
0.0
  0
LINE
  5
1DE
330
1F
100
AcDbEntity
  8
0
  6
LTYPE2
 62
     2
100
AcDbLine
 10
273.573892324
 20
211.92
 30
0.0
 11
275.173892324
 21
211.92
 31
0.0
  0
LINE
  5
1DF
330
1F
100
AcDbEntity
  8
0
  6
LTYPE2
 62
     2
100
AcDbLine
 10
275.173892324
 20
215.92
 30
0.0
 11
276.773892324
 21
215.92
 31
0.0
  0
LINE
  5
1E0
330
1F
100
AcDbEntity
  8
0
  6
LTYPE2
 62
     2
100
AcDbLine
 10
275.173892324
 20
222.12
 30
0.0
 11
276.773892324
 21
222.12
 31
0.0
  0
LINE
  5
1E1
330
1F
100
AcDbEntity
  8
0
  6
Continuous
 62
     2
100
AcDbLine
 10
339.573892324
 20
227.02
 30
0.0
 11
336.573892324
 21
227.02
 31
0.0
  0
LINE
  5
1E2
330
1F
100
AcDbEntity
  8
0
  6
Continuous
 62
     2
100
AcDbLine
 10
336.573892324
 20
228.02
 30
0.0
 11
339.573892324
 21
228.02
 31
0.0
  0
LINE
  5
1E3
330
1F
100
AcDbEntity
  8
0
  6
Continuous
 62
     2
100
AcDbLine
 10
339.573892324
 20
229.02
 30
0.0
 11
336.573892324
 21
229.02
 31
0.0
  0
LINE
  5
1E4
330
1F
100
AcDbEntity
  8
0
  6
LTYPE1
 62
     2
100
AcDbLine
 10
269.373892324
 20
219.02
 30
0.0
 11
341.791316629
 21
219.02
 31
0.0
  0
LINE
  5
1E5
330
1F
100
AcDbEntity
  8
0
  6
Continuous
 62
     1
100
AcDbLine
 10
336.573892324
 20
207.02
 30
0.0
 11
339.573892324
 21
207.02
 31
0.0
  0
LINE
  5
1E6
330
1F
100
AcDbEntity
  8
0
  6
Continuous
 62
     1
100
AcDbLine
 10
339.573892324
 20
207.02
 30
0.0
 11
336.573892324
 21
207.02
 31
0.0
  0
LINE
  5
1E7
330
1F
100
AcDbEntity
  8
0
  6
Continuous
 62
     1
100
AcDbLine
 10
336.573892324
 20
231.02
 30
0.0
 11
339.573892324
 21
231.02
 31
0.0
  0
LINE
  5
1E8
330
1F
100
AcDbEntity
  8
0
  6
Continuous
 62
     1
100
AcDbLine
 10
339.573892324
 20
231.02
 30
0.0
 11
336.573892324
 21
231.02
 31
0.0
  0
LINE
  5
1E9
330
1F
100
AcDbEntity
  8
0
  6
Continuous
 62
     1
100
AcDbLine
 10
339.573892324
 20
207.02
 30
0.0
 11
339.573892324
 21
231.02
 31
0.0
  0
LINE
  5
1EA
330
1F
100
AcDbEntity
  8
0
  6
Continuous
 62
     2
100
AcDbLine
 10
263.773892324
 20
216.52
 30
0.0
 11
262.773892324
 21
217.52
 31
0.0
  0
LINE
  5
1EB
330
1F
100
AcDbEntity
  8
0
  6
Continuous
 62
     2
100
AcDbLine
 10
262.773892324
 20
217.52
 30
0.0
 11
262.773892324
 21
220.52
 31
0.0
  0
LINE
  5
1EC
330
1F
100
AcDbEntity
  8
0
  6
Continuous
 62
     2
100
AcDbLine
 10
262.773892324
 20
220.52
 30
0.0
 11
263.773892324
 21
221.52
 31
0.0
  0
LINE
  5
1ED
330
1F
100
AcDbEntity
  8
0
  6
Continuous
 62
     2
100
AcDbLine
 10
263.773892324
 20
221.52
 30
0.0
 11
263.773892324
 21
216.52
 31
0.0
  0
LINE
  5
1EE
330
1F
100
AcDbEntity
  8
0
  6
Continuous
 62
     2
100
AcDbLine
 10
263.773892324
 20
221.52
 30
0.0
 11
273.573892324
 21
221.52
 31
0.0
  0
LINE
  5
1EF
330
1F
100
AcDbEntity
  8
0
  6
Continuous
 62
     2
100
AcDbLine
 10
273.573892324
 20
216.52
 30
0.0
 11
263.773892324
 21
216.52
 31
0.0
  0
LINE
  5
1F0
330
1F
100
AcDbEntity
  8
0
  6
Continuous
 62
     2
100
AcDbLine
 10
276.773892324
 20
225.02
 30
0.0
 11
277.773892324
 21
225.02
 31
0.0
  0
ARC
  5
1F1
330
1F
100
AcDbEntity
  8
0
  6
Continuous
 62
     2
100
AcDbCircle
 10
284.873892324
 20
234.32
 30
0.0
 40
14.7
100
AcDbArc
 50
241.1
 51
285.5
  0
LINE
  5
1F2
330
1F
100
AcDbEntity
  8
0
  6
Continuous
 62
     2
100
AcDbLine
 10
277.773892324
 20
213.02
 30
0.0
 11
276.773892324
 21
213.02
 31
0.0
  0
ARC
  5
1F3
330
1F
100
AcDbEntity
  8
0
  6
Continuous
 62
     2
100
AcDbCircle
 10
284.873892324
 20
203.72
 30
0.0
 40
14.7
100
AcDbArc
 50
74.5
 51
118.9
  0
LINE
  5
1F4
330
1F
100
AcDbEntity
  8
0
  6
Continuous
 62
     2
100
AcDbLine
 10
277.773892324
 20
225.02
 30
0.0
 11
277.773892324
 21
213.02
 31
0.0
  0
LINE
  5
1F5
330
1F
100
AcDbEntity
  8
0
  6
Continuous
 62
     2
100
AcDbLine
 10
288.773892324
 20
220.22
 30
0.0
 11
288.773892324
 21
219.02
 31
0.0
  0
LINE
  5
1F6
330
1F
100
AcDbEntity
  8
0
  6
Continuous
 62
     2
100
AcDbLine
 10
288.773892324
 20
217.82
 30
0.0
 11
288.773892324
 21
219.02
 31
0.0
  0
CIRCLE
  5
1F7
330
1F
100
AcDbEntity
  8
0
  6
Continuous
 62
     2
100
AcDbCircle
 10
293.573892324
 20
219.02
 30
0.0
 40
3.1
  0
ARC
  5
1F8
330
1F
100
AcDbEntity
  8
0
  6
Continuous
 62
     2
100
AcDbCircle
 10
293.573892324
 20
219.02
 30
0.0
 40
5.5
100
AcDbArc
 50
190.180396683
 51
338.676313737
  0
ARC
  5
1F9
330
1F
100
AcDbEntity
  8
0
  6
Continuous
 62
     2
100
AcDbCircle
 10
293.573892324
 20
219.02
 30
0.0
 40
5.5
100
AcDbArc
 50
21.323686263
 51
169.819603317
  0
LINE
  5
1FA
330
1F
100
AcDbEntity
  8
0
  6
LTYPE2
 62
     2
100
AcDbLine
 10
118.708136062
 20
240.02
 30
0.0
 11
153.708136062
 21
240.02
 31
0.0
  0
LINE
  5
1FB
330
1F
100
AcDbEntity
  8
0
  6
LTYPE2
 62
     2
100
AcDbLine
 10
183.708136062
 20
240.02
 30
0.0
 11
218.708136062
 21
240.02
 31
0.0
  0
LINE
  5
1FC
330
1F
100
AcDbEntity
  8
0
  6
LTYPE2
 62
     2
100
AcDbLine
 10
177.014759925
 20
229.02
 30
0.0
 11
183.708136062
 21
229.02
 31
0.0
  0
LINE
  5
1FD
330
1F
100
AcDbEntity
  8
0
  6
LTYPE2
 62
     2
100
AcDbLine
 10
153.708136062
 20
229.02
 30
0.0
 11
160.401512199
 21
229.02
 31
0.0
  0
LINE
  5
1FE
330
1F
100
AcDbEntity
  8
0
  6
LTYPE2
 62
     2
100
AcDbLine
 10
158.125130818
 20
222.02
 30
0.0
 11
179.291141306
 21
222.02
 31
0.0
  0
ARC
  5
1FF
330
1F
100
AcDbEntity
  8
0
  6
LTYPE2
 62
     2
100
AcDbCircle
 10
168.708136062
 20
219.02
 30
0.0
 40
4.0
100
AcDbArc
 50
48.590377891
 51
131.409622109
  0
ARC
  5
200
330
1F
100
AcDbEntity
  8
0
  6
LTYPE2
 62
     2
100
AcDbCircle
 10
168.708136062
 20
219.02
 30
0.0
 40
6.85
100
AcDbArc
 50
25.973551479
 51
154.026448521
  0
LINE
  5
201
330
1F
100
AcDbEntity
  8
0
  6
LTYPE2
 62
     2
100
AcDbLine
 10
118.708136062
 20
242.42
 30
0.0
 11
218.708136062
 21
242.42
 31
0.0
  0
LINE
  5
202
330
1F
100
AcDbEntity
  8
0
  6
LTYPE2
 62
     2
100
AcDbLine
 10
118.708136062
 20
198.02
 30
0.0
 11
153.708136062
 21
198.02
 31
0.0
  0
LINE
  5
203
330
1F
100
AcDbEntity
  8
0
  6
LTYPE2
 62
     2
100
AcDbLine
 10
183.708136062
 20
198.02
 30
0.0
 11
218.708136062
 21
198.02
 31
0.0
  0
LINE
  5
204
330
1F
100
AcDbEntity
  8
0
  6
LTYPE2
 62
     2
100
AcDbLine
 10
177.014759925
 20
209.02
 30
0.0
 11
183.708136062
 21
209.02
 31
0.0
  0
LINE
  5
205
330
1F
100
AcDbEntity
  8
0
  6
LTYPE2
 62
     2
100
AcDbLine
 10
153.708136062
 20
209.02
 30
0.0
 11
160.401512199
 21
209.02
 31
0.0
  0
LINE
  5
206
330
1F
100
AcDbEntity
  8
0
  6
LTYPE2
 62
     2
100
AcDbLine
 10
118.708136062
 20
195.62
 30
0.0
 11
218.708136062
 21
195.62
 31
0.0
  0
LINE
  5
207
330
1F
100
AcDbEntity
  8
0
  6
LTYPE2
 62
     2
100
AcDbLine
 10
158.125130818
 20
216.02
 30
0.0
 11
179.291141306
 21
216.02
 31
0.0
  0
ARC
  5
208
330
1F
100
AcDbEntity
  8
0
  6
LTYPE2
 62
     2
100
AcDbCircle
 10
168.708136062
 20
219.02
 30
0.0
 40
4.0
100
AcDbArc
 50
228.590377891
 51
311.409622109
  0
ARC
  5
209
330
1F
100
AcDbEntity
  8
0
  6
LTYPE2
 62
     2
100
AcDbCircle
 10
168.708136062
 20
219.02
 30
0.0
 40
6.85
100
AcDbArc
 50
205.973551479
 51
334.026448521
  0
LINE
  5
20A
330
1F
100
AcDbEntity
  8
0
  6
LTYPE2
 62
     2
100
AcDbLine
 10
152.108136062
 20
198.02
 30
0.0
 11
152.108136062
 21
240.02
 31
0.0
  0
LINE
  5
20B
330
1F
100
AcDbEntity
  8
0
  6
LTYPE2
 62
     2
100
AcDbLine
 10
153.708136062
 20
198.02
 30
0.0
 11
153.708136062
 21
240.02
 31
0.0
  0
LINE
  5
20C
330
1F
100
AcDbEntity
  8
0
  6
LTYPE2
 62
     2
100
AcDbLine
 10
185.308136062
 20
198.02
 30
0.0
 11
185.308136062
 21
240.02
 31
0.0
  0
LINE
  5
20D
330
1F
100
AcDbEntity
  8
0
  6
LTYPE2
 62
     2
100
AcDbLine
 10
183.708136062
 20
198.02
 30
0.0
 11
183.708136062
 21
240.02
 31
0.0
  0
CIRCLE
  5
20E
330
1F
100
AcDbEntity
  8
0
  6
LTYPE2
 62
     2
100
AcDbCircle
 10
168.708136062
 20
219.02
 30
0.0
 40
13.0
  0
CIRCLE
  5
20F
330
1F
100
AcDbEntity
  8
0
  6
LTYPE2
 62
     2
100
AcDbCircle
 10
168.708136062
 20
219.02
 30
0.0
 40
11.0
  0
LINE
  5
210
330
1F
100
AcDbEntity
  8
0
  6
LTYPE2
 62
     2
100
AcDbLine
 10
283.573892324
 20
232.02
 30
0.0
 11
282.573892324
 21
231.02
 31
0.0
  0
LINE
  5
211
330
1F
100
AcDbEntity
  8
0
  6
LTYPE2
 62
     2
100
AcDbLine
 10
305.451552234
 20
232.02
 30
0.0
 11
283.573892324
 21
232.02
 31
0.0
  0
LINE
  5
212
330
1F
100
AcDbEntity
  8
0
  6
LTYPE2
 62
     2
100
AcDbLine
 10
283.573892324
 20
206.02
 30
0.0
 11
282.573892324
 21
207.02
 31
0.0
  0
LINE
  5
213
330
1F
100
AcDbEntity
  8
0
  6
LTYPE2
 62
     2
100
AcDbLine
 10
283.573892324
 20
206.02
 30
0.0
 11
305.451552234
 21
206.02
 31
0.0
  0
CIRCLE
  5
214
330
1F
100
AcDbEntity
  8
0
  6
LTYPE2
 62
     2
100
AcDbCircle
 10
293.573892324
 20
219.02
 30
0.0
 40
10.0
  0
LINE
  5
215
330
1F
100
AcDbEntity
  8
0
  6
LTYPE2
 62
     2
100
AcDbLine
 10
282.573892324
 20
231.02
 30
0.0
 11
282.573892324
 21
207.02
 31
0.0
  0
ARC
  5
216
330
1F
100
AcDbEntity
  8
0
  6
LTYPE2
 62
     2
100
AcDbCircle
 10
314.573892324
 20
219.02
 30
0.0
 40
10.0
100
AcDbArc
 50
123.98173366
 51
236.01826634
  0
ARC
  5
217
330
1F
100
AcDbEntity
  8
0
  6
LTYPE2
 62
     2
100
AcDbCircle
 10
314.573892324
 20
219.02
 30
0.0
 40
10.0
100
AcDbArc
 50
278.109849934
 51
328.733440996
  0
ARC
  5
218
330
1F
100
AcDbEntity
  8
0
  6
LTYPE2
 62
     2
100
AcDbCircle
 10
314.573892324
 20
219.02
 30
0.0
 40
10.0
100
AcDbArc
 50
31.266559004
 51
81.890150066
  0
LINE
  5
219
330
1F
100
AcDbEntity
  8
0
  6
LTYPE2
 62
     2
100
AcDbLine
 10
320.610903993
 20
232.02
 30
0.0
 11
314.340451982
 21
232.02
 31
0.0
  0
LINE
  5
21A
330
1F
100
AcDbEntity
  8
0
  6
LTYPE2
 62
     2
100
AcDbLine
 10
314.340451982
 20
206.02
 30
0.0
 11
320.610903993
 21
206.02
 31
0.0
  0
CIRCLE
  5
21B
330
1F
100
AcDbEntity
  8
0
  6
LTYPE2
 62
     2
100
AcDbCircle
 10
198.708136062
 20
219.02
 30
0.0
 40
3.1
  0
LINE
  5
21C
330
1F
100
AcDbEntity
  8
7
  6
Continuous
 62
     2
100
AcDbLine
 10
220.208136062
 20
244.02
 30
0.0
 11
233.708136062
 21
244.02
 31
0.0
  0
LINE
  5
21D
330
1F
100
AcDbEntity
  8
7
  6
Continuous
 62
     2
100
AcDbLine
 10
230.708136062
 20
244.02
 30
0.0
 11
229.737564643
 21
240.397778151
 31
0.0
  0
LINE
  5
21E
330
1F
100
AcDbEntity
  8
7
  6
Continuous
 62
     2
100
AcDbLine
 10
230.708136062
 20
244.02
 30
0.0
 11
231.678707481
 21
240.397778151
 31
0.0
  0
LINE
  5
21F
330
1F
100
AcDbEntity
  8
7
  6
Continuous
 62
     2
100
AcDbLine
 10
230.708136062
 20
244.02
 30
0.0
 11
230.708136062
 21
194.02
 31
0.0
  0
LINE
  5
220
330
1F
100
AcDbEntity
  8
7
  6
Continuous
 62
     2
100
AcDbLine
 10
230.708136062
 20
194.02
 30
0.0
 11
231.678707481
 21
197.642221849
 31
0.0
  0
LINE
  5
221
330
1F
100
AcDbEntity
  8
7
  6
Continuous
 62
     2
100
AcDbLine
 10
230.708136062
 20
194.02
 30
0.0
 11
229.737564643
 21
197.642221849
 31
0.0
  0
LINE
  5
222
330
1F
100
AcDbEntity
  8
7
  6
Continuous
 62
     2
100
AcDbLine
 10
220.208136062
 20
194.02
 30
0.0
 11
233.708136062
 21
194.02
 31
0.0
  0
TEXT
  5
223
330
1F
100
AcDbEntity
  8
7
  6
Continuous
 62
     2
100
AcDbText
 10
229.208136062
 20
216.095
 30
0.0
 40
4.5
  1
50
 50
90.0
 41
0.6
  7
KANJI0
 72
     5
 11
229.208136062
 21
221.945
 31
0.0
100
AcDbText
  0
LINE
  5
224
330
1F
100
AcDbEntity
  8
7
  6
Continuous
 62
     2
100
AcDbLine
 10
309.483794901
 20
234.929902577
 30
0.0
 11
336.707405977
 21
262.153513652
 31
0.0
  0
LINE
  5
225
330
1F
100
AcDbEntity
  8
7
  6
Continuous
 62
     2
100
AcDbLine
 10
334.586085633
 20
178.007806691
 30
0.0
 11
336.461085633
 21
181.255401955
 31
0.0
  0
LINE
  5
226
330
1F
100
AcDbEntity
  8
7
  6
Continuous
 62
     2
100
AcDbLine
 10
334.586085633
 20
178.007806691
 30
0.0
 11
337.833680897
 21
179.882806691
 31
0.0
  0
ARC
  5
227
330
1F
100
AcDbEntity
  8
7
  6
Continuous
 62
     2
100
AcDbCircle
 10
293.573892324
 20
219.02
 30
0.0
 40
58.0
100
AcDbArc
 50
315.0
 51
45.0
  0
LINE
  5
228
330
1F
100
AcDbEntity
  8
7
  6
Continuous
 62
     2
100
AcDbLine
 10
334.586085633
 20
260.032193309
 30
0.0
 11
336.461085633
 21
256.784598045
 31
0.0
  0
LINE
  5
229
330
1F
100
AcDbEntity
  8
7
  6
Continuous
 62
     2
100
AcDbLine
 10
334.586085633
 20
260.032193309
 30
0.0
 11
337.833680897
 21
258.157193309
 31
0.0
  0
LINE
  5
22A
330
1F
100
AcDbEntity
  8
7
  6
Continuous
 62
     2
100
AcDbLine
 10
309.483794901
 20
203.110097423
 30
0.0
 11
336.707405977
 21
175.886486348
 31
0.0
  0
TEXT
  5
22B
330
1F
100
AcDbEntity
  8
7
  6
Continuous
 62
     2
100
AcDbText
 10
349.899059855
 20
214.52
 30
0.0
 40
4.5
  1
90゜
 50
90.0
 41
0.6
  7
KANJI0
 72
     5
 11
349.899059855
 21
223.52
 31
0.0
100
AcDbText
  0
LINE
  5
22C
330
1F
100
AcDbEntity
  8
7
  6
Continuous
 62
     2
100
AcDbLine
 10
218.708136062
 20
192.52
 30
0.0
 11
218.708136062
 21
179.02
 31
0.0
  0
LINE
  5
22D
330
1F
100
AcDbEntity
  8
7
  6
Continuous
 62
     2
100
AcDbLine
 10
218.708136062
 20
182.02
 30
0.0
 11
215.085914213
 21
182.990571419
 31
0.0
  0
LINE
  5
22E
330
1F
100
AcDbEntity
  8
7
  6
Continuous
 62
     2
100
AcDbLine
 10
218.708136062
 20
182.02
 30
0.0
 11
215.085914213
 21
181.049428581
 31
0.0
  0
LINE
  5
22F
330
1F
100
AcDbEntity
  8
7
  6
Continuous
 62
     2
100
AcDbLine
 10
218.708136062
 20
182.02
 30
0.0
 11
118.708136062
 21
182.02
 31
0.0
  0
LINE
  5
230
330
1F
100
AcDbEntity
  8
7
  6
Continuous
 62
     2
100
AcDbLine
 10
118.708136062
 20
182.02
 30
0.0
 11
122.33035791
 21
181.049428581
 31
0.0
  0
LINE
  5
231
330
1F
100
AcDbEntity
  8
7
  6
Continuous
 62
     2
100
AcDbLine
 10
118.708136062
 20
182.02
 30
0.0
 11
122.33035791
 21
182.990571419
 31
0.0
  0
LINE
  5
232
330
1F
100
AcDbEntity
  8
7
  6
Continuous
 62
     2
100
AcDbLine
 10
118.708136062
 20
192.52
 30
0.0
 11
118.708136062
 21
179.02
 31
0.0
  0
TEXT
  5
233
330
1F
100
AcDbEntity
  8
7
  6
Continuous
 62
     2
100
AcDbText
 10
164.208136062
 20
183.52
 30
0.0
 40
4.5
  1
100
 41
0.6
  7
KANJI0
 72
     5
 11
173.208136062
 21
183.52
 31
0.0
100
AcDbText
  0
TEXT
  5
234
330
1F
100
AcDbEntity
  8
2
  6
Continuous
 62
     2
100
AcDbText
 10
376.25
 20
17.25
 30
0.0
 40
4.5
  1
用紙  A4
 41
0.9
  7
KANJI1
 72
     5
 11
402.8
 21
17.25
 31
0.0
100
AcDbText
  0
ENDSEC
  0
SECTION
  2
OBJECTS
  0
DICTIONARY
  5
C
330
0
100
AcDbDictionary
280
     0
281
     1
  3
ACAD_GROUP
350
D
  3
ACAD_LAYOUT
350
1A
  3
ACAD_MLINESTYLE
350
17
  3
ACAD_PLOTSETTINGS
350
19
  3
ACAD_PLOTSTYLENAME
350
E
  0
DICTIONARY
  5
D
102
{ACAD_REACTORS
330
C
102
}
330
C
100
AcDbDictionary
280
     0
281
     1
  0
DICTIONARY
  5
1A
102
{ACAD_REACTORS
330
C
102
}
330
C
100
AcDbDictionary
280
     0
281
     1
  3
Model
350
22
  3
ﾚｲｱｳﾄ1
350
1E
  3
ﾚｲｱｳﾄ2
350
26
  0
LAYOUT
  5
22
102
{ACAD_REACTORS
330
1A
102
}
330
1A
100
AcDbPlotSettings
  1

  2

  4

  6

 40
0.0
 41
0.0
 42
0.0
 43
0.0
 44
0.0
 45
0.0
 46
0.0
 47
0.0
 48
0.0
 49
0.0
140
0.0
141
0.0
142
1.0
143
1.0
 70
  1712
 72
     0
 73
     0
 74
     0
  7

 75
     0
147
1.0
148
0.0
149
0.0
100
AcDbLayout
  1
Model
 70
     1
 71
     0
 10
0.0
 20
0.0
 11
0.0
 21
0.0
 12
0.0
 22
0.0
 32
0.0
 14
0.0
 24
0.0
 34
0.0
 15
0.0
 25
0.0
 35
0.0
146
0.0
 13
0.0
 23
0.0
 33
0.0
 16
1.0
 26
0.0
 36
0.0
 17
0.0
 27
1.0
 37
0.0
 76
     0
330
1F
331
0
345
0
346
0
  0
LAYOUT
  5
1E
102
{ACAD_REACTORS
330
1A
102
}
330
1A
100
AcDbPlotSettings
  1

  2

  4

  6

 40
0.0
 41
0.0
 42
0.0
 43
0.0
 44
0.0
 45
0.0
 46
0.0
 47
0.0
 48
0.0
 49
0.0
140
0.0
141
0.0
142
1.0
143
1.0
 70
   688
 72
     0
 73
     0
 74
     5
  7

 75
    16
147
1.0
148
0.0
149
0.0
100
AcDbLayout
  1
ﾚｲｱｳﾄ1
 70
     1
 71
     1
 10
0.0
 20
0.0
 11
0.0
 21
0.0
 12
0.0
 22
0.0
 32
0.0
 14
0.0
 24
0.0
 34
0.0
 15
0.0
 25
0.0
 35
0.0
146
0.0
 13
0.0
 23
0.0
 33
0.0
 16
1.0
 26
0.0
 36
0.0
 17
0.0
 27
1.0
 37
0.0
 76
     0
330
1B
331
0
345
0
346
0
  0
LAYOUT
  5
26
102
{ACAD_REACTORS
330
1A
102
}
330
1A
100
AcDbPlotSettings
  1

  2

  4

  6

 40
0.0
 41
0.0
 42
0.0
 43
0.0
 44
0.0
 45
0.0
 46
0.0
 47
0.0
 48
0.0
 49
0.0
140
0.0
141
0.0
142
1.0
143
1.0
 70
   688
 72
     0
 73
     0
 74
     5
  7

 75
    16
147
1.0
148
0.0
149
0.0
100
AcDbLayout
  1
ﾚｲｱｳﾄ2
 70
     1
 71
     2
 10
0.0
 20
0.0
 11
0.0
 21
0.0
 12
0.0
 22
0.0
 32
0.0
 14
0.0
 24
0.0
 34
0.0
 15
0.0
 25
0.0
 35
0.0
146
0.0
 13
0.0
 23
0.0
 33
0.0
 16
1.0
 26
0.0
 36
0.0
 17
0.0
 27
1.0
 37
0.0
 76
     0
330
23
331
0
345
0
346
0
  0
DICTIONARY
  5
17
102
{ACAD_REACTORS
330
C
102
}
330
C
100
AcDbDictionary
280
     0
281
     1
  3
Standard
350
18
  0
MLINESTYLE
  5
18
102
{ACAD_REACTORS
330
17
102
}
330
17
100
AcDbMlineStyle
  2
STANDARD
 70
     0
  3

 62
   256
 51
90.0
 52
90.0
 71
     2
 49
0.5
 62
   256
  6
ByLayer
 49
-0.5
 62
   256
  6
ByLayer
  0
DICTIONARY
  5
19
102
{ACAD_REACTORS
330
C
102
}
330
C
100
AcDbDictionary
280
     0
281
     1
  0
ACDBDICTIONARYWDFLT
  5
E
330
C
100
AcDbDictionary
281
     0
  3
Normal
350
F
100
AcDbDictionaryWithDefault
340
F
  0
ACDBPLACEHOLDER
  5
F
102
{ACAD_REACTORS
330
E
102
}
330
E
  0
ENDSEC
  0
EOF
